Oops, an error
Loading. Please wait.

Back In The Ussr Bass Tab

ver3
ver3

Whole song

More versions @911Tabs.com
5,465 views 9 this week
1 commentread comment
1 2 3 4 5
excellent!
x 3
Autoscroll
+/-
esc
set tempo
stop
Contributor
WARNING: You are trying to view
                                    content from Ultimate-Guitar.com
                                    in an unauthorized application,
                                    which is prohibited.

                                    Please use an official Ultimate
                                    Guitar Tabs application for iPhone,
                                    iPad or Android to access legitimate
                                    chords, guitar, bass, and drum tabs
                                    from Ultimate-Guitar.com database.

                                    Type "ultimate guitar tabs" in Apple
                                    App Store's or Android Market's
                                    search to find the application.
      --------------------------------------------------------------


                    THE BEATLES - BACK IN THE U.S.S.R.
                              Paul McCartney
           From THE WHITE ALBUM, released on November 22nd 1968

      --------------------------------------------------------------





     INTRO
     00:10

  G|---------------------------------|---------------------------------|
  D|---------------------------------|---------------------------------|
  A|-7---7---7---7---7---7---7---7---|-7---7---7---7---7---7---7---7---|
  E|---------------------------------|---------------------------------|





  G|---------------------------------|---------------------------------|
  D|---------------------------------|---------------------------------|
  A|-7---7---7---7---7---7---7---7---|-7---7---7---7---7---7---7---7---|
  E|---------------------------------|---------------------------------|





     VERSE
     00:16

  G|---------------------------------|---------------------------------|
  D|-7-------5---5-------------------|---------------------------------|
  A|-----------------7---7---4---0---|-5---5---5---5---5---5---5---0---|
  E|---------------------------------|---------------------------------|





  G|---------------------------------|---------------------------------|
  D|---------------------------------|---------------------------------|
  A|-3---3---3---3-3-3---3---3---3---|-5---5---5---5---5---5---5---5---|
  E|---------------------------------|---------------------------------|





  G|---------------------------------|---------------------------------|
  D|-7-------5-----------------------|---------------------------------|
  A|-----------------7-------4-------|-5-----------5---5---5---5---5---|
  E|---------------------------------|---------------------------------|





  G|---------------------------------|---------------------------------|
  D|---------------------------------|---------------------------------|
  A|-3---3---3---3---3---3---3---3---|-5---5---5---5---5---5---5---5---|
  E|---------------------------------|---------------------------------|





     CHORUS


  G|---------------------------------|---------------------------------|
  D|-7---7-------7---7---7-----------|---------------------------------|
  A|-----------------------------0---|-3-------3-------3---3---3---3---|
  E|---------------------------------|---------------------------------|





  G|---------------------------------|---------------------------------|
  D|---------------------------------|---------------------------------|
  A|-5---5-------5---5---5---5---5---|-5-------------------------------|
  E|---------------------------------|---------------------------------|





  G|---------------------------------|-------------9-------------------|
  D|-7---7---7---7---7---7---7---7---|-7---7---7-----------7-----------|
  A|---------------------------------|-----------------------------7---|
  E|---------------------------------|---------------------------------|





     VERSE


  G|---------------------------------|---------------------------------|
  D|-7-------5-----------------------|---------------------------------|
  A|-----------------7---7---4---x---|-5---5---5---5---5---5---5---0---|
  E|---------------------------------|---------------------------------|





  G|---------------------------------|---------------------------------|
  D|---------------------------------|-----------------4---7---4-------|
  A|-3---3---3---3-3-3---3---3---3---|-5---5---5---5-5-----------7-5---|
  E|---------------------------------|---------------------------------|





  G|---------------------------------|---------------------------------|
  D|-7-------5-----------------------|-----------------4---7---4-------|
  A|-----------------7---7---4---4---|-5---5---5---5-------------7-5---|
  E|---------------------------------|---------------------------------|





  G|---------------------------------|---------------------------------|
  D|---------------------------------|---------------------------------|
  A|-3---3---3---3---3---3---3---3---|-5---5---5---5---5---5---5---5---|
  E|---------------------------------|---------------------------------|





     CHORUS


  G|---------------------------------|---------------------------------|
  D|-7-------7-------7-------7-------|---------------------------------|
  A|-----------------------------0-2-|-3---3---3---3---3---3---3---3---|
  E|---------------------------------|---------------------------------|





  G|---------------------------------|-------------------------|
  D|---------------------------------|-------------------------|
  A|-5---5---5---5---5---5---5---5---|-7-----------------------|
  E|---------------------------------|-------------------------|





  G|-------------------------|---------------------------------|
  D|-------------------------|---------------------------------|
  A|-------------------------|---------------------------------|
  E|-------------------------|---------------------------------|





  G|---------------------------------|---------------------------------|
  D|---------------------------------|---------------------------------|
  A|-0---0---0---0-0-0-----0-0-----0-|-0-----0-2-------3-------4-------|
  E|---------------------------------|---------------------------------|





     BRIDGE


  G|---------------------------------|---------------------------------|
  D|---------------------------------|---------------------------------|
  A|-5---5---5---5---5---5---5---5---|-5---5---5---5-5-5---5-5-5---5-5-|
  E|---------------------------------|---------------------------------|





  G|---------------------------------|---------------------------------|
  D|-7---7---7---7---7---7---7---7---|-7---7---7---7---5---5-----------|
  A|---------------------------------|-------------------------7---7---|
  E|---------------------------------|---------------------------------|





  G|---------------------------------|---------------------------------|
  D|---------------------------------|---------------------------------|
  A|-5---5---5-------4---4---4-------|-3---3---3-------2---2---2-------|
  E|---------------------------------|---------------------------------|





  G|---------------------------------|---------------------------------|
  D|---------------------------------|---------------------------------|
  A|-7---7---7-------7---7---7---7---|-5---5---5---5---5---5---5---7---|
  E|---------------------------------|---------------------------------|





  G|---------------------------------|---------------------------------|
  D|-7---7---7---7---7---7---7---7---|-7---7---7---7---7---7---7---7---|
  A|---------------------------------|---------------------------------|
  E|---------------------------------|---------------------------------|





     GUITAR SOLO


  G|---------------------------------|---------------------------------|
  D|-7---7---5---5-------------------|-----------------4---7---4-------|
  A|-----------------7---7---4---4---|-5---5---5---5---------------5---|
  E|---------------------------------|---------------------------------|





  G|---------------------------------|---------------------------------|
  D|---------------------------------|-----------------4---7---4-------|
  A|-3---3---3---3---3---3---3---3---|-5---5---5---5-------------7-5---|
  E|---------------------------------|---------------------------------|





  G|---------------------------------|---------------------------------|
  D|-7-------5---5-------------------|---------------------------------|
  A|-----------------7---7---4---4---|-5---5---5---5---5---5---5---5---|
  E|---------------------------------|---------------------------------|





  G|---------------------------------|---------------------------------|
  D|---------------------------------|-----------------4---7---4-------|
  A|-3---3---3---3---3---3---3---3---|-5---5---5---5-------------------|
  E|---------------------------------|---------------------------------|





     CHORUS


  G|---------------------------------|---------------------------------|
  D|-7---7---7-------7---7---7-------|---------------------------------|
  A|-------------7---------------0---|-3---3---3---3---3---3---3---3---|
  E|---------------------------------|---------------------------------|





  G|---------------------------------|---------------------------------|
  D|---------------------------------|---------------------------------|
  A|-5---5---5---5---5---5---5---5---|-5-------------------------------|
  E|---------------------------------|---------------------------------|





  G|---------------------------------|---------------------------------|
  D|---------------------------------|---------------------------------|
  A|-0---0---0---0---0---0---0---0---|-0-------2-------3-------4-------|
  E|---------------------------------|---------------------------------|





     BRIDGE


  G|---------------------------------|---------------------------------|
  D|---------------------------------|---------------------------------|
  A|-5---5-------0---5-----------0---|-5---5-------0---5---5---5-------|
  E|---------------------------------|---------------------------------|





  G|---------------------------------|---------------------------------|
  D|---------------------------------|---------------------------------|
  A|-0---0---0---0---0---0---0---0---|-0---0---0---0---0-------0-------|
  E|---------------------------------|---------------------------------|





  G|---------------------------------|---------------------------------|
  D|---------------------------------|---------------------------------|
  A|-5---5-----------4---4-----------|-3---3-----------2---------------|
  E|---------------------------------|---------------------------------|





  G|---------------------------------|---------------------------------|
  D|---------------------------------|---------------------------------|
  A|-7---7---7---7---7---7---7---7---|-5---5---5---5---5---5---5---5---|
  E|---------------------------------|---------------------------------|





  G|---------------------------------|---------6---9-------------------|
  D|-----------------7---7---7---7---|-7---7---------------------------|
  A|-0---0---0---0-------------------|---------------------------------|
  E|---------------------------------|---------------------------------|






     VERSE


  G|---------------------------------|---------------------------------|
  D|-7---7---5-----------------------|---------------------------------|
  A|-----------------7-------4-------|-5---5---5---5---5---5---5---5---|
  E|---------------------------------|---------------------------------|





  G|---------------------------------|---------------------------------|
  D|---------------------------------|---------------------------------|
  A|-3---3---3---3---3---3---3---3---|-5---5---5---5---5---5---5---5---|
  E|---------------------------------|---------------------------------|





  G|---------------------------------|---------------------------------|
  D|-7-------5-----------------------|-----------------4---7---4-------|
  A|-----------------7-------4---4---|-5---5---5---5-------------7-5---|
  E|---------------------------------|---------------------------------|





  G|---------------------------------|---------------------------------|
  D|---------------------------------|-----------------4-------7-------|
  A|-3---3---3---3---3---3---3---3---|-5---5---5---5-------------------|
  E|---------------------------------|---------------------------------|





     CHORUS


  G|---------------------------------|---------------------------------|
  D|-7-------7-------7-------7-------|---------------------------------|
  A|-------------7-------------------|-3-------3---3---3---3---3---3---|
  E|---------------------------------|---------------------------------|





  G|---------------------------------|---------------------------------|
  D|---------------------------------|---------------------------------|
  A|-5---5---5---5---5---5---5---5---|-5-------------------------------|
  E|---------------------------------|---------------------------------|





  G|---------------------------------|-------------14------------------|
  D|---------------------------------|---------------------------------|
  A|-0---0---0---0---0---0---0---0---|-0---0---0-----------------------|
  E|---------------------------------|---------------------------------|





     OUTRO


  G|-------------14------------------|---------------------------------|
  D|---------------------------------|---------------------------------|
  A|-12--12--12------12--12--12--12--|-12--12--12--12--12--12--12--12--|
  E|---------------------------------|---------------------------------|





  G|-------------14------------------|-------------14------------------|
  D|---------------------------------|---------------------------------|
  A|-12--12--12------12--12--12--12--|-12--12--12------12--12--12--12--|
  E|---------------------------------|---------------------------------|





  G|-------------14------------------|-------------14------------------|
  D|---------------------------------|---------------------------------|
  A|-12--12--12------12--12--12--12--|-12--12--12------12--12--12--12--|
  E|---------------------------------|---------------------------------|





  G|---------------------------------|---------------------------------|
  D|---------------------------------|---------------------------------|
  A|---------------------------------|---------------------------------|
  E|---------------------------------|---------------------------------|
comments
We did not receive enough feedback on this tab! Please rate:
1 2 3 4 5
1 comment total.
0 reply
BIGSTEVE808 wrote on June 12 2011, 02:30 pm

Pretty good tab, I can hear some extra fills in the track that aren't tabbed out here. The first verse doesn't seem quite right either.

I want to post or [tab]
guest
You may want to rate the tab now too:
select rating
Please do not post tabs as comments. Select "correction" instead!