Oops, an error
Loading. Please wait.

Beatles For Sale Tab

17,064 views 93 this week
no commentswrite comment
1 2 3 4 5
excellent!
x 1
add to favorites launch autoscroll
font size
0
reset
Autoscroll
+/-
esc
set tempo
stop
Contributor
WARNING: You are trying to view
                                    content from Ultimate-Guitar.com
                                    in an unauthorized application,
                                    which is prohibited.

                                    Please use an official Ultimate
                                    Guitar Tabs application for iPhone,
                                    iPad or Android to access legitimate
                                    chords, guitar, bass, and drum tabs
                                    from Ultimate-Guitar.com database.

                                    Type "ultimate guitar tabs" in Apple
                                    App Store's or Android Market's
                                    search to find the application.
                THE BEATLES - BEATLES FOR SALE

             1  NO REPLY
             2  I'M A LOSER
             3  BABY'S IN BLACK
             4  ROCK AND ROLL MUSIC
             5  I'LL FOLLOW THE SUN
             6  MR MOONLIGHT
             7  KANSAS CITY/ HEY HEY HEY
             8  EIGHT DAYS A WEEK
             9  WORDS OF LOVE
            10  HONEY DON'T
            11  EVERY LITTLE THING
            12  I DON'T WANT TO SPOIL THE PARTY
            13  WHAT YOU'RE DOING
            14  EVERYBODY'S TRYING TO BE MY BABY 


  ------------------------------------------------------------------

  THE BEATLES - NO REPLY (Lennon & McCartney) from  BEATLES FOR SALE 
                album. Released on December 4th 1964.

  ------------------------------------------------------------------

  Tabbed by: PJVillanueva


                                             
                      
  This happened once before                    
  When I came to your door No reply                                           
  They said it wasn't you                         
  But I saw you peep through your window
           
  I saw the light   I saw the light
                                        
  I know that you saw me                      
  As I looked up to see your face
  *                                           
  I tried to telephone                           
  They said you were not home That's a lie                                          
  'Cos I know where you've been                
  I saw you walk in your door
          
  I nearly died   I nearly died
                                       
 'Cos you walked hand in hand               
  With another man in my place 
                 
  If I were you  I'd realise that I            
  Love you more than any other guy                      
  An' I'll forgive   the lies that I           
  Heard before when you gave me no reply *
      
  No reply    No reply



e|------- ------- ------- -------|------- ------- ------- -------|
B|-------------------------------|-------------------------------|
G|-------------------------------|-------------------------------|
D|-------------------------------|-------------------------------|
A|-------------------------------|-------------------------------|
E|-------------------------------|-------------------------------|
                                              This        once 
                                                  happened    before

  F6                              G
e|1---1-- 1------ 1---1-- 1---1--|3---3-- 3---3-- 3---3-- 3---3--|
B|3---3---3-------3---3---3---3--|3---3---3---3---3---3---3---3--|
G|2---2---2-------2---2---2---2--|0---0---0---0---0---0---0---0--|
D|1---1---1-------1---1---1---1--|0---0---0---0---0---0---0---0--|
A|3---3---3-------3---3---3---3--|2---2---2---2---2---2---2---2--|
E|1---1---1-------1---1---1---1--|3---3---3---3---3---3---3---3--|
  fore        when    came    your                        no  reply
                  I       to      door

  C
e|0---0-- 0---0-- ----0-- 0---0--|0---0-- 0---0-- 0---0-- 0------|
B|1---1---1---1-------1---1---1--|1---1---1---1---1---1---1------|
G|0---0---0---0-------0---0---0--|0---0---0---0---0---0---0------|
D|2---2---2---2-------2---2---2--|2---2---2---2---2---2---2------|
A|3---3---3---3-------3---3---3--|3---3---3---3---3---3---3------|
E|-------------------------------|-------------------------------|
                                              They    it  wasn't 
                                                  said

  F6                              G
e|1---1-- 1------ 1---1-- 1------|3---3-- 3---3-- ----3-- -------|
B|3---3---3-------3---3---3------|3---3---3---3-------3----------|
G|2---2---2-------2---2---2------|0---0---0---0-------0----------|
D|1---1---1-------1---1---1------|0---0---0---0-------0----------|
A|3---3---3-------3---3---3------|2---2---2---2-------2----------|
E|1---1---1-------1---1---1------|3---3---3---3-------3----------|
  you        but      saw you peep                            your
                I                 through

  C                                                           Am
e|----0-- 0---0-- ----0-- 0---0--|----0-- 0---0-- 0------ ----0--|
B|----1---1---1-------1---1---1--|----1---1---1---1-----------1--|
G|----0---0---0-------0---0---0--|----0---0---0---0-----------2--|
D|----2---2---2-------2---2---2--|----2---2---2---2-----------2--|
A|----3---3---3-------3---3---3--|----3---3---3---3-----------0--|
E|-------------------------------|----------------3--------------|
  window                                          I   saw the light



                              Em                             Fmaj7b5
e|------- 0------ 0---0-- 0---0--|------- 0------ 0---0-- 0---0--|
B|--------1-------1---1---1---0--|--------0-------0---0---0---0--|
G|--------2-------2---2---2---0--|--------0-------0---0---0---2--|
D|--------2-------2---2---2---2--|--------2-------2---2---2---3--|
A|--------0-------0---0---0---2--|--------2-------2---2---2---3--|
E|----------------------------0--|--------0-------0---0---0---1--|
                                                  I   saw the light



                              Em          
e|------- 0------ 0---0-- ----0--|------- 0------ 0---0-- 0---0--|
B|--------0-------0---0-------0--|--------0-------0---0---0---0--|
G|--------2-------2---2-------0--|--------0-------0---0---0---0--|
D|--------3-------3---3-------2--|--------2-------2---2---2---2--|
A|--------3-------3---3-------2--|--------2-------2---2---2---2--|
E|--------1-------1---1-------0--|--------0-------0---0---0---0--|
                                              I   know    you saw 
                                                      that


  Dm                              G6
e|1------ 1------ 1---1-- -------|3------ 3------ 3---3-- -------|
B|3-------3-------3---3----------|5-------5-------5---5----------|
G|2-------2-------2---2----------|4-------4-------4---4----------|
D|0-------0-------0---0----------|3-------3-------3---3----------|
A|-------------------------------|5-------5-------5---5----------|
E|-------------------------------|3-------3-------3---3----------|
  me         'cause   looked  to  see                     your
                  I       up


  C
e|----0-- 0---0-- ----0-- 0---0--|----0-- 0---0-- ----0-- 0------|
B|----1---1---1-------1---1---1--|----1---1---1-------1---1------|
G|----0---0---0-------0---0---0--|----0---0---0-------0---0------|
D|----2---2---2-------2---2---2--|----2---2---2-------2---2------|
A|----3---3---3-------3---3---3--|----3---3---3-------3---3------|
E|----3---3---3-------3---3---3--|----3---3---3-------3---3------|
  face                                        I   tried   telephone
                                                      to

  F6                              G
e|1------ 1------ ------- 1------|3------ 3---3-- ----3-- 3------|
B|3-------3---------------3------|3-------3---3-------3---3------|
G|2-------2---------------2------|0-------0---0-------0---0------|
D|1-------1---------------1------|0-------0---0-------0---0------|
A|3-------3---------------3------|2-------2---2-------2---2------|
E|1-------1---------------1------|3-------3---3-------3---3------|
              they    you were    home                    that's 
                  said        not                             a


  C
e|0---0-- 0---0-- ----0-- ----0--|0---0-- 0------ 0------ 0------|
B|1---1---1---1-------1-------1--|1---1---1-------1-------1------|
G|0---0---0---0-------0-------0--|0---0---0-------0-------0------|
D|2---2---2---2-------2-------2--|2---2---2-------2-------2------|
A|3---3---3---3-------3-------3--|3---3---3-------3-------3------|
E|3---3---3---3-------3-------3--|3---3---3-------3-------3------|
  lie                                        'cause   know    you've
                                                  I       where


  F6                              G6
e|1---1-- 1------ 1---1-- ----1--|3---3-- 3---3-- ----3-- 3------|
B|3---3---3-------3---3-------3--|5---5---5---5-------5---5------|
G|2---2---2-------2---2-------2--|4---4---4---4-------4---4------|
D|1---1---1-------1---1-------1--|3---3---3---3-------3---3------|
A|3---3---3-------3---3-------3--|5---5---5---5-------5---5------|
E|1---1---1-------1---1-------1--|3---3---3---3-------3---3------|
  been        I       saw you walk                        your
                                  in


  C                                                           Am
e|0---0-- ----5-- ----5-- 5---5--|5------ 5------ 0------ ----0--|
B|1---1-------5-------5---5---5--|5-------5-------1-----------1--|
G|0---0-------5-------5---5---5--|5-------5-------0-----------2--|
D|2---2-------5-------5---5---5--|5-------5-------2-----------2--|
A|3---3-------3-------3---3---3--|3-------3-------3-----------0--|
E|3---3--------------------------|----------------3--------------|
  door                                            I   nearly  died



                              Em                             Fmaj7b5
e|------- 0------ 0---0-- ----0--|------- 0------ 0---0-- 0---0--|
B|--------1-------1---1-------0--|--------0-------0---0---0---0--|
G|--------2-------2---2-------0--|--------0-------0---0---0---2--|
D|--------2-------2---2-------2--|--------2-------2---2---2---3--|
A|--------0-------0---0-------2--|--------2-------2---2---2---3--|
E|----------------------------0--|--------0-------0---0---0---1--|
                                                  I   nearly  died



                              Em
e|------- 0------ 0---0-- 0---0--|------- 0------ 0---0-- 0---0--|
B|--------0-------0---0---0---0--|--------0-------0---0---0---0--|
G|--------2-------2---2---2---0--|--------0-------0---0---0---0--|
D|--------3-------3---3---3---2--|--------2-------2---2---2---2--|
A|--------3-------3---3---3---2--|--------2-------2---2---2---2--|
E|--------1-------1---1---1---0--|--------0-------0---0---0---0--|
                                             'cause   walked  in
                                                  you     hand


  F6                              G6
e|------- 1------ 1---1-- 1------|3------ 3------ 3---3-- 3------|
B|--------3-------3---3---3------|5-------5-------5---5---5------|
G|--------2-------2---2---2------|4-------4-------4---4---4------|
D|--------1-------1---1---1------|3-------3-------3---3---3------|
A|--------3-------3---3---3------|5-------5-------5---5---5------|
E|--------1-------1---1---1------|3-------3-------3---3---3------|
  hand            with            man                 in  my
                      another


  C
e|0------ 0------ 0---0-- ----0--|0------ 0------ ----0-- ----0--|
B|1-------1-------1---1-------1--|1-------1-----------1-------1--|
G|0-------0-------0---0-------0--|0-------0-----------0-------0--|
D|2-------2-------2---2-------2--|2-------2-----------2-------2--|
A|3-------3-------3---3-------3--|3-------3-----------3-------3--|
E|3-------3-------3---3-------3--|3-------3-----------3-------3--|
  place                                               If  I   were 



                                  E
e|0------ 0------ 0---0-- 0---0--|0------ 0------ 0---0-- 0------|
B|1-------1-------1---1---1---1--|0-------0-------0---0---0------|
G|0-------0-------0---0---0---0--|1-------1-------1---1---1------|
D|2-------2-------2---2---2---2--|2-------2-------2---2---2------|
A|3-------3-------3---3---3---3--|2-------2-------2---2---2------|
E|3-------3-------3---3---3---3--|0------------------------------|
  you                     I'd     realise                 that


  A             
e|0------ 0------ 0---0-- -------|0------ 0------ 0---0-- 0---0--|
B|2-------2-------2---2----------|2-------2-------2---2---2---2--|
G|2-------2-------2---2----------|2-------2-------2---2---2---2--|
D|2-------2-------2---2----------|2-------2-------2---2---2---2--|
A|0-------0-------0---0----------|0-------0-------0---0---0---0--|
E|-------------------------------|-------------------------------|
  I                                                       love
                                                              you

  Dm                              F
e|1------ 1------ 1---1-- 1------|1------ 1------ 1---1-- 1------|
B|3-------3-------3---3---3------|1-------1-------1---1---1------|
G|2-------2-------2---2---2------|2-------2-------2---2---2------|
D|0-------0-------0---0---0------|3-------3-------3---3---3------|
A|-------------------------------|3-------3-------3---3---3------|
E|-------------------------------|1-------1-------1---1---1------|
  more                       than any             other


  C
e|0------ ----0-- 0---0-- 0---0--|0------ 0------ 0---0-- 0------|
B|1-----------1---1---1---1---1--|1-------1-------1---1---1------|
G|0-----------0---0---0---0---0--|0-------0-------0---0---0------|
D|2-----------2---2---2---2---2--|2-------2-------2---2---2------|
A|3-----------3---3---3---3---3--|3-------3-------3---3---3------|
E|3-----------3---3---3---3---3--|3-------3-------3---3---3------|
  guy                                                 and I'll 
                                                              forgive

                                  E
e|0------ 0------ 0---0-- 0---0--|0------ 0------ 0---0-- 0---0--|
B|1-------1-------1---1---1---1--|0-------0-------0---0---0---0--|
G|0-------0-------0---0---0---0--|1-------1-------1---1---1---1--|
D|2-------2-------2---2---2---2--|2-------2-------2---2---2---2--|
A|3-------3-------3---3---3---3--|2-------2-------2---2---2---2--|
E|3-------3-------3---3---3---3--|0-------0-------0---0---0---0--|
                          the     lies                    that


  A 
e|0------ 0------ 0---0-- ----0--|0------ 0------ 0---0-- 0------|
B|2-------2-------2---2-------2--|2-------2-------2---2---2------|
G|2-------2-------2---2-------2--|2-------2-------2---2---2------|
D|2-------2-------2---2-------2--|2-------2-------2---2---2------|
A|0-------0-------0---0-------0--|0-------0-------0---0---0------|
E|-------------------------------|-------------------------------|
  I                                                       heard 
                                                              before

  Dm                              F
e|1------ 1------ 1---1-- 1------|1------ 1------ 1---1-- 1------|
B|3-------3-------3---3---3------|1-------1-------1---1---1------|
G|2-------2-------2---2---2------|2-------2-------2---2---2------|
D|0-------0-------0---0---0------|3-------3-------3---3---3------|
A|-------------------------------|3-------3-------3---3---3------|
E|-------------------------------|1-------1-------1---1---1------|
                          when    gave    me      no      reply
                              you

  C
e|0------ 0---0-- ----0-- ----0--|0------ 0------ 0---0-- 0------|
B|1-------1---1-------1-------1--|1-------1-------1---1---1------|
G|0-------0---0-------0-------0--|0-------0-------0---0---0------|
D|2-------2---2-------2-------2--|2-------2-------2---2---2------|
A|3-------3---3-------3-------3--|3-------3-------3---3---3------|
E|3-------3---3-------3-------3--|3-------3-------3---3---3------|
                                              I   tried   telephone
                                                      to


  F6                              G6
e|1------ 1---1-- ----1-- 1------|3------ 3---3-- ----3-- 3------|
B|3-------3---3-------3---3------|5-------5---5-------5---5------|
G|2-------2---2-------2---2------|4-------4---4-------4---4------|
D|1-------1---1-------1---1------|3-------3---3-------3---3------|
A|3-------3---3-------3---3------|5-------5---5-------5---5------|
E|1-------1---1-------1---1------|3-------3---3-------3---3------|  
              they    you were    home                    that's 
                  said        not                             a

  C
e|0------ 0---0-- ----0-- 0---0--|0---0-- 0------ 0---0-- 0------|
B|1-------1---1-------1---1---1--|1---1---1-------1---1---1------|
G|0-------0---0-------0---0---0--|0---0---0-------0---0---0------|
D|2-------2---2-------2---2---2--|2---2---2-------2---2---2------|
A|3-------3---3-------3---3---3--|3---3---3-------3---3---3------|
E|3-------3---3-------3---3---3--|3---3---3-------3---3---3------|
  lie                                        'cause   know    you've  
                                                  I       where

  F6                              G6
e|1------ 1------ ----1-- 1------|3---3-- 3------ 3---3-- 3---3--|
B|3-------3-----------3---3------|5---5---5-------5---5---5---5--|
G|2-------2-----------2---2------|4---4---4-------4---4---4---4--|
D|1-------1-----------1---1------|3---3---3-------3---3---3---3--|
A|3-------3-----------3---3------|5---5---5-------5---5---5---5--|
E|1-------1-----------1---1------|3---3---3-------3---3---3---3--|
  been        and     saw you walk                        your
                I                 in


  C                                                           Am
e|0---0-- 0---0-- ----0-- 0------|0------ 0------ 0------ ----0--|
B|1---1---1---1-------1---1------|1-------1-------1-----------1--|
G|0---0---0---0-------0---0------|0-------0-------0-----------2--|
D|2---2---2---2-------2---2------|2-------2-------2-----------2--|
A|3---3---3---3-------3---3------|3-------3-------3-----------0--|
E|-------------------------------|----------------3--------------|
  door                                            I   nearly  died



                              Em                             Fmaj7b5
e|------- 0------ 0---0-- 0---0--|------- 0------ 0---0-- 0---0--|
B|--------1-------1---1---1---0--|--------0-------0---0---0---0--|
G|--------2-------2---2---2---0--|--------0-------0---0---0---2--|
D|--------2-------2---2---2---2--|--------2-------2---2---2---3--|
A|--------0-------0---0---0---2--|--------2-------2---2---2---3--|
E|----------------------------0--|--------0-------0---0---0---1--|
                                                  I   nearly  died

                              Em

e|------- 0------ 0---0-- 0---0--|------- 0------ 0---0-- 0---0--|
B|--------0-------0---0---0---0--|--------0-------0---0---0---0--|
G|--------2-------2---2---2---0--|--------0-------0---0---0---0--|
D|--------3-------3---3---3---2--|--------2-------2---2---2---2--|
A|--------3-------3---3---3---2--|--------2-------2---2---2---2--|
E|--------1-------1---1---1---0--|--------0-------0---0---0---0--|
                                             'cause   walked  in
                                                  you     hand

  F6                              G6
e|1------ 1------ 1---1-- 1------|3------ 3------ 3---3-- 3------|
B|3-------3-------3---3---3------|5-------5-------5---5---5------|
G|2-------2-------2---2---2------|4-------4-------4---4---4------|
D|1-------1-------1---1---1------|3-------3-------3---3---3------|
A|3-------3-------3---3---3------|5-------5-------5---5---5------|
E|1-------1-------1---1---1------|3-------3-------3---3---3------|
  hand            with            man                 in  my 
                      another


  C                                                           Am
e|0------ 0---0-- ----0-- 0---0--|0------ 0------ 0------ ----0--|
B|1-------1---1-------1---1---1--|1-------1-------1-----------1--|
G|0-------0---0-------0---0---0--|0-------0-------0-----------2--|
D|2-------2---2-------2---2---2--|2-------2-------2-----------2--|
A|3-------3---3-------3---3---3--|3-------3-------3-----------0--|
E|-------------------------------|----------------3--------------|
  place                                           No  reply



                              Em                             Fmaj7b5
e|------- 0------ 0---0-- 0---0--|------- 0------ 0---0-- 0---0--|
B|--------1-------1---1---1---0--|--------0-------0---0---0---0--|
G|--------2-------2---2---2---0--|--------0-------0---0---0---2--|
D|--------2-------2---2---2---2--|--------2-------2---2---2---3--|
A|--------0-------0---0---0---2--|--------2-------2---2---2---3--|
E|----------------------------0--|--------0-------0---0---0---1--|
                                                  No  reply


                              (.
                              C9
e|------- 0------ 0---0-- 0---3--|------- ------- ------- -------|
B|--------0-------0---0---0---3--|-------------------------------|
G|--------2-------2---2---2---0--|-------------------------------|
D|--------3-------3---3---3---2--|-------------------------------|
A|--------3-------3---3---3---3--|-------------------------------|
E|--------1-------1---1---1------|-------------------------------|






        B  Bend
        R  Release
        /  Slide up
        \  Slide down
        H  Hammer-on
        P  Pull-off
        ~  Vibrato
        +  Harmonic
        x  Mute note
        .  Play note like a dot in standard notation
        ^  Ties two notes together
        (. Pause



  ---------------------------------------------------------------

  THE BEATLES - I'M A LOSER (Lennon & McCartney) From BEATLES FOR 
                SALE album. Released 4th December 1964.

  ---------------------------------------------------------------

  Tabbed by:PJVillanueva





  I'm a loser
  I'm a loser
  And I'm not what I appear to be

  Of all the love I have won or have lost
  there is one love I should never have crossed
  She was a girl in a million, my friend
  I should have known she would win in the end

  I'm a loser
  And I lost someone who's near to me
  I'm a loser
  And I'm not what I appear to be

  Although I laugh and I act like a clown
  Beneath this mask I am wearing a frown
  My tears are falling like rain from the sky
  Is it for her or myself that I cry

  I'm a loser
  And I lost someone who's near to me
  I'm a loser
  And I'm not what I appear to be

  What have I done to deserve such a fate
  I realize I have left it too late
  And so it's true, pride comes before a fall
  I'm telling you so that you won't lose all

  I'm a loser
  And I lost someone who's near to me
  I'm a loser
  And I'm not what I appear to be


                                                   I'm a                                   
                             (.
e|------ ------ ------ ------|------ ------ ------ ------|
B|--------------1------------|3--------------------------|
G|--------------2------------|2--------------------------|
D|-------2-------------------|0--------------------------|
A|0--------------------------|0--------------------------|
E|---------------------------|---------------------------|
  loser                                            I'm a


                             (.
e|------ ------ ------ ------|------ ------ ------ ------|
B|--------------1------------|3--------------------------|
G|--------------2------------|2--------------------------|
D|-------2-------------------|0--------------------------|
A|0--------------------------|0--------------------------|
E|---------------------------|---------------------------|
  loser                                         and 
                                                   I'm 

  
e|------ 0----- ----0- 0-----|0----- 0----- ------ ------|
B|-------1----------1--1-----|1------1-------------------|
G|2------2----------2--2-----|2------2-------------------|
D|2------2----------2--2-----|3------3-------------------|
A|0------0----------0--0-----|---------------------------|
E|---------------------------|---------------------------|
  not    what   I      appear        to  be


  00:11
  
e|3----- 3----- 3---3- 3-----|3----- 3----- 3---3- 3-----|
B|3------3------3---3--3-----|3------3------3---3--3-----|
G|0------0------0---0--0-----|2------2------2---2--2-----|
D|0------0------0---0--0-----|0------0------0---0--0-----|
A|2------2------2---2--2-----|---------------------------|
E|3------3------3---3--3-----|---------------------------|
         Of  all    the    love          I      have
e|------ 3----- ------ ------|------ ------ ------ ------|
B|-----------------3---------|---------------------------|
G|---------------------------|---------------------------|



  
e|3----- 3----- 3---3- 3-----|3----- 3----- 3---3- 3-----|
B|1------1------1---1--1-----|3------3------3---3--3-----|
G|2------2------2---2--2-----|0------0------0---0--0-----|
D|3------3------3---3--3-----|0------0------0---0--0-----|
A|---------------------------|2------2------2---2--2-----|
E|---------------------------|3------3------3---3--3-----|
  won           or  have   lost
e|------ 3----- ------ ------|------ ------ ------ ------|
B|---------------------------|-------3----------3--------|
G|---------------------------|0----------0---------0-----|




e|3----- 3---3- 3---3- 3-----|3----- 3----- 3---3- 3-----|
B|3------3---3--3---3--3-----|3------3------3---3--3-----|
G|0------0---0--0---0--0-----|2------2------2---2--2-----|
D|0------0---0--0---0--0-----|0------0------0---0--0-----|
A|2------2---2--2---2--2-----|---------------------------|
E|3------3---3--3---3--3-----|---------------------------|
         There  is  one    love             I      should 
             


e|3----- 3----- 3---3- 3-----|3----- 3---3- 3---3- 3-----|
B|1------1------1---1--1-----|3------3---3--3---3--3-----|
G|2------2------2---2--2-----|0------0---0--0---0--0-----|
D|3------3------3---3--3-----|0------0---0--0---0--0-----|
A|---------------------------|2------2---2--2---2--2-----|
E|---------------------------|3------3---3--3---3--3-----|
  never             have      crossed
e|------ ------ ------ ------|------ 3----- ------ 3-----|
B|---------------------------|------------------3--------|
G|---------------------------|0-------------0----------0-|


  00:21

e|3----- 3----- 3---3- 3-----|3----- 3---3- 3---3- 3-----|
B|3------3------3---3--3-----|3------3---3--3---3--3-----|
G|0------0------0---0--0-----|2------2---2--2---2--2-----|
D|0------0------0---0--0-----|0------0---0--0---0--0-----|
A|2------2------2---2--2-----|---------------------------|
E|3------3------3---3--3-----|---------------------------|
         She    was a         girl       in     a      million



e|3----- 3----- 3---3- 3-----|3----- 3----- 3---3- 3---3-|
B|1------1------1---1--1-----|3------3------3---3--3---3-|
G|2------2------2---2--2-----|0------0------0---0--0---0-|
D|3------3------3---3--3-----|0------0------0---0--0---0-|
A|---------------------------|2------2------2---2--2---2-|
E|---------------------------|3------3------3---3--3---3-|
                    my     friend
e|------ ------ ------ ------|------ ------ ------ 3-----|
B|---------------------------|---------------------------|
G|---------------------------|-------0------3---4------0-|




e|3----- 3----- 3---3- 3-----|3----- 3---3- 3---3- 3-----|
B|3------3------3---3--3-----|3------3---3--3---3--3-----|
G|0------0------0---0--0-----|2------2---2--2---2--2-----|
D|0------0------0---0--0-----|0------0---0--0---0--0-----|
A|2------2------2---2--2-----|---------------------------|
E|3------3------3---3--3-----|---------------------------|
         I      should     known            she    would
                    have


e|3----- 3----- 3---3- 3-----|3----- 3----- 3---3- 3-----|
B|1------1------1---1--1-----|3------3------3---3--3-----|
G|2------2------2---2--2-----|0------0------0---0--0-----|
D|3------3------3---3--3-----|0------0------0---0--0-----|
A|---------------------------|2------2------2---2--2-----|
E|---------------------------|3------3------3---3--3-----|
  win        in     the       end           I'm a      loser
e|------ ------ ----3- ------|------ ------ ------ ------|
B|-------------------------3-|---------------------------|
G|---------------------------|0--------------------------|


  00:32
  
e|3----- 3----- 3---3- 3-----|2----- 2----- 2---2- 2-----|
B|1------1------1---1--1-----|3------3------3---3--3-----|
G|2------2------2---2--2-----|2------2------2---2--2-----|
D|2------2------2---2--2-----|0------0------0---0--0-----|
A|0------0------0---0--0-----|---------------------------|
E|---------------------------|---------------------------|
                                            and I      lost

                            

e|3----- 3----- 3---3- 3-----|0----- ----2- ----2- 2-----|
B|1------1------1---1--1-----|1----------3------3--3-----|
G|2------2------2---2--2-----|2----------2------2--2-----|
D|2------2------2---2--2-----|3----------0------0--0-----|
A|0------0------0---0--0-----|---------------------------|
E|---------------------------|---------------------------|
         someone       who's         to  me     I'm    loser
                           near                    a

 
e|3----- 3---3- ----3- 3-----|0----- 0----- 0---0- 0-----|
B|3------3---3------3--3-----|0------0------0---0--0-----|
G|0------0---0------0--0-----|0------0------0---0--0-----|
D|0------0---0------0--0-----|2------2------2---2--2-----|
A|2------2---2------2--2-----|2------2------2---2--2-----|
E|3------3---3------3--3-----|0------0------0---0--0-----|
                                                and 
                                                   I'm 

  
e|0----- 0----- 0---0- 0-----|0----- ----2- ----2- 2-----|
B|1------1------1---1--1-----|1----------3------3--3-----|
G|2------2------2---2--2-----|2----------2------2--2-----|
D|2------2------2---2--2-----|3----------0------0--0-----|
A|0------0------0---0--0-----|---------------------------|
E|---------------------------|---------------------------|
  not    what   I   appear           to  be


  00:43
  
e|3----- 3----- 3---3- 3-----|3----- 3---3- 3---3- 3-----|
B|3------3------3---3--3-----|3------3---3--3---3--3-----|
G|0------0------0---0--0-----|2------2---2--2---2--2-----|
D|0------0------0---0--0-----|0------0---0--0---0--0-----|
A|2------2------2---2--2-----|---------------------------|
E|3------3------3---3--3-----|---------------------------|
         Although   I      laugh            and I      act
e|------ 3----- ------ ------|2----- ------ ------ ------|
B|------------------3--------|-----------3---------------|
G|---------------------------|---------------------------|

          


e|3----- 3----- 3---3- 3-----|3----- 3---3- 3---3- 3-----|
B|1------1------1---1--1-----|3------3---3--3---3--3-----|
G|2------2------2---2--2-----|0------0---0--0---0--0-----|
D|3------3------3---3--3-----|0------0---0--0---0--0-----|
A|---------------------------|2------2---2--2---2--2-----|
E|---------------------------|3------3---3--3---3--3-----|
                like      clown
                    a 
e|------ 3----- ------ ------|------ ------ ------ ------|
B|---------------------------|---------------------3-----|
G|------------------0------0-|-----------3--4----------0-|




e|3----- 3---3- 3---3- 3-----|3----- 3----- 3---3- 3-----|
B|3------3---3--3---3--3-----|3------3------3---3--3-----|
G|0------0---0--0---0--0-----|2------2------2---2--2-----|
D|0------0---0--0---0--0-----|0------0------0---0--0-----|
A|2------2---2--2---2--2-----|---------------------------|
E|3------3---3--3---3--3-----|---------------------------|
         beneath    this   mask             I      am
e|------ ------ ------ ------|------ ------ ------ ------|
B|0--------------------------|---------------------------|
G|---------------------------|---------------------------|




e|3----- 3----- 3---3- 3-----|3----- 3---3- 3---3- 3-----|
B|1------1------1---1--1-----|3------3---3--3---3--3-----|
G|2------2------2---2--2-----|0------0---0--0---0--0-----|
D|3------3------3---3--3-----|0------0---0--0---0--0-----|
A|---------------------------|2------2---2--2---2--2-----|
E|---------------------------|3------3---3--3---3--3-----|
  wearing           a         frown
e|------ ------ ------ ------|------ 3----- ----3- ------|
B|---------------------------|-------------------------0-|
G|---------------------------|0----------3--4------0-----|


  00:53

e|3----- 3---3- 3---3- 3---3-|3----- 3---3- 3---3- 3-----|
B|3------3---3--3---3--3---3-|3------3---3--3---3--3-----|
G|0------0---0--0---0--0---0-|2------2---2--2---2--2-----|
D|0------0---0--0---0--0---0-|0------0---0--0---0--0-----|
A|2------2---2--2---2--2---2-|---------------------------|
E|3------3---3--3---3--3---3-|---------------------------|
         My     tears  are    fallin'           like



e|3----- 3----- 3---3- 3---3-|3----- 3---3- 3---3- 3-----|
B|1------1------1---1--1---1-|3------3---3--3---3--3-----|
G|2------2------2---2--2---2-|0------0---0--0---0--0-----|
D|3------3------3---3--3---3-|0------0---0--0---0--0-----|
A|---------------------------|2------2---2--2---2--2-----|
E|---------------------------|3------3---3--3---3--3-----|
  rain       from   the    sky
e|------ ------ ------ ------|------ ------ ------ ------|
B|---------------------------|------------------3--0-----|
G|---------------------------|-----------3--4------------|



e|3----- 3---3- 3---3- 3-----|3----- 3----- 3---3- 3-----|
B|3------3---3--3---3--3-----|3------3------3---3--3-----|
G|0------0---0--0---0--0-----|2------2------2---2--2-----|
D|0------0---0--0---0--0-----|0------0------0---0--0-----|
A|2------2---2--2---2--2-----|---------------------------|
E|3------3---3--3---3--3-----|---------------------------|
         Is  it     for    her           or     myself
e|------ ------ ------ ------|------ ------ ------ ------|
B|---------------------------|---------------------------|
G|0--------------------------|---------------------------|




e|3----- 3---3- 3---3- 3-----|3----- 3----- 3---3- 3-----|
B|1------1---1--1---1--1-----|3------3------3---3--3-----|
G|2------2---2--2---2--2-----|0------0------0---0--0-----|
D|3------3---3--3---3--3-----|0------0------0---0--0-----|
A|---------------------------|2------2------2---2--2-----|
E|---------------------------|3------3------3---3--3-----|
             that   I         cry           I'm a      loser
e|------ ------ ------ ----3-|------ ------ ------ ------|
B|--------------------------3|---------------------------|
G|---------------------------0---------------------------|
D|---------------------------|0--------------------------|
A|---------------------------|-2-------------------------|
E|---------------------------|--3------------------------|


  01:03

e|3----- 3----- 3---3- 3-----|2----- 2----- 2---2- 2-----|
B|1------1------1---1--1-----|3------3------3---3--3-----|
G|2------2------2---2--2-----|2------2------2---2--2-----|
D|2------2------2---2--2-----|0------0------0---0--0-----|
A|0------0------0---0--0-----|---------------------------|
E|---------------------------|---------------------------|
                                            and I      lost



e|3----- 3----- 3---3- 3-----|0----- ----2- ----2- 2-----|
B|1------1------1---1--1-----|1----------3------3--3-----|
G|2------2------2---2--2-----|2----------2------2--2-----|
D|2------2------2---2--2-----|3----------0------0--0-----|
A|0------0------0---0--0-----|---------------------------|
E|---------------------------|---------------------------|
         someone       who's         to  me     I'm 
                           near                    a
    

e|3----- 3---3- ----3- 3-----|0----- 0----- 0---0- 0-----|
B|3------3---3------3--3-----|0------0------0---0--0-----|
G|0------0---0------0--0-----|0------0------0---0--0-----|
D|0------0---0------0--0-----|2------2------2---2--2-----|
A|2------2---2------2--2-----|2------2------2---2--2-----|
E|3------3---3------3--3-----|0------0------0---0--0-----|
  loser                                         and 
                                                   I'm


e|0----- 0----- 0---0- 0-----|0----- ----2- ----2- 2-----|
B|1------1------1---1--1-----|1----------3------3--3-----|
G|2------2------2---2--2-----|2----------2------2--2-----|
D|2------2------2---2--2-----|3----------0------0--0-----|
A|0------0------0---0--0-----|---------------------------|
E|---------------------------|---------------------------|
  not    what   I   appear           to  be



          01:14
          HARMONICA SOLO  G   Dsus4   F   G        
                          G   Dsus4   F   G



e|------ ------ ------ ------|------ ------ ------ ------|
B|---------------------------|---------------------------|
G|---------------------------|---------------------------|
D|---------------------------|---------------------------|
A|---------------------------|---------------------------|
E|---------------------------|-------2------3-----4------|

  
e|------ ------ ------ ------|------ ------ ------ ------|
B|---------------------------|---------------------------|
G|---------------------------|---------------------------|
D|---------------------------|---------------------------|
A|0--------------------------|---------------------------|
E|---------------------------|---------------------------|

  SOLO
  01:25

e|------ 5----- ------ ------|7----- ------ ----7- ------|
B|-------5----------5--------|-----------7---------------|
G|--------------5------------|---------------------7-----|
D|---------------------------|---------------------------|
A|---------------------------|---------------------------|
E|---------------------------|---------------------------|

 
e|------ 5----- ------ ------|7----- ------ ----7- ------|
B|-------5----------5--------|7----------7---------------|
G|------------------5--------|-----------7---------7-----|
D|--------------7------------|---------------------------|
A|---------------------------|---------------------------|
E|---------------------------|---------------------------|

  
e|------ 6----- ----6- ------|------ ------ ------ ------|
B|---------------------------|5----------5------5--------|
G|---------------------------|-----------7------7--------|
D|---------------------------|---------------------------|
A|---------------------------|---------------------------|
E|---------------------------|---------------------------|


e|------ 8----- -----5 ------|5----- ----5- ------ 5-----|
B|---------------------5-----|6----------6-B-7-----7-----|
G|---------------------------|---------------------------|
D|---------------------------|---------------------------|
A|---------------------------|---------------------------|
E|---------------------------|---------------------------|


  01:36

e|3----- 3---3- 3---3- 3-----|3----- 3---3- 3---3- 3-----|
B|3------3---3--3---3--3-----|3------3---3--3---3--3-----|
G|0------0---0--0---0--0-----|2------2---2--2---2--2-----|
D|0------0---0--0---0--0-----|0------0---0--0---0--0-----|
A|2------2---2--2---2--2-----|---------------------------|
E|3------3---3--3---3--3-----|---------------------------|
         What   have       done          to     deserve


                    I
e|3----- 3----- 3---3- 3-----|3----- 3----- 3---3- 3---3-|
B|1------1------1---1--1-----|3------3------3---3--3---3-|
G|2------2------2---2--2-----|0------0------0---0--0---0-|
D|3------3------3---3--3-----|0------0------0---0--0---0-|
A|---------------------------|2------2------2---2--2---2-|
E|---------------------------|3------3------3---3--3---3-|
             such   a      fate
e|------ ------ ----3- ------|------ ------ ------ ------|
B|---------------------0-----|---------------------------|
G|0----------3--4------------|---------------------------|




e|3----- 3---3- 3---3- 3-----|3----- 3---3- 3---3- 3-----|
B|3------3---3--3---3--3-----|3------3---3--3---3--3-----|
G|0------0---0--0---0--0-----|2------2---2--2---2--2-----|
D|0------0---0--0---0--0-----|0------0---0--0---0--0-----|
A|2------2---2--2---2--2-----|---------------------------|
E|3------3---3--3---3--3-----|---------------------------|
         I've   realised                    I      have



e|3----- 3----- 3---3- 3-----|3----- 3---3- 3---3- 3-----|
B|1------1------1---1--1-----|3------3---3--3---3--3-----|
G|2------2------2---2--2-----|0------0---0--0---0--0-----|
D|3------3------3---3--3-----|0------0---0--0---0--0-----|
A|---------------------------|2------2---2--2---2--2-----|
E|---------------------------|3------3---3--3---3--3-----|
  learnt     it        too    late
e|------ 3----- ------ ------|----3- ------ ------ ------|
B|------------------3--------|---------------------------|
G|-------------------------0-|-------------2-B-4---------|


  01:47

e|3----- 3---3- 3---3- 3-----|3----- 3---3- 3---3- 3-----|
B|3------3---3--3---3--3-----|3------3---3--3---3--3-----|
G|0------0---0--0---0--0-----|2------2---2--2---2--2-----|
D|0------0---0--0---0--0-----|0------0---0--0---0--0-----|
A|2------2---2--2---2--2-----|---------------------------|
E|3------3---3--3---3--3-----|---------------------------|
         And    so  it's   true          pride     comes



e|3----- 3----- 3---3- 3-----|3----- 3----- 3---3- 3---3-|
B|1------1------1---1--1-----|3------3------3---3--3---3-|
G|2------2------2---2--2-----|0------0------0---0--0---0-|
D|3------3------3---3--3-----|0------0------0---0--0---0-|
A|---------------------------|2------2------2---2--2---2-|
E|---------------------------|3------3------3---3--3---3-|
  before            a         fall
e|------ 3----- ------ ------|------ ------ ----3- ------|
B|---------------------------|------------------3--------|
G|---------------------------|0---------2-B-4------4-----|




e|3----- 3---3- 3---3- 3-----|3----- 3---3- 3---3- 3-----|
B|3------3---3--3---3--3-----|3------3---3--3---3--3-----|
G|0------0---0--0---0--0-----|2------2---2--2---2--2-----|
D|0------0---0--0---0--0-----|0------0---0--0---0--0-----|
A|2------2---2--2---2--2-----|---------------------------|
E|3------3---3--3---3--3-----|---------------------------|
         I'm    telling    you           so        that
e|------ ------ ------ ------|------ ------ ------ ------|
B|---------------------------|---------------------------|
G|0--------------------------|---------------------------|




e|3----- 3----- 3---3- 3-----|3----- 3----- 3---3- 3---3-|
B|1------1------1---1--1-----|3------3------3---3--3---3-|
G|2------2------2---2--2-----|0------0------0---0--0---0-|
D|3------3------3---3--3-----|0------0------0---0--0---0-|
A|---------------------------|2------2------2---2--2---2-|
E|---------------------------|3------3------3---3--3---3-|
  you        won't  lose      all           I'm a      loser
e|------ ------ ------ ------|------ ------ ------ ------|
B|-------------------------0-|---------------------------|
G|-------------------------0-|---------------------------|
D|-------------------------0-|---------------------------|
A|---------------------------|---------------------------|
E|---------------------------|---------------------------|


  01:57

e|3----- 3---3- 3---3- 3-----|2----- 2----- 2---2- 2-----|
B|1------1---1--1---1--1-----|3------3------3---3--3-----|
G|2------2---2--2---2--2-----|2------2------2---2--2-----|
D|2------2---2--2---2--2-----|0------0------0---0--0-----|
A|0------0---0--0---0--0-----|---------------------------|
E|---------------------------|---------------------------|
                                            and I     lost

                            

e|3----- 3----- 3---3- 3-----|2----- 2---2- 2---2- 2-----|
B|1------1------1---1--1-----|3------3---3--3---3--3-----|
G|2------2------2---2--2-----|2------2---2--2---2--2-----|
D|2------2------2---2--2-----|0------0---0--0---0--0-----|
A|0------0------0---0--0-----|---------------------------|
E|---------------------------|---------------------------|
         someone    who's     near   to  me     I'm    loser
                                                   a


e|3----- 3---3- ----3- 3-----|0----- 0----- 0---0- 0-----|
B|3------3---3------3--3-----|0------0------0---0--0-----|
G|0------0---0------0--0-----|0------0------0---0--0-----|
D|0------0---0------0--0-----|2------2------2---2--2-----|
A|2------2---2------2--2-----|2------2------2---2--2-----|
E|3------3---3------3--3-----|0------0------0---0--0-----|
                                                and 
                                                   I'm 

  
e|0----- 0----- 0---0- 0-----|0----- ----2- ----2- 2-----|
B|1------1------1---1--1-----|1----------3------3--3-----|
G|2------2------2---2--2-----|2----------2------2--2-----|
D|2------2------2---2--2-----|3----------0------0--0-----|
A|0------0------0---0--0-----|---------------------------|
E|---------------------------|---------------------------|
  not    what   I      appear        to  be
  



          02:08
          Harmonica solo     G   Dsus4   F   G
                             G   Dsus4   F   G

  CODA
  02:19
 
e|------ 5----- ------ ------|7----- ------ ----7- ------|
B|-------5----------5--------|7----------7---------------|
G|--------------5------------|-----------7---------7-----|
D|---------------------------|---------------------------|
A|---------------------------|---------------------------|
E|---------------------------|---------------------------|


e|------ 5----- ------ ------|7----- ------ ------ ------|
B|-------5----------5--------|-----------7------7--------|
G|---------------------------|---------------------------|
D|---------------------------|---------------------------|
A|---------------------------|---------------------------|
E|---------------------------|---------------------------|
  .  .  .  .  .  .  .  .  . Fade .  .  .  .  .  .  .  .  .
 
e|------ 6----- ------ ------|------ ------ ------ ------|
B|------------------3--------|---------------------------|
G|---------------------------|---------------------------|
D|---------------------------|---------------------------|
A|---------------------------|---------------------------|
E|---------------------------|---------------------------|
  .  .  .  .  .  .  .  .  .  





        B  Bend
        R  Release
        /  slide up
        \  slide down
        H  hammer-on
        P  pull-off
        ~  vibrato
        +  harmonic
        x  Mute note
        . - play note like a dot in standard notation
        ^ - ties two notes together
        (. Pause



  -----------------------------------------------------------------

  THE BEATLES - BABY'S IN BLACK  (Lennon & McCartney). from BEATLES
                FOR SALE album. Released on 4th December 1964.

  -----------------------------------------------------------------
  Tabbed by:PJVillanueva




     

  Oh Dear what can I do
  Baby' s in black And I'm feeling blue       
  Tell me oh What can I do
 
  She thinks of him
  And so she dresses in black                            
  And though he'll never come back
  She' s dressed in black

  Oh Dear what can I do
  Baby' s in black And I'm feeling blue       
  Tell me oh What can I do
                
  I think of her
  But she thinks only of him
  And though it' s only a whim
  She thinks of him

  Oh how long will it take
  Till she sees the mistake she has made

  Dear, what can I do
  Baby' s in black and I'm feeling blue
  Tell me oh what can I do

  SOLO

  Oh how long will it take
  Till she sees the mistake she has made

  Dear, what can I do
  Baby' s in black and I'm feeling blue
  Tell me oh what can I do

  She thinks of him
  And so she dresses in black                            
  And though he'll never come back
  She' s dressed in black
       
  Oh Dear what can I do
  Baby' s in black And I'm feeling blue       
  Tell me oh What can I do



    12/8 Time

    INTRO

                              A
  e|------------ ------------|0---0-0-0--- 0---0-0-0---|
  B|-------------------------|2---2-2-2----2---2-2-2---|
  G|-------------------------|2---2-2-2----2---2-2-2---|
  D|-------------------------|2---2-2-2----2---2-2-2---|
  A|-------------------------|0---0-0-0----0---0-0-0---|
  E|-------------------------|-------------------------|

  e|------------ ------------|------------ ------------|
  B|2------------------------|-------------------------|
  G|---------4B6R4---2-------|-------------------------|
  D|---------------------4---|-------------------------|
  A|-------------------------|0------------------------|
  E|-------------------------|-------------------------|


    00:03
    CHORUS
                              E
  e|0---0-0-0--- 0---0---0---|0---0-0-0-0- 0---0-0-0---|
  B|2---2-2-2----2---2---2---|0---0-0-0-0--0---0-0-0---|
  G|2---2-2-2----2---2---2---|1---1-1-1-1--1---1-1-1---|
  D|2---2-2-2----2---2---2---|2---2-2-2-2--2---2-2-2---|
  A|0---0-0-0----0---0---0---|2---2-2-2-2--2---2-2-2---|
  E|-------------------------|0---0-0-0-0--0---0-0-0---|
    Oh,          dear         what  I      do?
                                  can


    D                         E
  e|2---2-2-2--- 2---2---2---|0---0-0-0--- 0---0---0---|
  B|3---3-3-3----3---3---3---|0---0-0-0----0---0---0---|
  G|2---2-2-2----2---2---2---|1---1-1-1----1---1---1---|
  D|0---0-0-0----0---0---0---|2---2-2-2----2---2---2---|
  A|-------------------------|2---2-2-2----2---2---2---|
  E|-------------------------|0---0-0-0----0---0---0---|
    Baby's       black     and    feeling  blue    me
          in                  I'm              tell


    A            D            A
  e|0---0-0-0--- 2---2---2---|0---0-0-0--- ------0-0---|
  B|2---2-2-2----3---3---3---|2---2-2-2----------2-2---|
  G|2---2-2-2----2---2---2---|2---2-2-2----------2-2---|
  D|2---2-2-2----0---0---0---|2---2-2-2----------2-2---|
  A|0---0-0-0----------------|0---0-0-0----------0-0---|
  E|-------------------------|-------------------------|
    Oh,          what  I      do? 
                     can   
  e|------------ ------------|------------ ------------|
  B|-------------------------|2------------------------|
  G|-------------------------|---------4B6R4---2-------|
  D|-------------------------|---------------------4B5-|
  A|-------------------------|-------------------------|
  E|-------------------------|-------------------------|

    00:14
    VERSE

  e|0---0-0-0--- 0---0---0---|0-------0--- 0---0---0---|
  B|2---2-2-2----2---2---2---|2-------2----2---2---2---|
  G|2---2-2-2----2---2---2---|2-------2----2---2---2---|
  D|2---2-2-2----2---2---2---|2-------2----2---2---2---|
  A|0---0-0-0----0---0---0---|0-------0----0---0---0---|
  E|-------------------------|-------------------------|
    She              thinks   him                   and
                          of
  e|------------ ------------|------------ ------------|
  B|-------------------------|-------------------------|
  G|-------------------------|-------------------------|
  D|-------------------------|-------------------------|
  A|0------------------------|-------------------------|
  E|-------------------------|-------------------------|



                              D
  e|0---0-0-0--- 0---0---0---|3---2-2-2-2- 2---2---2---|
  B|2---2-2-2----2---2---2---|2---3-3-3-3--3---3---3---|
  G|2---2-2-2----2---2---2---|2---2-2-2-2--2---2---2---|
  D|2---2-2-2----2---2---2---|0---0-0-0-0--0---0---0---|
  A|0---0-0-0----0---0---0---|-------------------------|
  E|-------------------------|-------------------------|
    so      she  dresses in   black                and


                              A            E
  e|2---2-2-2--- 2---2---2---|0---0-0-0--- 0---0---0---|
  B|3---3-3-3----3---3---3---|2---2-2-2----0---0---0---|
  G|2---2-2-2----2---2---2---|2---2-2-2----1---1---1---|
  D|0---0-0-0----0---0---0---|2---2-2-2----2---2---2---|
  A|-------------------------|0---0-0-0----2---2---2---|
  E|-------------------------|-------------0---0---0---|
    though  he'll        come back         she's   in
                 never                         dressed


    A
  e|0---0-0-0--- 0---0---0---|
  B|2---2-2-2----2---2---2---|
  G|2---2-2-2----2---2---2---|
  D|2---2-2-2----2---2---2---|
  A|0---0-0-0----0---0---0---|
  E|-------------------------|
    black

    00:26
    CHORUS
                              E
  e|0---0-0-0--- 0---0---0---|0---0-0-0--- 0---0---0---|
  B|2---2-2-2----2---2---2---|0---0-0-0----0---0---0---|
  G|2---2-2-2----2---2---2---|1---1-1-1----1---1---1---|
  D|2---2-2-2----2---2---2---|2---2-2-2----2---2---2---|
  A|0---0-0-0----0---0---0---|2---2-2-2----2---2---2---|
  E|-------------------------|0---0-0-0----0---0---0---|
    Oh,          dear         what  I      do?
                                  can

    D                         E
  e|2---2-2-2--- 2---2---2---|0---0-0-0--- 0---0---0---|
  B|3---3-3-3----3---3---3---|0---0-0-0----0---0---0---|
  G|2---2-2-2----2---2---2---|1---1-1-1----1---1---1---|
  D|0---0-0-0----0---0---0---|2---2-2-2----2---2---2---|
  A|-------------------------|2---2-2-2----2---2---2---|
  E|-------------------------|0---0-0-0----0---0---0---|
    Baby's       black   and      feeling  blue    me
          in               I'm                 tell

    A            D            A
  e|0---0-0-0--- 2---2-2-2---|0---0-0-0--- 0---0-0-0---|
  B|2---2-2-2----3---3-3-3---|2---2-2-2----2---2-2-2---|
  G|2---2-2-2----2---2-2-2---|2---2-2-2----2---2-2-2---|
  D|2---2-2-2----0---0-0-0---|2---2-2-2----2---2-2-2---|
  A|0---0-0-0----------------|0---0-0-0----0---0-0-0---|
  E|-------------------------|-------------------------|
    Oh,          what  I      do?   
                     can
    00:37
    VERSE

  e|0---0-0-0--- 0---0---0-0-|0---0-0-0-0- 0---0-0-0---|
  B|2---2-2-2----2---2---2-2-|2---2-2-2-2--2---2-2-2---|
  G|2---2-2-2----2---2---2-2-|2---2-2-2-2--2---2-2-2---|
  D|2---2-2-2----2---2---2-2-|2---2-2-2-2--2---2-2-2---|
  A|0---0-0-0----0---0---0-0-|0---0-0-0-0--0---0-0-0---|
  E|-------------------------|-------------------------|
    I                think    her                  but
                         of

                              D
  e|0---0-0-0--- 0---0---0---|3---2-2-2--- 2---2-2-2---|
  B|2---2-2-2----2---2---2---|2---3-3-3----3---3-3-3---|
  G|2---2-2-2----2---2---2---|2---2-2-2----2---2-2-2---|
  D|2---2-2-2----2---2---2---|0---0-0-0----0---0-0-0---|
  A|0---0-0-0----0---0---0---|-------------------------|
  E|-------------------------|-------------------------|
    she     thinks       of   him                  and
                 only

                              A            E
  e|2---2-2-2--- 2---2---2---|0---0-0-0--- 0---0---0---|
  B|3---3-3-3----3---3---3---|2---2-2-2----0---0---0---|
  G|2---2-2-2----2---2---2---|2---2-2-2----1---1---1---|
  D|0---0-0-0----0---0---0---|2---2-2-2----2---2---2---|
  A|-------------------------|0---0-0-0----2---2---2---|
  E|-------------------------|-------------0---0---0---|
    though  it's only    a    whim         she thinks 
                                                   of

    A
  e|0---0-0-0--- 0-------0---|
  B|2---2-2-2----2-------2---|
  G|2---2-2-2----2-------2---|
  D|2---2-2-2----2-------2---|
  A|0---0-0-0----0-------0---|
  E|-------------------------|
    him              

    00:49
    MIDDLE SECTION

    F#m                       B
  e|2---2-2-2--- 2---2-2-2---|2---2-2-2--- 2---2-2-2---|
  B|2---2-2-2----2---2-2-2---|4---4-4-4----4---4-4-4---|
  G|2---2-2-2----2---2-2-2---|4---4-4-4----4---4-4-4---|
  D|4---4-4-4----4---4-4-4---|4---4-4-4----4---4-4-4---|
  A|4---4-4-4----4---4-4-4---|2---2-2-2----2---2-2-2---|
  E|2---2-2-2----2---2-2-2---|-------------------------|
    Oh,          how          long  it     take
                                  will

    D                         E
  e|2---2-2-2--- 2---2---2---|0---0-0-0--- 0---0---0---|
  B|3---3-3-3----3---3---3---|0---0-0-0----0---0---0---|
  G|2---2-2-2----2---2---2---|1---1-1-1----1---1---1---|
  D|0---0-0-0----0---0---0---|2---2-2-2----2---2---2---|
  A|-------------------------|2---2-2-2----2---2---2---|
  E|-------------------------|0---0-0-0----0---0---0---|
    till         she          sees  mistake    she has
                                  the

    00:57
    VERSE
    A                         E
  e|0---0-0-0--- 0-------0---|0---0-0-0--- 0---0---0---|
  B|2---2-2-2----2-------2---|0---0-0-0----0---0---0---|
  G|2---2-2-2----2-------2---|1---1-1-1----1---1---1---|
  D|2---2-2-2----2-------2---|2---2-2-2----2---2---2---|
  A|0---0-0-0----0-------0---|2---2-2-2----2---2---2---|
  E|-------------------------|0---0-0-0----0---0---0---|
    made,        dear         what  I      do?
                                  can

    D                         E
  e|2---2-2-2--- 2---2---2---|0---0-0-0--- 0-----0-0---|
  B|3---3-3-3----3---3---3---|0---0-0-0----0-----0-0---|
  G|2---2-2-2----2---2---2---|1---1-1-1----1-----1-1---|
  D|0---0-0-0----0---0---0---|2---2-2-2----2-----2-2---|
  A|-------------------------|2---2-2-2----2-----2-2---|
  E|-------------------------|0---0-0-0----0-----0-0---|
    Baby's       black   and      feeling  blue    me
          in               I'm                 tell


    A            D
  e|0---0-0-0--- 2---2-2-2---|
  B|2---2-2-2----3---3-3-3---|
  G|2---2-2-2----2---2-2-2---|
  D|2---2-2-2----0---0-0-0---|
  A|0---0-0-0----------------|
  E|-------------------------|
    Oh,          what  I      
                     can

    01:05
    SOLO

    A
  e|0---0-0-0--- 0---0---0---|0---0-0-0--- 0---0---0---|
  B|2---2-2-2----2---2---2---|2---2-2-2----2---2---2---|
  G|2---2-2-2----2---2---2---|2---2-2-2----2---2---2---|
  D|2---2-2-2----2---2---2---|2---2-2-2----2---2---2---|
  A|0---0-0-0----0---0---0---|0---0-0-0----0---0---0---|
  E|-------------------------|-------------------------|
    do?
  e|------------ ------------|------------ ------------|
  B|2------------------------|-------------------------|
  G|---------4B6R4---2-------|----------4-B6-R-4---2--0H
  D|---------------------4---|-------------------------|
  A|-------------------------|0------------------------|
  E|-------------------------|-------------------------|
 


    E                         D
  e|0---0-0-0--- 0---0---0---|2---2-2-2--- 2---2---2---|
  B|0---0-0-0----0---0---0---|3---3-3-3----3---3---3---|
  G|1---1-1-1----1---1---1---|2---2-2-2----2---2---2---|
  D|2---2-2-2----2---2---2---|0---0-0-0----0---0---0---|
  A|2---2-2-2----2---2---2---|-------------------------|
  E|0---0-0-0----0---0---0---|-------------------------|

  e|----2------- 0-----------|------------ ------------|
  B|------------0------------|----3-----3-\1-----------|
  G|1----------1-------------|-----------------------7-/
  D|------------------------3/4---------4-\2-----------|
  A|-------------------------|-------------------------|
  E|-------------------------|-------------------------|



    E                         A            D
  e|0---0-0-0--- 0---0---0---|0---0-0-0--- 2---2---2---|
  B|0---0-0-0----0---0---0---|2---2-2-2----3---3---3---|
  G|1---1-1-1----1---1---1---|2---2-2-2----2---2---2---|
  D|2---2-2-2----2---2---2---|2---2-2-2----0---0---0---|
  A|2---2-2-2----2---2---2---|0---0-0-0----------------|
  E|0---0-0-0----0---0---0---|-------------------------|

  e|-----9------ 7-----------|------------ ------------|
  B|-------------------------|-------------------------|
  G|8B9-------7--------------|4-B-6-----6-R4---2-------|
  D|-------------------------|---------------------4---|
  A|-------------------------|-------------------------|
  E|-------------------------|-------------------------|



    A
  e|0---0-0-0--- 0---0---0---|
  B|2---2-2-2----2---2---2---|
  G|2---2-2-2----2---2---2---|
  D|2---2-2-2----2---2---2---|
  A|0---0-0-0----0---0---0---|
  E|-------------------------|

  e|------------ ------------|
  B|-------------------------|
  G|-------------------------|
  D|-------------------------|
  A|0------------------------|
  E|-------------------------|

    01:18
    MIDDLE

    F#m                       B
  e|2---2-2-2--- 2---2---2---|2---2-2-2--- 2---2---2---|
  B|2---2-2-2----2---2---2---|4---4-4-4----4---4---4---|
  G|2---2-2-2----2---2---2---|4---4-4-4----4---4---4---|
  D|4---4-4-4----4---4---4---|4---4-4-4----4---4---4---|
  A|4---4-4-4----4---4---4---|2---2-2-2----2---2---2---|
  E|2---2-2-2----2---2---2---|-------------------------|
    Oh,          how          long  it     take
                                  will

    D                         E
  e|2---2-2-2-2- 2---2---2---|0---0-0-0--- 0---0-0-0---|
  B|3---3-3-3-3--3---3---3---|0---0-0-0----0---0-0-0---|
  G|2---2-2-2-2--2---2---2---|1---1-1-1----1---1-1-1---|
  D|0---0-0-0-0--0---0---0---|2---2-2-2----2---2-2-2---|
  A|-------------------------|2---2-2-2----2---2-2-2---|
  E|-------------------------|0---0-0-0----0---0-0-0---|
    till         she          sees  mistake    she has
                                  the

    01:25
    CHORUS

    A                         E
  e|0---0-0-0--- 0---0---0---|0---0-0-0--- 0---0---0---|
  B|2---2-2-2----2---2---2---|0---0-0-0----0---0---0---|
  G|2---2-2-2----2---2---2---|1---1-1-1----1---1---1---|
  D|2---2-2-2----2---2---2---|2---2-2-2----2---2---2---|
  A|0---0-0-0----0---0---0---|2---2-2-2----2---2---2---|
  E|-------------------------|0---0-0-0----0---0---0---|
    made,        dear         what  I      do?
                                  can

    D                         E
  e|2---2-2-2--- 2---2---2---|0---0-0-0--- 0---0---0---|
  B|3---3-3-3----3---3---3---|0---0-0-0----0---0---0---|
  G|2---2-2-2----2---2---2---|1---1-1-1----1---1---1---|
  D|0---0-0-0----0---0---0---|2---2-2-2----2---2---2---|
  A|-------------------------|2---2-2-2----2---2---2---|
  E|-------------------------|0---0-0-0----0---0---0---|
    Baby's       black and        feeling  blue    me
          in             I'm                   tell
 
    A            D            A
  e|0---0---0--- 2---2---2---|0---0-0-0--- 0---0---0---|
  B|2---2---2----3---3---3---|2---2-2-2----2---2---2---|
  G|2---2---2----2---2---2---|2---2-2-2----2---2---2---|
  D|2---2---2----0---0---0---|2---2-2-2----2---2---2---|
  A|0---0---0----------------|0---0-0-0----0---0---0---|
  E|-------------------------|-------------------------|
    Oh,          what   I     do?
                     can
  e|------------ ------------|------------ ------------|
  B|-------------------------|2------------------------|
  G|-------------------------|---------4B6R4---2-------|
  D|-------------------------|---------------------4---|
  A|-------------------------|-------------------------|
  E|-------------------------|-------------------------|
    
    01:36
    VERSE
 
  e|0----------- 0-----------|0----------- 0-----------|
  B|2------------2-----------|2------------2-----------|
  G|2------------2-----------|2------------2-----------|
  D|2------------2-----------|2------------2-----------|
  A|0------------0-----------|0------------0-----------|
  E|-------------------------|-------------------------|
    She              thinks   him                  and
                         of
  e|------------ ------------|------------ ------------|
  B|-------------------------|-------------------------|
  G|-------------------------|-------------2-----------|
  D|-------------1B2---------|-------------2-----------|
  A|-------------0-----------|-------------0-----------|
  E|-------------------------|-------------------------|



                              D
  e|0----------- 0-----------|3----------- 2-----------|
  B|2------------2-----------|2------------3-----------|
  G|2------------2-----------|2------------2-----------|
  D|2------------2-----------|0------------0-----------|
  A|0------------0-----------|-------------------------|
  E|-------------------------|-------------------------|
    so      she  dresses  in  black                and
  e|------------ ------------|------------ ------------|
  B|-------------------------|-------------------------|
  G|-------------2-----------|1B2----------1B2---------|
  D|-------------2-----------|0------------0-----------|
  A|-------------0-----------|0------------0-----------|
  E|-------------------------|-------------------------|



                              A            E
  e|2----------- 2-----------|0----------- 0-----------|
  B|3------------3-----------|2------------0-----------|
  G|2------------2-----------|2------------1-----------|
  D|0------------0-----------|2------------2-----------|
  A|-------------------------|0------------2-----------|
  E|-------------------------|-------------0-----------|
    though she'll        come back         she's   in
                 never                          dressed
  e|------------ ------------|------------ ------------|
  B|-------------------------|-------------------------|
  G|-------------1B2---------|-------------1-----------|
  D|-------------0-----------|-------------2-----------|
  A|-------------0-----------|-------------2-----------|
  E|-------------------------|-------------0-----------|



    A
  e|0----------- 0---0-0-0---|
  B|2------------2---2-2-2---|
  G|2------------2---2-2-2---|
  D|2------------2---2-2-2---|
  A|0------------0---0-0-0---|
  E|-------------------------|
    black

    01:49
    CHORUS
                              E
  e|0---0-0-0--- 0---0---0---|0---0-0-0--- 0---0---0---|
  B|2---2-2-2----2---2---2---|0---0-0-0----0---0---0---|
  G|2---2-2-2----2---2---2---|1---1-1-1----1---1---1---|
  D|2---2-2-2----2---2---2---|2---2-2-2----2---2---2---|
  A|0---0-0-0----0---0---0---|2---2-2-2----2---2---2---|
  E|-------------------------|0---0-0-0----0---0---0---|
    Oh,          dear         what  I      do?
                                  can
  e|------------ ------------|------------ ------------|
  B|-------------------------|-------------------------|
  G|2---2--------2-----------|--------1----1-----1-1-1-|
  D|2---2--------2-----------|--------2----2-----2-2-2-|
  A|-------------------------|-------------------------|
  E|-------------------------|-------------------------|



    D                         E
  e|2---2-2-2--- 2---2---2---|0---0-0-0--- 0---0---0---|
  B|3---3-3-3----3---3---3---|0---0-0-0----0---0---0---|
  G|2---2-2-2----2---2---2---|1---1-1-1----1---1---1---|
  D|0---0-0-0----0---0---0---|2---2-2-2----2---2---2---|
  A|-------------------------|2---2-2-2----2---2---2---|
  E|-------------------------|0---0-0-0----0---0---0---|
    Baby's       black   and      feeling  blue    me
          in               I'm                 tell
  e|------------ ------------|------------ ------------|
  B|-------------------------|-------------------------|
  G|2------------2-------2---|-------------1-----------|
  D|0------------0-------0---|-------------2-----------|
  A|-------------------------|-------------------------|
  E|-------------------------|-------------------------|



    A            D            A
  e|0---0-0-0--- 2---2---2---|0---0-0-0--- 0---0---0---|
  B|2---2-2-2----3---3---3---|2---2-2-2----2---2---2---|
  G|2---2-2-2----2---2---2---|2---2-2-2----2---2---2---|
  D|2---2-2-2----0---0---0---|2---2-2-2----2---2---2---|
  A|0---0-0-0----------------|0---0-0-0----0---0---0---|
  E|-------------------------|-------------------------|
    Oh,          what  I      do? 
                     can   
  e|------------ ------------|------------ ------------|
  B|-------------------------|2---------2--------------|
  G|-------------------------|-------------4B6-2-------|
  D|-------------------------|---------------------4---|
  A|-------------------------|-------------------------|
  E|-------------------------|-------------------------|


   (.

  e|0----------- ------------|------------ ------------|
  B|2------------------------|-------------------------|
  G|2------------------------|-------------------------|
  D|2------------------------|-------------------------|
  A|0------------------------|-------------------------|
  E|-------------------------|-------------------------|

  e|------------ ------------|------------ ------------|
  B|-------------------------|-------------------------|
  G|-------------------------|-------------------------|
  D|2------------------------|-------------------------|
  A|0------------------------|-------------------------|
  E|-------------------------|-------------------------|




  
        T  Thumb
        b  Small bend
        B  Bend
        R  Release
        /  slide up
        \  slide down
        H  hammer-on
        P  pull-off
        ~  vibrato
        +  harmonic
        x  Mute note
        . - play note like a dot in standard notation
        ^ - ties two notes together
        (. pause


       

    -----------------------------------------------------------

    BEATLES - ROCK AND ROLL MUSIC (Berry) From BEATLES FOR SALE
              album. Released on December 4th 1964.
   
    -----------------------------------------------------------

    Tabbed by:PJVillanueva





    Just let me hear some of that rock and roll music
    Any old way you choose it
    It's got a back beat, you can't blues it
    Any old time you use it
    It's gotta be rock roll music
    If you wanna dance with me
    If you wanna dance with me

    I've got no kick against modern jazz
    Unless they try to play it too darn fast
    And lose the beauty of the melody
    Until they sound just like a symphony

    That's why I go for that rock and roll music
    Any old way you choose it
    It's got a back beat, you can't blues it
    Any old time you use it
    It's gotta be rock and roll music
    If you wanna dance with me
    If you wanna dance with me

    I took my love on over 'cross the tracks
    So she can hear my man awail a sax
    I must admit they have a rockin' band
    Man, they were blowin' like a hurricane

    That's why I go for that rock and roll music
    Any old way you choose it
    It's got a back beat, you can't blues it
    Any old time you use it
    Gotta be rock and roll music
    If you wanna dance with me
    If you wanna dance with me

    Way down South they had a jubilee
    Those Georgia folks they had a jamboree
    They're drinkin' home brew from a wooden cup
    The folks dancin' got all shook up

    And started playin' that rock and roll music
    Any old time you use it
    It's got a back beat, you can't blues it
    Any old time you use it
    Gotta be rock and roll music
    If you wanna dance with me
    If you wanna dance with me

    Don't care to hear 'em play a tango
    I'm in the mood to take a mambo
    It's way too early for a congo
    So keep on rockin' that piano


    That's why I go for that rock and roll music
    Any old time you use it
    It's got a back beat, you can't blues it
    Any old time you use it
    It's gotta be rock and roll music
    If you wanna dance with me 
    If you wanna dance with me 




                        E7   
  e|------- ------- ----0-- 0---0--|0------ ------- ------- -------|
  B|--------------------3---3---3--|3------------------------------|
  G|--------------------1---1---1--|1------------------------------|
  D|--------------------2---2---2--|2------------------------------|
  A|-------------------------------|-------------------------------|
  E|-------------------------------|-------------------------------|

  e|------- ------- ------- -------|------- ------- ------- -------|
  B|-------------------------------|-------------------------------|
  G|-------------------------------|-------------------------------|
  D|-------------------------------|-------------------------------|
  A|-------------------------------|-------------------------------|
  E|-------------------------------|-------------------------------|
                                        Just    me  hear    of  that
                                            let         some
    CHORUS
    00:02
    A
  e|0---0-- 0------ 0------ 0---0--|----0-- 0------ 0------ 0------|
  B|2---2---2-------2-------2---2--|----2---2-------2-------2------|
  G|2---2---2-------2-------2---2--|----2---2-------2-------2------|
  D|2---2---2-------2-------2---2--|----2---2-------2-------2------|
  A|0---0---0-------0-------0---0--|----0---0-------0-------0------|
  E|-------------------------------|-------------------------------|
    A5      A6      A7 ....
  e|------- ------- ------- -------|------- ------- ------- -------|
  B|-------------------------------|-------------------------------|
  G|-------------------------------|-------------------------------|
  D|----------------5--------------|----------------5--------------|
  A|7-------9-------7-------9---7--|----7---9-------7-------9---7--|
  E|5-------5-------5-------5---5--|----5---5-------5-------5---5--|
    rock    and     roll        music                           any



                                                                D
  e|----0-- ----0-- 0------ 0------|----0-- 0---0-- 0------ 0---2--|
  B|----2-------2---2-------2------|----2---2---2---2-------2---3--|
  G|----2-------2---2-------2------|----2---2---2---2-------2---2--|
  D|----2-------2---2-------2------|----2---2---2---2-------2---0--|
  A|----0-------0---0-------0------|----0---0---0---0-------0------|
  E|-------------------------------|-------------------------------|

  e|------- ------- ------- -------|------- ------- ------- -------|
  B|-------------------------------|-------------------------------|
  G|-------------------------------|-------------------------------|
  D|----------------5--------------|----------------5--------------|
  A|----7---9---7---7-------9---7--|----7---9---7---7-------9------|
  E|----5---5---5---5-------5---5--|----5---5---5---5-------5------|
            old     way     you choose  it              It's    a 
                                                            got



  e|2------ 2---2-- 2------ 2---2--|2---2-- 2------ 2---2-- 2------|
  B|3-------3---3---3-------3---3--|3---3---3-------3---3---3------|
  G|2-------2---2---2-------2---2--|2---2---2-------2---2---2------|
  D|0-------0---0---0-------0---0--|0---0---0-------0---0---0------|
  A|-------------------------------|-------------------------------|
  E|-------------------------------|-------------------------------|
    D5      D6      D7 ....
  e|------- ------- ------- -------|------- ------- ------- -------|
  B|-------------------------------|-------------------------------|
  G|----------------5--------------|----------------5--------------|
  D|7-------9-------7-------9---7--|7---7---9-------7---x---x------|
  A|5-------5-------5-------5---5--|5---5---5-------5---x---x------|
  E|-------------------------------|-------------------------------|
    back    beat,   you can't   blues   it                      any



    A
  e|0------ 0------ 0---0-- 0---0--|0------ 0---0-- 0---0-- 0------|
  B|2-------2-------2---2---2---2--|2-------2---2---2---2---2------|
  G|2-------2-------2---2---2---2--|2-------2---2---2---2---2------|
  D|2-------2-------2---2---2---2--|2-------2---2---2---2---2------|
  A|0-------0-------0---0---0---0--|0-------0---0---0---0---0------|
  E|-------------------------------|-------------------------------|
    A5      A6      A7 ....
  e|------- ------- ------- -------|------- ------- ------- -------|
  B|-------------------------------|-------------------------------|
  G|-------------------------------|-------------------------------|
  D|----------------5---5----------|----------------5--------------|
  A|7-------9-------7---7---9---7--|7-------9-------7-------9------|
  E|5-------5-------5---5---5---5--|5-------5-------5-------5------|
            old     time    you use     it                      Gotta 



    E7
  e|0------ 0------ 0---0-- ----0--|0------ 0------ 0---0-- 0------|
  B|3-------3-------3---3-------3--|3-------3-------3---3---3------|
  G|1-------1-------1---1-------1--|1-------1-------1---1---1------|
  D|2-------2-------2---2-------2--|2-------2-------2---2---2------|
  A|2-------2-------2---2-------2--|2-------2-------2---2---2------|
  E|0-------0-------0---0-------0--|0-------0-------0---0---0------|
    E
  e|------- ------- ------- -------|------- ------- ------- -------|
  B|-------------------------------|-------------------------------|
  G|----------------7--------------|----------------7--------------|
  D|9------11-------9------11---9--|9---9--11-------9---x---x------|
  A|7-------7-------7-------7---7--|7---7---7-------7---x---x------|
  E|-------------------------------|-------------------------------|
            be      rock'n' roll                                If
                                music



  e|0---0-- 0---0-- 0------ 0---0--|----0-- 0------ 0---0-- 0------|
  B|3---3---3---3---3-------3---2--|----2---2-------2---2---2------|
  G|1---1---1---1---1-------1---2--|----2---2-------2---2---2------|
  D|2---2---2---2---2-------2---2--|----2---2-------2---2---2------|
  A|2---2---2---2---2-------2---0--|----0---0-------0---0---0------|
  E|0---0---0---0---0-------0------|-------------------------------|

  e|------- ------- ------- -------|------- ------- ------- -------|
  B|-------------------------------|-------------------------------|
  G|-------------------------------|-------------------------------|
  D|9---9--11---9---9---9--11------|----------------5--------------|
  A|7---7---7---7---7---7---7------|7---7---9-------7-------9------|
  E|-------------------------------|5---5---5-------5-------5------|
        you wanna   dance   with                                If
                                me



  e|0---0-- 0---0-- 0------ 0---0--|0------ ------- ------- -------|
  B|3---3---3---3---3-------3---2--|2------------------------------|
  G|1---1---1---1---1-------1---2--|2------------------------------|
  D|2---2---2---2---2-------2---2--|2------------------------------|
  A|2---2---2---2---2-------2---0--|0------------------------------|
  E|0---0---0---0---0-------0------|-------------------------------|

  e|------- ------- ------- -------|------- ------- ------- -------|
  B|-------------------------------|-------------------------------|
  G|-------------------------------|-------------------------------|
  D|9---9--11---9---9---9--11------|-------------------------------|
  A|7---7---7---7---7---7---7------|7------------------------------|
  E|-------------------------------|5------------------------------|
        you wanna   dance   with        I've    no  kick                     
                                me          got         against

    VERSE
    00:23

  e|0------ 0---0-- ----0-- ----0--|0------ 0---0-- ----0-- 0------|
  B|3-------3---3-------3-------3--|3-------3---3-------3---3------|
  G|1-------1---1-------1-------1--|1-------1---1-------1---1------|
  D|2-------2---2-------2-------2--|2-------2---2-------2---2------|
  A|2-------2---2-------2-------2--|2-------2---2-------2---2------|
  E|-------------------------------|-------------------------------|

  e|------- ------- ------- -------|------- ------- ------- -------|
  B|-------------------------------|-------------------------------|
  G|-------------------------------|-------------------------------|
  D|-------------------------------|-------------------------------|
  A|------------------------2------|------------------------2------|
  E|0----------/4------------------|0----------/4------------------|
    modern      jazz                    Unless  they    to  play  
                                                    try         it



  e|0------ 0---0-- ----0-- 0---0--|2------ 0---0-- ----0-- 0------|
  B|2-------2---2-------2---2---2--|2-------2---2-------2---2------|
  G|2-------2---2-------2---2---2--|2-------2---2-------2---2------|
  D|2-------2---2-------2---2---2--|2-------2---2-------2---2------|
  A|0-------0---0-------0---0---0--|0-------0---0-------0---0------|
  E|-------------------------------|-------------------------------|

  e|------- ------- ------- -------|------- ------- ------- -------|
  B|-------------------------------|-------------------------------|
  G|-------------------------------|-------------------------------|
  D|------------------------2------|------------------------2------|
  A|0----------/4------------------|0----------/4------------------|
  E|-------------------------------|-------------------------------|
    too darn    fast                    And lose    beauty  of  the 
                                                the



  e|2------ ----2-- ----2-- 2---2--|2------ 2---2-- ----2-- 2------|
  B|3-----------3-------3---3---3--|3-------3---3-------3---3------|
  G|2-----------2-------2---2---2--|2-------2---2-------2---2------|
  D|0-----------0-------0---0---0--|0-------0---0-------0---0------|
  A|-------------------------------|-------------------------------|
  E|-------------------------------|-------------------------------|

  e|------- ------- ------- -------|------- ------- ------- -------|
  B|-------------------------------|-------------------------------|
  G|------------------------2------|------------------------2------|
  D|0----------/4------------------|0----------/4------------------|
  A|-------------------------------|-------------------------------|
  E|-------------------------------|-------------------------------|
    melody                              until   they    just    a 
                                                    sound   like



  e|0------ 0---0-- ----0-- ----0--|0------ ------- ------- -------|
  B|3-------3---3-------3-------3--|3------------------------------|
  G|1-------1---1-------1-------1--|1------------------------------|
  D|2-------2---2-------2-------2--|2------------------------------|
  A|2-------2---2-------2-------2--|2------------------------------|
  E|0-------0---0-------0-------0--|0------------------------------|

  e|------- ------- ------- -------|------- ------- ------- -------|
  B|-------------------------------|-------------------------------|
  G|-------------------------------|-------------------------------|
  D|-------------------------------|2------------------------------|
  A|------------------------2------|-------------------------------|
  E|0----------/4------------------|-------------------------------|
    symphony                            That's  I   go  for that
                                             why


    CHORUS
    00:34 ....
   

                                         I  took my love on over
    VERSE
    00:54

  e|0------ 0---0-- ----0-- ----0--|0------ ----0-- 0------ 0------| 
  B|3-------3---3-------3-------3--|3-----------3---3-------3------|
  G|1-------1---1-------1-------1--|1-----------1---1-------1------|
  D|2-------2---2-------2-------2--|2-----------2---2-------2------|
  A|2-------2---2-------2-------2--|2-----------2---2-------2------|
  E|-------------------------------|-------------------------------|

  e|------- ------- ------- -------|------- ------- ------- -------|
  B|-------------------------------|-------------------------------|
  G|-------------------------------|-------------------------------|
  D|-------------------------------|-------------------------------|
  A|------------------------2------|------------------------2------|
  E|0----------/4------------------|0----------/4------------------|
   'cross   the tracks                  So  she can hear    man awail 
                                                        my



  e|0------ ----0-- ----0-- ----0--|0------ ----0-- 0------ 0------|
  B|2-----------2-------2-------2--|2-----------2---2-------2------|
  G|2-----------2-------2-------2--|2-----------2---2-------2------|
  D|2-----------2-------2-------2--|2-----------2---2-------2------|
  A|0-----------0-------0-------0--|0-----------0---0-------0------|
  E|-------------------------------|-------------------------------|

  e|------- ------- ------- -------|------- ------- ------- -------|
  B|-------------------------------|-------------------------------|
  G|-------------------------------|-------------------------------|
  D|------------------------2------|------------------------2------|
  A|0----------/4------------------|0----------/4------------------|
  E|-------------------------------|-------------------------------|
            a   sax                     I   must        they    a 
                                                admit       have



  e|2------ ----2-- ----2-- 2---2--|2------ 2---2-- ----2-- 2------|
  B|3-----------3-------3---3---3--|3-------3---3-------3---3------|
  G|2-----------2-------2---2---2--|2-------2---2-------2---2------|
  D|0-----------0-------0---0---0--|0-------0---0-------0---0------|
  A|-------------------------------|-------------------------------|
  E|-------------------------------|-------------------------------|

  e|------- ------- ------- -------|------- ------- ------- -------|
  B|-------------------------------|-------------------------------|
  G|------------------------2------|------------------------2------|
  D|0----------/4------------------|0----------/4------------------|
  A|-------------------------------|-------------------------------|
  E|-------------------------------|-------------------------------|
    rockin'     band                    Man,    were blowin'    a 
                                            they            like



  e|0------ 0---0-- ----0-- 0---0--|0------ ------- ------- -------|
  B|3-------3---3-------3---3---3--|3------------------------------|
  G|1-------1---1-------1---1---1--|1------------------------------|
  D|2-------2---2-------2---2---2--|2------------------------------|
  A|2-------2---2-------2---2---2--|2------------------------------|
  E|0-------0---0-------0---0---0--|0------------------------------|

  e|------- ------- ------- -------|------- ------- ------- -------|
  B|-------------------------------|-------------------------------|
  G|-------------------------------|-------------------------------|
  D|-------------------------------|2------------------------------|
  A|------------------------2------|-------------------------------|
  E|0----------/4------------------|-------------------------------|
    hurricane                           That's  I   go  for that
                                            why


    CHORUS
    01:05 ....  

                                        Way down South they had a
    VERSE
    01:25
    jubilee
    Those Georgia folks they had a jamboree
    They're drinkin' home brew from a wooden cup
    The folks are dancin' and are all shook up

                                        And started playin' that
 
    CHORUS                                    
    01:37 ....


    

                                        Don't care to hear 'em play a 
    01:57

  e|0------ ----0-- ----0-- ----0--|0------ ----0-- 0---0-- -------|  
  B|3-----------3-------3-------3--|3-----------3---3---3----------|
  G|1-----------1-------1-------1--|1-----------1---1---1----------|
  D|2-----------2-------2-------2--|2-----------2---2---2----------|
  A|2-----------2-------2-------2--|2-----------2---2---2----------|
  E|-------------------------------|-------------------------------|

  e|------- ------- ------- -------|------- ------- ------- -------|
  B|-------------------------------|-------------------------------|
  G|-------------------------------|-------------------------------|
  D|-------------------------------|-------------------------------|
  A|------------------------2------|------------------------2------|
  E|0----------/4------------------|0----------/4------------------|
    tango                               I'm in  the mood    take  
                                                        to      a



  e|0------ ----2-- ----2-- ----2--|2------ ----0-- 0---0-- 0------|
  B|2-----------2-------2-------2--|2-----------2---2---2---2------|
  G|2-----------2-------2-------2--|2-----------2---2---2---2------|
  D|2-----------2-------2-------2--|2-----------2---2---2---2------|
  A|0-----------0-------0-------0--|0-----------0---0---0---0------|
  E|-------------------------------|-------------------------------|

  e|------- ------- ------- -------|------- ------- ------- -------|
  B|-------------------------------|-------------------------------|
  G|-------------------------------|-------------------------------|
  D|------------------------2------|------------------------2------|
  A|0----------/4------------------|0----------/4------------------|
  E|-------------------------------|-------------------------------|
    mambo                               It's    too early   for a 
                                            way



  e|2------ ----2-- ----2-- ----2--|2------ ----2-- 2---2-- 2------|
  B|3-----------3-------3-------3--|3-----------3---3---3---3------|
  G|2-----------2-------2-------2--|2-----------2---2---2---2------|
  D|0-----------0-------0-------0--|0-----------0---0---0---0------|
  A|-------------------------------|-------------------------------|
  E|-------------------------------|-------------------------------|

  e|------- ------- ------- -------|------- ------- ------- -------|
  B|-------------------------------|-------------------------------|
  G|------------------------2------|------------------------2------|
  D|0----------/4------------------|0----------/4------------------|
  A|-------------------------------|-------------------------------|
  E|-------------------------------|-------------------------------|
    congo                               So  keep    rockin' that 
                                                on



  e|0------ ----0-- ----0-- 0---0--|0------ ------- ------- -------|
  B|3-----------3-------3---3---3--|3------------------------------|
  G|1-----------1-------1---1---1--|1------------------------------|
  D|2-----------2-------2---2---2--|2------------------------------|
  A|2-----------2-------2---2---2--|2------------------------------|
  E|0-----------0-------0---0---0--|0------------------------------|

  e|------- ------- ------- -------|------- ------- ------- -------|
  B|-------------------------------|-------------------------------|
  G|-------------------------------|-------------------------------|
  D|-------------------------------|2------------------------------|
  A|------------------------2------|-------------------------------|
  E|0----------/4------------------|-------------------------------|
    piano                               That's  I   go  for that
                                            why


    CHORUS
    02:08 .... 



  e|0---0-- 0---0-- 0------ 0---0--|0------ 2---2-- 2------ -------|
  B|3---3---3---3---3-------3---2--|2-------2---2---2--------------|
  G|1---1---1---1---1-------1---2--|2-------2---2---2--------------|
  D|2---2---2---2---2-------2---2--|2-------2---2---2--------------|
  A|2---2---2---2---2-------2---0--|0-------0---0---0--------------|
  E|0---0---0---0---0-------0------|-------------------------------|

  e|------- ------- ------- -------|------- ------- ------- -------|
  B|-------------------------------|-------------------------------|
  G|-------------------------------|-------------------------------|
  D|9---9--11---9---9---9--11------|-------------------------------|
  A|7---7---7---7---7---7---7------|7-------7---7---7--------------|
  E|-------------------------------|5-------5---5---5--------------|
        you wanna   dance   with                         
                                me          






        B  Bend
        R  Release
        /  Slide up
        \  Slide down
        H  Hammer-on
        P  Pull-off
        ~  Vibrato
        +  Harmonic
        x  Mute note
        .  Play note like a dot in standard notation
        ^  Ties two notes together
        (. Pause



  -------------------------------------------------------------------

  THE BEATLES - I'LL FOLLOW THE SUN (Lennon & McCartney) From BEATLES 
                FOR SALE album. Released on December 4th 1964.

  -------------------------------------------------------------------

  Tabbed by:PJVillanueva




  One day you'll look to see I've gone.
  For tomorrow may rain, so I'll follow the sun.
  Some day you'll know I was the one.
  But tomorrow may rain, so I'll follow the sun.
  And now the time has come
  And so my love I must go.
  And though I lose a friend,
  In the end you'll know, oooh.
  One day you'll find that I have gone.
  For tomorrow may rain, so I'll follow the sun.
  Yes, tomorrow may rain, so I'll follow the sun.
  And now the time has come
  And so my love I must go.
  And though I lose a friend,
  In the end you'll know, oooh.
  One day you'll find that I have gone.
  For tomorrow may rain, so I'll follow the sun.



  C                           F             C
e|------ ---0-- ------ ------|------ ---0-- ------ ------|
B|1------1--1------1------1--|1------1---------1------0--|
G|0--0------0-------------0--|2--2-------------0------0--|
D|2---------2-------------2--|3----------------2------0--|
A|3---------3-------------3--|-----------------3---------|
E|---------------------------|---------------------------|

e|------ ------ ------ ------|------ ------ ------ ------|
B|1------1------3------3-----|1------1------1------1-----|
G|---0------0------0------0--|---2------2------0------0--|
D|---------------------------|---------------------------|
A|---------------------------|---------------------------|
E|---------------------------|---------------------------|



  G                           F
e|3----- ---3-- ---3-- 3-----|1----- ---1-- ---1-- 1-----| 
B|3---------3------3---3-----|1---------1------1---1--0--|
G|4---------4------4---4-----|2---------2------2---2--0--|
D|5---------5------5---5-----|3---------3------3---3--0--|
A|5---------5------5---5-----|3---------3------3---3-----|
E|3---------3------3---3-----|1---------1------1---1-----|
  One       day               you'll    look 


  C                       D                           C
e|------ ------ ------ ---2--|------ ---2-- ------ ---0--|
B|1---------1------1------3--|----------3------3------1--|
G|0---------0------0------2--|----------2------2------0--|
D|2---------2------2---------|0-------------0------------|
A|3---------3------3---------|---------------------------|
E|3---------3------3---------|---------------------------|
         to     see       gone.                    For                  
                   I've                               tomorrow


            Em            D7            G
e|------ ---0-- ---0-- ---2--|---2-- ------ ------ ---0--|
B|---1------0------0------1--|---1------0------3---------|
G|---0------0------0------2--|---2------0------0---------|
D|---2-----------------------|0---------0------0---------|
A|3-------------2------------|---------------------------|
E|---------------------------|--------------3------------| 
         may           so            I'll   follow    the 
            rain


     C                           F          C
e|------ ------ ---0-- ------|---1-- ------ ---0-- ------|  
B|---1------1------1------1--|---1------0-H-1--1---------|
G|---0------0------0------0--|---2------0------0---------|
D|---2------2------2------2--|---3------0----------------|
A|---3------3------3------3--|--------------3------------|
E|---------------------------|---------------------------|

e|------ ------ ------ ------|------ ------ ------ ------|
B|1------1------3------3-----|1------1------1------1-----|
G|---0------0------0------0--|---2------2------0------0--|
D|---------------------------|---------------------------|
A|---------------------------|---------------------------|
E|---------------------------|---------------------------|
  sun


  G                           F
e|3----- ---3-- ---3-- 3-----|1----- ---1-- ---1-- 1-----|
B|3---------3------3---3-----|1---------1------1---1--0--|
G|4---------4------4---4-----|2---------2------2---2--0--|
D|5---------5------5---5-----|3---------3------3---3--0--|
A|5---------5------5---5-----|3---------3------3---3-----|
E|3---------3------3---3-----|1---------1------1---1-----|
  Some      day               you'll    know 

  C                       D                           C
e|------ ------ ------ ---0--|------ ---2-- ------ ---0--|
B|1---------1------1------3--|----------3------3------1--|
G|0---------0------0------2--|----------2------2------0--|
D|2---------2------2------0--|----------0------0---------|
A|3---------3------3---------|---------------------------|
E|3---------3------3---------|---------------------------|
         I      was    the                         But 
                          one                         tomorrow

            Em            D7            G
e|------ ---0-- ---0-- ---2--|---2-- ---3-- ---3-- ------|
B|---1------0------0------1--|---3------3------3------0--|
G|---0------0------0------2--|---2------0------0------0--|
D|---2-----------------------|0---------0------0------0--|
A|3-------------2------------|---------------------------|
E|---------------------------|--------------3------------|
         may           so            I'll   follow    the 
            rain


     C                    C7
e|------ ---0-- ------ ------|------ ------ ------ ------|
B|---1------1------1------1--|---1------1------1---1-----|
G|---0------0------0------3--|---3------3------3---3-----|
D|---2-------------2------2--|---2------2------2---2-----|
A|---3-------------3------3--|---3------3------3---3-----|
E|---------------------------|---------------------------|
  sun                                And    now    the 


  Dm                          Fm6
e|1----- ---1-- ---1-- 1-----|1----- ---1-- ---1-- 1-----|
B|3---------3------3---3-----|3---------3------3---3-----|
G|2---------2------2---2-----|1---------1------1---1-----|
D|0---------0------0---0-----|3---------3------3---3-----|
A|---------------------------|3---------3------3---3-----|
E|---------------------------|1---------1------1---1-----|
  time      come          and so     my love   I   must 
     has                                              go


  C                       C7
e|------ ------ ---0-- ------|------ ------ ------ ------|
B|1---------1------1------1--|----------1------1---1-----|
G|0---------0------0------3--|----------3------3---3-----|
D|2---------2-------------2--|----------2------2---2-----|
A|3---------3-------------3--|----------3------3---3-----|
E|---------------------------|---------------------------|
                                     And    though I


  Dm                          Fm6
e|1----- ---1-- ---1-- ------|1----- ---1-- ---1-- 1-----|
B|3---------3------3---------|3---------3------3---3-----|
G|2---------2------2---------|1---------1------1---1-----|
D|0---------0------0---------|3---------3------3---3-----|
A|---------------------------|3---------3------3---3-----|
E|---------------------------|1---------1------1---1-----|
  lose   a  friend            in     the       you will 
                                        end           know


  C                           Dm
e|------ ------ ------ ------|1----- ---1-- ---1-- 1-----|
B|1---------1------1------1--|3---------3------3---3-----|
G|0---------0------0------0--|2---------2------2---2-----|
D|2---------2------2------2--|0---------0------0---0-----|
A|3---------3------3------3--|---------------------------|
E|---------------------------|---------------------------|
                              Ooooooooooooooooooooooohhh


  G                           F
e|3----- ---3-- ---3-- 3-----|1----- ---1-- ---1-- 1-----|
B|3---------3------3---3-----|1---------1------1---1--0--|
G|4---------4------4---4-----|2---------2------2---2--0--|
D|5---------5------5---5-----|3---------3------3---3--0--|
A|5---------5------5---5-----|3---------3------3---3-----|
E|3---------3------3---3-----|1---------1------1---1-----|
  One       day               you'll    find 


  C                       D                           C
e|------ ---0-- ------ ------|------ ---2-- ------ ---0--|
B|1---------1------1------3--|----------3------3------1--|
G|0---------0------0------2--|----------2------2------0--|
D|2---------2------2------0--|----------0------0---------|
A|3---------3------3---------|---------------------------|
E|3---------3------3---------|---------------------------|
         that   I have    gone                     But 
                                                      tomorrow

            Em            D7            G
e|------ ---0-- ---0-- ---2--|---2-- ------ ------ ------|
B|---1------0------0------1--|---1------0------3------0--|
G|---0------0------0------2--|---2------0------0------0--|
D|---2-----------------------|0---------0------0------0--|
A|3-------------2------------|---------------------------|
E|---------------------------|--------------3------------|
         may           so            I'll   follow    the 
            rain

  C                       F             C             G
e|------ ------ ---0-- ---0--|---0-- ------ ------ ------|
B|1---------1------1------1--|---1------1------1------0--|
G|0---------0------0------2--|---2------0------0------0--|
D|2---------2-------------3--|---3------2------2------0--|
A|3---------3------3---------|----------3------3---------|
E|---------------------------|---------------------------|
  sun
e|------ ------ ------ ------|------ ------ ------ ------|
B|1------1------3------3-----|1------1------1------1-----|
G|---0------0------0------0--|---2------2------0------0--|
D|---------------------------|---------------------------|
A|---------------------------|---------------------------|
E|---------------------------|---------------------------| 



  G                              F9
e|3----- ---3-- ---3-- ---3--|---3-- ---3-- ---3-- 3--3--|
B|3---------3------3------3--|---1------1------1---1--1--|  
G|0---------0------0------0--|---2------2------2---2--2--|
D|0---------0------0------0--|---1------1------1---1--1--|
A|2---------2------2------2--|---3------3------3---3--3--|
E|3---------3------3------3--|---1------1------1---1--1--|

e|------ ------ ------ ------|------ ------ ------ ------|
B|3------/------8------------|4------/------10-----------|
G|---------------------------|---------------------------|
D|---------------------------|---------------------------|
A|---------------------------|---------------------------|
E|---------------------------|---------------------------|
  

     C                    D                           C
e|------ ---3-- ------ ---2--|---2-- ---2-- ---2-- ---0--|
B|---1------1------1------3--|---3------3------3------1--|
G|---0------0------0------2--|---2------2------2------0--|
D|---2------2------2------0--|---0------0------0---------|
A|---3------3------3---------|---------------------------|
E|---------------------------|---------------------------|
 
e|------ ------ ------ ------|------ ------ ------ ------|
B|-------8---/--13-----12---/|15-------------------------|
G|---------------------------|---------------------------|
D|---------------------------|---------------------------|
A|---------------------------|---------------------------|
E|---------------------------|---------------------------|
                                                   But 
                                                      tomorrow

            Em            D7            G
e|------ ---0-- ---0-- ---2--|---2-- ------ ------ ------|
B|---1------0------0------1--|---1------0------3------0--|
G|----------0------0------2--|---2------0------0------0--|
D|-------2-------------------|0---------0------0------0--|
A|3-------------2------------|---------------------------|
E|---------------------------|--------------3------------|
         may rain      so            I'll   follow    the


     C                    C7
e|------ ---0-- ------ ------|------ ------ ------ ------|
B|---1------1------1---------|---1------1------1------1--|
G|---0------0------0------3--|---3------3------3------3--|
D|---2-------------2------2--|---2------2------2------2--|
A|---3-------------3------3--|---3------3------3------3--|
E|---------------------------|---------------------------|
  sun                                And    now    the



  Dm                          Fm6
e|1----- ---1-- ---1-- 1-----|1----- ---1-- ---1-- 1-----|
B|3---------3------3---3-----|3---------3------3---3-----|
G|2---------2------2---2-----|1---------1------1---1-----|
D|0---------0------0---0-----|3---------3------3---3-----|
A|---------------------------|3---------3------3---3-----|
E|---------------------------|1---------1------1---1-----|
  time      come          and so     my love   I   must 
     has                                              go

  C                       C7    
e|------ ---0-- ------ ------|------ ------ ------ ------|
B|1---------1------1---------|----------1------1---1-----|
G|0---------0------0------3--|----------3------3---3-----|
D|2---------2------2------2--|----------2------2---2-----|
A|3---------3------3------3--|----------3------3---3-----|
E|---------------------------|---------------------------|
                                     And    though I


  Dm                          Fm6
e|1----- ---1-- ---1-- ------|1----- ---1-- ---1-- 1-----|
B|3---------3------3---------|3---------3------3---3-----|
G|2---------2------2---------|1---------1------1---1-----|
D|0---------0------0---------|3---------3------3---3-----|
A|---------------------------|3---------3------3---3-----|
E|---------------------------|1---------1------1---1-----|
  lose   a  friend            in     the       you'll 
                                        end

  C                           Dm
e|------ ---0-- ------ ------|------ ---1-- ---1-- 1-----|
B|1---------1------1------0--|3---------3------3---3-----|
G|0---------0------0------0--|2---------2------2---2-----|
D|2---------2------2------2--|0---------0------0---0-----|
A|3---------3------3------3--|---------------------------|
E|---------------------------|---------------------------|  
  know                        Ooooooooooooooooooooooohhh
 
  G                           F
e|3----- ---3-- ---3-- 3-----|1----- ---1-- ---1-- 1-----|
B|3---------3------3---3-----|1---------1------1---1--0--|
G|4---------4------4---4-----|2---------2------2---2--0--|
D|5---------5------5---5-----|3---------3------3---3--0--|
A|5---------5------5---5-----|3---------3------3---3-----|
E|3---------3------3---3-----|1---------1------1---1-----|
  One       day               you'll    find 


  C                       D                           C
e|------ ---0-- ------ ------|------ ---2-- ------ ---0--|
B|1---------1------1------3--|----------3------3------1--|
G|0---------0------0------2--|----------2------2------0--|
D|2---------2------2------0--|----------0------0---------|
A|3---------3------3---------|---------------------------|
E|3---------3------3---------|---------------------------|
         that   I  have   gone                     But 
                                                      tomorrow


            Em            D7            G
e|------ ---0-- ------ ---2--|---2-- ------ ------ ------|
B|---1------0------0------1--|---1------0------3------0--|
G|----------0------0------2--|---2------0------0------0--|
D|-------2-------------2-----|0---------0------0------0--|
A|3-------------2------------|---------------------------|
E|---------------------------|--------------3------------|
         may rain      so            I'll   follow    the 

                                            (.
     C                           F          C
e|------ ------ ---0-- ------|---0-- ------ ------ ------|
B|---1------1------1------1--|---1----------1------------|
G|---0------0------0------0--|---2----------0------------|
D|---2------2-------------2--|---3----------2------------|
A|---3------3-------------3--|--------------3------------|
E|---------------------------|--------------3------------|

e|------ ------ ------ ------|------ ------ ------ ------|
B|1------1------3------3-----|1------1------1------------|
G|---0------0------0------0--|---2------2----------------|
D|---------------------------|---------------------------|
A|---------------------------|---------------------------|
E|---------------------------|---------------------------| 
  sun




        B  Bend
        R  Release
        /  slide up
        \  slide down
        H  hammer-on
        P  pull-off
        ~  vibrato
        +  harmonic
        x  Mute note
        . - play note like a dot in standard notation
        ^ - ties two notes together
        (. Pause



    -----------------------------------------------------------

    THE BEATLES - MR. MOONLIGHT (Johnson) From BEATLES FOR SALE
                  album. Released on December 4th 1964.

    -----------------------------------------------------------

    Tabbed by:PJVillanueva


                                         
   I wish George Martin had recorded a funkier piano fragment here 
   instead of saying OK to Paul's embarrasingly predictable Hammond 
   organ solo. It turned this, otherwise acceptable, Beatles cover
   into one of the the most obscure songs in their repertoire.


                  
   Mr. Moonlight 

   You came to me 
   One summer night 
   And from your beam you made my dream
 
   And from the world you sent my girl 
   And from above you sent us love
 
   And now she in mine 
   I think you're fine 
   'cause we love you 
   Mr. Moonlight 

   Mr. Moonlight, 
   Come again please 
   Here I am on my knees 
   Beggin' If you please 

   And the night you don't come my way 
   I pray and pray more each day 
   Because we love you 
   Mr. Moonlight 

           SOLO

   And the night you don't come my way 
   I pray and pray more each day 
   Because we love you 
   Mr. Moonlight 

   Mr. Moonlight, 
   Come again please 
   Here I am on my knees 
   Beggin' If you please 

   And the night you don't come my way 
   I pray and pray more each day 
   Because we love you 
   Mr. Moonlight 
   Mr. Moonlight 
   Mr. Moonlight 


                                                            x
                           
  e|------- ------- ------- -------|------- ------- ------- -------|
  B|-------------------------------|-------------------------------|
  G|-------------------------------|-------------------------------|
  D|-------------------------------|-------------------------------|
  A|-------------------------------|-------------------------------|
  E|-------------------------------|-------------------------------|
    Mister                          Moonlight


    00:05
    F#
  e|2------ 2---2-- ----2-- ----2--|2------ 2---2-- 2---2-- 2---2--|
  B|2-------2---2-------2-------2--|2------2----2---2---2---2---2--|
  G|3-------3---3-------3-------3--|3-----3-----3---3---3---3---3--|  
  D|4-------4---4-------4-------4--|4----4------4---4---4---4---4--|
  A|4-------4---4-------4-------4--|4-----------4---4---4---4---4--|
  E|2-------2---2-------2-------2--|2-----------2---2---2---2---2--|

  e|------- ------- ------- -------|------- ------- ------- -------|
  B|-------------------------------|-------------------------------|
  G|3---------------3H4-----3H4----|3---------------3H4-----3H4----|
  D|4-------4-------4-------4------|4-------4-------4-------4------|
  A|3------------------------------|4------4-----------------------|
  E|2------------------------------|------2------------------------|





  e|2------ 2---2-- 2------ 2------|2------ 2---2-- 2------ 2------|
  B|2-------2---2---2-------2------|2-------2---2---2-------2------|
  G|3-------3---3---3-------3------|3-------3---3---3-------3------|
  D|4-------4---4---4-------4------|4-------4---4---4-------4------|
  A|4-------4---4---4-------4------|4-------4---4---4-------4------|
  E|2-------2---2---2-------2------|2-------2---2---2-------2------|

  e|------- ------- ------- -------|------- ------- ------- -------|
  B|-------------------------------|-------------------------------|
  G|----------------3H4-----3H4----|3---------------3H4-----3H4----|
  D|--------4-------4-------4------|4-------4-------4-------4------|
  A|-------------------------------|4------4-----------------------|
  E|-------------------------------|------2------------------------|
    You came    to  me                              one summer




  e|2------ 2---2-- 2---2-- ----2--|2------ 2---2-- 2---2-- -------|
  B|2-------2---2---2---2-------2--|2-------2---2---2---2----------|
  G|3-------3---3---3---3-------3--|3-------3---3---3---3-------4--|
  D|4-------4---4---4---4-------4--|4-------4---4---4---4-------4--|
  A|4-------4---4---4---4-------4--|4-------4---4---4---4----------|
  E|2-------2---2---2---2-------2--|2-------2---2---2---2----------|

  e|------- ------- ------- -------|------- ------- ------- -------|
  B|-------------------------------|-------------------------------|
  G|----------------3H4-----3H4----|3------------------------------|
  D|----------------4-------4------|4------------------------------|
  A|-------------------------------|------------------------1------|
  E|-------------------------------|--------2-------4--------------|
    night


    00:17
    B
  e|2------ 2---2-- 2---2-- 2---2--|2-----2 2---2-- 2---2-- 2------|
  B|4-------4---4---4---4---4---4--|4-----4-4---4---4---4---4------|
  G|4-------4---4---4---4---4---4--|4-----4-4---4---4---4---4------|
  D|4-------4---4---4---4---4---4--|4-----4-4---4---4---4---4------|
  A|2-------2---2---2---2---2---2--|2-----2-2---2---2---2---2------|
  E|-------------------------------|-------------------------------|

  e|------- ------- ------- -------|------- ------- ------- -------|
  B|7------------------------------|7------------------------------|
  G|8-----------8-------8-------8--|8-----------8-------8----------|
  D|9---------------9-------9------|9---------------9--------------|
  A|-------------------------------|-------------------------------|
  E|-------------------------------|-------------------------------|
                    And from    your                you made    my  
                                   beam 


    F#
  e|2------ ------- 2------ 2---2--|2-----2 2---2-- 2---2-- 2------|
  B|2---------------2-------2---2--|2-----2-2---2---2---2---2---0--|
  G|3---------------3-------3---3--|3-----3-3---3---3---3---3---0--|
  D|4---------------4-------4---4--|4-----4-4---4---4---4---4---0--|
  A|4---------------4-------4---4--|4-----4-4---4---4---4---4------|
  E|2---------------2-------2---2--|2-----2-2---2---2---2---2------|

  e|------- ------- ------- -------|------- ------- ------- -------|
  B|-------------------------------|-------------------------------|
  G|3---------------3-H-4---3-H-4--|3---------------3H4-----3------|
  D|4-------4-------4-------4------|4-------4-------4-------4------|
  A|-------------------------------|-------------------------------|
  E|-------------------------------|-------------------------------|
    dream


    00:24
    Ebm
  e|6------ 6---6-- ----6-- 6---6--|6------ 6---6-- ----6-- 6------|
  B|7-------7---7-------7---7---7--|7-------7---7-------7---7------|
  G|8-------8---8-------8---8---8--|8-------8---8-------8---8------|
  D|8-------8---8-------8---8---8--|8-------8---8-------8---8------|
  A|6-------6---6-------6---6---6--|6-------6---6-------6---6------|
  E|-------------------------------|-------------------------------|

  e|------- ------- ------- -------|------- ------- ------- -------|
  B|7------------------------------|7------------------------------|
  G|8-----------8------------------|8-----------8------------------|
  D|8-------------------8----------|8---------------8--------------|
  A|6------------------------------|6------------------------------|
  E|-------------------------------|-------------------------------|
                    And from    the world           you sent    my 




  e|6-----6 6---6-- ----6-- 6------|6-----6 6---6-- ----6-- -------|
  B|7-----7-7---7-------7---7------|7-----7-7---7-------7----------|
  G|8-----8-8---8-------8---8------|8-----8-8---8-------8---8------|
  D|8-----8-8---8-------8---8------|8-----8-8---8-------8---8------|
  A|6-----6-6---6-------6---6------|6-----6-6---6-------6---6------|
  E|-------------------------------|-------------------------------|

  e|------- ------- ------- -------|------- ------- ------- -------|   
  B|-------------------------------|-------------------------------|
  G|-------------------------------|-------------------------------|
  D|--------8----------------------|--------8-------8-------8------|
  A|--------6---6------------------|--------6---6---6-------6------|
  E|--------6-------6--------------|--------6----------------------|
    girl 



    B
  e|2------ 2---2-- 2---2-- 2---2--|2------ 2---2-- 2---2-- 2------|
  B|4-------4---4---4---4---4---4--|4-------4---4---4---4---4------|
  G|4-------4---4---4---4---4---4--|4-------4---4---4---4---4------|
  D|4-------4---4---4---4---4---4--|4-------4---4---4---4---4------|
  A|2-------2---2---2---2---2---2--|2-------2---2---2---2---2------|
  E|-------------------------------|-------------------------------|  

  e|------- ------- ------- -------|------- ------- ------- -------|
  B|7------------------------------|-------------------------------|
  G|8-----------8---------------8--|------------8-------8----------|
  D|9---------------9--------------|9---------------9--------------|
  A|-------------------------------|-------------------------------|
  E|-------------------------------|-------------------------------|
                    And from    above           you    sent us 



    F#
  e|2------ 2---2-- 2------ 2------|2------ ------- ------- -------|
  B|2-------2---2---2-------2------|2------------------------------|
  G|3-------3---3---3-------3------|3------------------------------|
  D|4-------4---4---4-------4------|4------------------------------|
  A|4-------4---4---4-------4------|4------------------------------|
  E|2-------2---2---2-------2------|2------------------------------|

  e|------- ------- ------- -------|------- ------- ------- -------|
  B|-------------------------------|-------------------------------|
  G|3---------------3H4-----3H4----|3------------------------------|
  D|4---------------4-------4------|4------------------------------|
  A|4-----------4------------------|------------------------1------|
  E|2------------------------------|--------2-------4--------------|
    love


    00:39
    B
  e|2-----2 2---2-- 2------ 2---2--|2------ 2---2-- 2---2-- 2------|  
  B|4-----4-4---4---4-------4---4--|4-------4---4---4---4---4---0--|
  G|4-----4-4---4---4-------4---4--|4-------4---4---4---4---4---0--|
  D|4-----4-4---4---4-------4---4--|4-------4---4---4---4---4---0--|
  A|2-----2-2---2---2-------2---2--|2-------2---2---2---2---2------|
  E|-------------------------------|-------------------------------|

  e|------- ------- ------- -------|------- ------- ------- -------|
  B|7------------------------------|7------------------------------|
  G|8-----------8-------8-------8--|8-----------8-------8----------|
  D|9---------------9-------9------|9---------------9-------9------|
  A|-------------------------------|-------------------------------|
  E|-------------------------------|-------------------------------|
                And now she is  mine



    F#                              Eb7
  e|2-----2 2---2-- ----2-- 2------|------- ------- ------- -------|
  B|2-----2-2---2-------2---2------|4-----4-4---4-------4---4------|
  G|3-----3-3---3-------3---3------|6-----6-6---6-------6---6------|
  D|4-----4-4---4-------4---4------|5-----5-5---5-------5---5------|
  A|4-----4-4---4-------4---4------|6-----6-6---6-------6---6------|
  E|2-----2-2---2-------2---2------|-------------------------------|

  e|------- ------- ------- -------|------- ------- ------- -------|
  B|-------------------------------|-------------------------------|
  G|-------------------------------|------------6------------------|
  D|----4---------------4----------|--------5-----------5-------4--|
  A|----------------4-------4---5--|6-------6-------------------4--|
  E|-------------------------------|--------6----------------------|
    I                   think   fine                   'cause   we
                            you're

                                            X
    Abm                 Ab          Db7                   
  e|4------ 4---4-- ----4-- 4---0--|------- ------- ------- -------|  
  B|4-------4---4-------4---4---0--|2------------------------------|
  G|4-------4---4-------5---5---0--|4------------------------------|
  D|6-------6---6-------6---6------|3------------------------------|
  A|6-------6---6-------6---6------|4------------------------------|
  E|4-------4---4-------4---4------|-------------------------------|

  e|------- ------- ------- -------|------- ------- ------- -------|
  B|-------------------------------|2------------------------------|
  G|--------4---4-------5----------|4------------------------------|
  D|--------6---6-------6----------|3------------------------------|
  A|--------6---6------------------|4------------------------------|
  E|4-------4---4------------------|-------------------------------|
    love                                            Mister      moonlight
        you


    F#
  e|2------ 2---2-- ----2-- 2------|2-----2 2---2-- 2---2-- 2---2--|
  B|2-------2---2-------2---2------|2-----2-2---2---2---2---2---2--|   
  G|3-------3---3-------3---3------|3-----3-3---3---3---3---3---3--|
  D|4-------4---4-------4---4------|4-----4-4---4---4---4---4---4--|
  A|4-------4---4-------4---4------|4-----4-4---4---4---4---4---4--|
  E|2-------2---2-------2---2------|2-----2-2---2---2---2---2---2--|

  e|------- ------- ------- -------|------- ------- ------- -------|
  B|-------------------------------|-------------------------------|
  G|3---------------3H4-----3H4----|3---------------3---4---3---4--|
  D|4-----------4---4-------4------|4---------------4---4---4---4--|
  A|-------------------------------|-------------------------------|
  E|-------------------------------|-------------------------------|



    00:54

  e|2------ 2---2-- 2------ 2------|2------ 2---2-- 2---2-- 2------|   
  B|2-------2---2---2-------2------|2-------2---2---2---2---2------|
  G|3-------3---3---3-------3------|3-------3---3---3---3---3------|
  D|4-------4---4---4-------4------|4-------4---4---4---4---4------|
  A|4-------4---4---4-------4------|4-------4---4---4---4---4------|
  E|2-------2---2---2-------2------|2-------2---2---2---2---2------|

  e|------- ------- ------- -------|------- ------- ------- -------|
  B|-------------------------------|-------------------------------|
  G|----------------3H4-----3H4----|----------------3H4-----3H4----|
  D|--------4-------4-------4------|----------------4-------4------|
  A|-------------------------------|-------------------------------|
  E|-------------------------------|-------------------------------|
    Mister      moonlight                           come
                                                        again



  e|2------ 2---2-- 2------ 2------|2------ 2---2-- 2---2-- 2---2--|  
  B|2-------2---2---2-------2------|2-------2---2---2---2---2---2--|
  G|3-------3---3---3-------3------|3-------3---3---3---3---3---3--|
  D|4-------4---4---4-------4------|4-------4---4---4---4---4---4--|
  A|4-------4---4---4-------4------|4-------4---4---4---4---4---4--|
  E|2-------2---2---2-------2------|2-------2---2---2---2---2---2--|

  e|------- ------- ------- -------|------- ------- ------- -------|
  B|-------------------------------|-------------------------------|
  G|----------------3H4-----3H4----|3---------------3H4-----3H4----|
  D|--------4-------4-------4------|4-------4-------4-------4------|
  A|-------------------------------|-------------------------------|
  E|-------------------------------|-------------------------------|
    please




  e|2------ 2---2-- 2---2-- 2---2--|2-----2 2---2-- 2---2-- 2---2--|
  B|2-------2---2---2---2---2---2--|2-----2-2---2---2---2---2---2--|
  G|3-------3---3---3---3---3---3--|3-----3-3---3---3---3---3---3--|
  D|4-------4---4---4---4---4---4--|4-----4-4---4---4---4---4---4--|
  A|4-------4---4---4---4---4---4--|4-----4-4---4---4---4---4---4--|
  E|2-------2---2---2---2---2---2--|2-----2-2---2---2---2---2---2--|

  e|------- ------- ------- -------|------- ------- ------- -------|
  B|-------------------------------|-------------------------------|
  G|----------------3H4-----3H4----|3-----------3---3H4-----3H4----|
  D|--------4-------4-------4------|4-----------4---4-------4------|
  A|-------------------------------|-------------------------------|
  E|-------------------------------|-------------------------------|
    Here    am      on  my  knees                   beggin  If  you
        I

                                            X

  e|2------ 2---2-- 2---2-- 2------|2------ ------- ------- -------|
  B|2-------2---2---2---2---2------|2------------------------------|
  G|3-------3---3---3---3---3------|3------------------------------|
  D|4-------4---4---4---4---4------|4------------------------------|
  A|4-------4---4---4---4---4------|4------------------------------|
  E|2-------2---2---2---2---2------|2------------------------------|

  e|------- ------- ------- -------|------- ------- ------- -------|
  B|-------------------------------|-------------------------------|
  G|3-----------------------3-H-4--|3------------------------------|
  D|4-------4-------4-------4------|4------------------------------|
  A|-------------------------------|------------------------1------|
  E|-------------------------------|--------2-------4--------------|
    please


    01:10

  e|2-----2 2---2-- 2---2-- 2---2--|2------ 2---2-- 2---2-- 2------|  
  B|4-----4-4---4---4---4---4---4--|4-------4---4---4---4---4------|
  G|4-----4-4---4---4---4---4---4--|4-------4---4---4---4---4------|
  D|4-----4-4---4---4---4---4---4--|4-------4---4---4---4---4------|
  A|2-----2-2---2---2---2---2---2--|2-------2---2---2---2---2------|
  E|-------------------------------|-------------------------------|

  e|------- ------- ------- -------|------- ------- ------- -------|
  B|-------------------------------|-------------------------------|
  G|------------------------8------|------------8-------8----------|
  D|----------------9--------------|9---------------9-------9------|
  A|9-------9-------9--------------|9------------------------------|
  E|7-------7-------7--------------|7------------------------------|
                And night don't come    way             I
                  the   you       my



  e|2-----2 2---2-- 2---2-- 2------|------- ------- ------- -------|
  B|2-----2-2---2---2---2---2------|4-------4---4---4---4---4------|
  G|3-----3-3---3---3---3---3------|6-------6---6---6---6---6------|
  D|4-----4-4---4---4---4---4------|5-------5---5---5---5---5------|
  A|4-----4-4---4---4---4---4------|6-------6---6---6---6---6------|
  E|2-----2-2---2---2---2---2------|-------------------------------|

  e|------- ------- ------- -------|------- ------- ------- -------|   
  B|2------------------------------|------------4---4---4----------|
  G|3---------------3H4-----3-H-4--|------------6---6---6----------|
  D|4---------------4-------4------|------------5---5---5----------|
  A|-------------------------------|------------6---6---6----------|
  E|-------------------------------|-------------------------------|
        pray    and pray        each                       'cause
                        more        day                         we

                 

                                            X
                         
  e|4-----4 4---4-- ----4-- 4------|------- ------- ------- -------|
  B|4-----4-4---4-------4---4---x--|2------------------------------|
  G|4-----4-4---4-------5---5---x--|4------------------------------|
  D|6-----6-6---6-------6---6---x--|3------------------------------|
  A|6-----6-6---6-------6---6------|4------------------------------|
  E|4-----4-4---4-------4---4------|-------------------------------|

  e|------- ------- ------- -------|------- ------- ------- -------|  
  B|-------------------------------|2------------------------------|
  G|4-----------5---5---5---5------|4------------------------------|
  D|6-----------6---6---6---6------|3------------------------------|
  A|6-----------6---6---6---6------|4------------------------------|
  E|4-----------4---4---4---4------|-------------------------------|
    love                                            Mister      moonlight
        you



  e|2-----2 2---2-- 2------ 2------|2-----2 2---2-- 2---2-- 2------|   
  B|2-----2-2---2---2-------2------|2-----2-2---2---2---2---2------|
  G|3-----4-3---3---3-------3------|3-----3-3---3---3---3---3------|
  D|4-----4-4---4---4-------4------|4-----4-4---4---4---4---4------|
  A|4-----4-4---4---4-------4------|4-----4-4---4---4---4---4------|
  E|2-----2-2---2---2-------2------|2-----2-2---2---2---2---2------|

  e|------- ------- ------- -------|------- ------- ------- -------|
  B|-------------------------------|-------------------------------|
  G|3---------------3H4-----3H4----|3---------------3H4-----3H4----|
  D|4---------------4-------4------|4---------------4-------4------|
  A|-------------------------------|-------------------------------|
  E|-------------------------------|-------------------------------|




    ORGAN SOLO
    01:25



    01:40

  e|2-----2 2---2-- 2------ 2------|2------ 2---2-- 2---2-- 2------|   
  B|4-----4-4---4---4-------4------|4-------4---4---4---4---4------|
  G|4-----4-4---4---4-------4------|4-------4---4---4---4---4------|
  D|4-----4-4---4---4-------4------|4-------4---4---4---4---4------|
  A|2-----2-2---2---2-------2------|2-------2---2---2---2---2------|
  E|-------------------------------|-------------------------------|

  e|------- ------- ------- -------|------- ------- ------- -------|  
  B|-------------------------------|-------------------------------|
  G|8---------------8H9-----8H9----|------------8-------8----------|
  D|9---------------9-------9------|----------------9-------9------|
  A|9---------------9-------9------|-------------------------------|
  E|7---------------7-------7------|-------------------------------|
                And night don't come    way             I
                  the   you       my



  e|2------ 2---2-- 2---2-- 2------|------- ------- ------- -------|
  B|2-------2---2---2---2---2------|4-------4---4-------4----------|
  G|3-------3---3---3---3---3------|6-------6---6-------6----------|
  D|4-------4---4---4---4---4------|5-------5---5-------5----------|
  A|4-------4---4---4---4---4------|6-------6---6-------6----------|
  E|2-------2---2---2---2---2------|-------------------------------|

  e|------- ------- ------- -------|------- ------- ------- -------|   
  B|-------------------------------|4-----------4-------4----------|
  G|------------3---3H4-----3------|6-----------6-------6----------|
  D|------------4---4-------4------|5-----------5-------5----------|
  A|-------------------------------|6-----------6-------6----------|
  E|-------------------------------|-------------------------------|
        pray    and pray        each                       'cause
                        more        day                         we

                 
                                            X
                         
  e|4------ 4---4-- ----4-- 4------|------- ------- ------- -------|
  B|4-------4---4-------4---4------|2------------------------------|
  G|4-------4---4-------5---5------|4------------------------------|
  D|6-------6---6-------6---6------|3------------------------------|
  A|6-------6---6-------6---6------|4------------------------------|
  E|4-------4---4-------4---4------|-------------------------------|

  e|------- ------- 4---4-- 4------|------- ------- ------- -------|
  B|----------------4---4---4------|2------------------------------|
  G|----------------5---5---5------|4------------------------------|
  D|----------------4---4---4------|3------------------------------|
  A|----------------6---6---6------|4------------------------------|
  E|----------------4---4---4------|-------------------------------|
    love                                            Mister      moonlight
        you



  e|2------ 2---2-- 2------ 2------|2-----2 2---2-- 2---2-- 2------|   
  B|2-------2---2---2-------2------|2-----2-2---2---2---2---2------|
  G|3-------3---3---3-------3------|3-----3-3---3---3---3---3------|
  D|4-------4---4---4-------4------|4-----4-4---4---4---4---4------|
  A|4-------4---4---4-------4------|4-----4-4---4---4---4---4------|
  E|2-------2---2---2-------2------|2-----2-2---2---2---2---2------|

  e|------- ------- ------- -------|------- ------- ------- -------|
  B|-------------------------------|-------------------------------|
  G|3---------------3H4-----3H4----|3---------------3H4-----3------|
  D|4---------------4-------4------|4---------------4-------4------|
  A|-------------------------------|-------------------------------|
  E|-------------------------------|-------------------------------|



    01:55

  e|2------ 2---2-- 2------ 2------|2------ 2---2-- 2---2-- 2------|    
  B|2-------2---2---2-------2------|2-------2---2---2---2---2------|
  G|3-------3---3---3-------3------|3-------3---3---3---3---3------|
  D|4-------4---4---4-------4------|4-------4---4---4---4---4------|
  A|4-------4---4---4-------4------|4-------4---4---4---4---4------|
  E|2-------2---2---2-------2------|2-------2---2---2---2---2------|

  e|------- ------- ------- -------|------- ------- ------- -------|  
  B|-------------------------------|-------------------------------|
  G|3---------------3H4-----3H4----|3---------------3H4-----3H4----|
  D|4---------------4-------4------|4---------------4-------4------|
  A|-------------------------------|-------------------------------|
  E|-------------------------------|-------------------------------|
    Mister      moonlight                           come
                                                        again



  e|2------ 2---2-- 2------ 2---2--|2-----2 2---2-- 2---2-- 2------|  
  B|2-------2---2---2-------2---2--|2-----2-2---2---2---2---2------|
  G|3-------3---3---3-------3---3--|3-----3-3---3---3---3---3------|
  D|4-------4---4---4-------4---4--|4-----4-4---4---4---4---4------|
  A|4-------4---4---4-------4---4--|4-----4-4---4---4---4---4------|
  E|2-------2---2---2-------2---2--|2-----2-2---2---2---2---2------|

  e|------- ------- ------- -------|------- ------- ------- -------|
  B|-------------------------------|-------------------------------|
  G|--------3---3-----------3------|3---------------3-H-4---3-H-4--|
  D|--------4---4-----------4------|4---------------4-------4------|
  A|--------4---4-----------4------|4------------------------------|
  E|-------------------------------|-------------------------------|
    please




  e|2------ 2---2-- 2------ 2------|2------ 2---2-- 2------ 2------|
  B|2-------2---2---2-------2------|2-------2---2---2-------2------|
  G|3-------3---3---3-------3------|3-------3---3---3-------3------|
  D|4-------4---4---4-------4------|4-------4---4---4-------4------|
  A|4-------4---4---4-------4------|4-------4---4---4-------4------|
  E|2-------2---2---2-------2------|2-------2---2---2-------2------|

  e|------- ------- ------- -------|------- ------- ------- -------|  
  B|-------------------------------|-------------------------------|
  G|3---------------3H4-----3H4----|3---------------3H4-----3H4----|
  D|4---------------4-------4------|4---------------4-------4------|
  A|--------4----------------------|-------------------------------|
  E|-------------------------------|-------------------------------|
    Here    am      on  my  knees                   beggin  If  you
        I

                                            X

  e|2------ 2---2-- 2---2-- 2------|2------ ------- ------- -------|
  B|2-------2---2---2---2---2------|2------------------------------|
  G|3-------3---3---3---3---3------|3------------------------------|
  D|4-------4---4---4---4---4------|4------------------------------|
  A|4-------4---4---4---4---4------|4------------------------------|
  E|2-------2---2---2---2---2------|2------------------------------|

  e|------- ------- ------- -------|------- ------- ------- -------|  
  B|-------------------------------|-------------------------------|
  G|----------------3H4-----3H4----|3------------------------------|
  D|----------------4-------4------|4------------------------------|
  A|--------4---4------------------|------------------------1------|
  E|-------------------------------|--------2-------4--------------|
    please



    02:11

  e|2------ 2---2-- 2------ 2---2--|2------ 2---2-- 2------ 2------|  
  B|4-------4---4---4-------4---4--|4-------4---4---4-------4------|
  G|4-------4---4---4-------4---4--|4-------4---4---4-------4------|
  D|4-------4---4---4-------4---4--|4-------4---4---4-------4------|
  A|2-------2---2---2-------2---2--|2-------2---2---2-------2------|
  E|-------------------------------|-------------------------------|

  e|------- ------- ------- -------|------- ------- ------- -------|  
  B|-------------------------------|-------------------------------|
  G|8-----------8---8H9-----8------|------------8-------8----------|
  D|9-----------9---9-------9------|9---------------9-------9------|
  A|9-----------9---9-------9------|-------------------------------|
  E|7-----------7---7-------7------|-------------------------------|
                And night don't come    way             I
                  the   you       my



  e|2------ 2---2-- 2---2-- 2------|------- ------- ------- -------|
  B|2-------2---2---2---2---2------|4-------4---4-------4---4------|
  G|3-------3---3---3---3---3------|6-------6---6-------6---6------|
  D|4-------4---4---4---4---4------|5-------5---5-------5---5------|
  A|4-------4---4---4---4---4------|6-------6---6-------6---6------|
  E|2-------2---2---2---2---2------|-------------------------------|

  e|------- ------- ------- -------|------- ------- ------- -------|   
  B|-------------------------------|4-----------4-------4----------|
  G|------------3---3H4-----3------|6-----------6-------6----------|
  D|------------4---4-------4------|5-----------5-------5----------|
  A|-------------------------------|6-----------6-------6----------|
  E|-------------------------------|-------------------------------|
        pray    and pray        each                       'cause
                        more        day                         we

                 

                                            X
                         
  e|4------ 4---4-- ----4-- 4------|------- ------- ------- -------|  
  B|4-------4---4-------4---4---x--|2------------------------------|
  G|4-------4---4-------5---5---x--|4------------------------------|
  D|6-------6---6-------6---6---x--|3------------------------------|
  A|6-------6---6-------6---6------|4------------------------------|
  E|4-------4---4-------4---4------|-------------------------------|

  e|------- ------- ------- -------|------- ------- ------- -------|
  B|--------------------4---4------|2------------------------------|
  G|--------------------5---5------|4------------------------------|
  D|--------------------4---4------|3------------------------------|
  A|--------------------6---6------|4------------------------------|
  E|--------------------4---4------|-------------------------------|
    love                                            Mister      moonlight
        you



    02:22     

  e|2------ 2---2-- 2------ 2------|2-----2 2---2-- 2------ 2------|  
  B|2-------2---2---2-------2------|2-----2-2---2---2-------2------|
  G|3-------3---3---3-------3------|3-----3-3---3---3-------3------|
  D|4-------4---4---4-------4------|4-----4-4---4---4-------4------|
  A|4-------4---4---4-------4------|4-----4-4---4---4-------4------|
  E|2-------2---2---2-------2------|2-----2-2---2---2-------2------|

  e|------- ------- ------- -------|------- ------- ------- -------|  
  B|-------------------------------|-------------------------------|
  G|3-----------3---3H4-----3H4----|3---------------3H4-----3H4----|
  D|4-----------4---4-------4------|4-------4-------4-------4------|
  A|-------------------------------|-------------------------------|
  E|-------------------------------|-------------------------------|
                                                    Mister      Moonlight




  e|2------ ----2-- 2------ 2------|2-----2 2---2-- 2------ 2------|  
  B|2-----------2---2-------2------|2-----2-2---2---2-------2------|
  G|3-----------3---3-------3------|3-----3-3---3---3-------3------|
  D|4-----------4---4-------4------|4-----4-4---4---4-------4------|
  A|4-----------4---4-------4------|4-----4-4---4---4-------4------|
  E|2-----------2---2-------2------|2-----2-2---2---2-------2------|

  e|------- ------- ------- -------|------- ------- ------- -------|  
  B|-------------------------------|-------------------------------|
  G|3---------------3H4-----3H4----|3---------------3H4------------|
  D|4-----------4---4-------4------|4-------4-------4--------------|
  A|-------------------------------|-------------------------------|
  E|-------------------------------|-------------------------------|
                                                    Mister      Moonlight
    .......................... Fade out ...........................




  e|2------ ----2-- 2------ 2------|------- ------- ------- -------|  
  B|2-----------2---2-------2------|-------------------------------|
  G|3-----------3---3-------3------|-------------------------------|
  D|4-----------4---4-------4------|-------------------------------|
  A|4-----------4---4-------4------|-------------------------------|
  E|2-----------2---2-------2------|-------------------------------|

  e|------- ------- ------- -------|------- ------- ------- -------|  
  B|-------------------------------|-------------------------------|
  G|--------3-------3H4-----3H4----|-------------------------------|
  D|--------4---4---4-------4------|-------------------------------|
  A|-------------------------------|-------------------------------|
  E|-------------------------------|-------------------------------|
    ...............................
  



     
        B  Bend
        R  Release
        /  Slide up
        \  Slide down
        H  Hammer-on
        P  Pull-off
        ~  Vibrato
        +  Harmonic
        x  Mute note
        .  Play note like a dot in standard notation
        ^  Ties two notes together
        (. Pause



  ------------------------------------------------------------------

  THE BEATLES - MEDLEY: KANSAS CITY (Leiber & Stoller) - HEY HEY HEY
                (Penniman) From BEATLES  FOR SALE album. Released 
                on December 4th 1964.

  ------------------------------------------------------------------

  Tabbed by:PJVillanueva

                                     



  Ah, Kansas city
  Gonna get my baby back home, yeah, yeah
  I'm going to Kansas City
  Gonna get my baby back home, yeah, yeah
  Well, it's a long, long time since
  My baby's been gone

  Ah, Kansas City
  Gonna get my baby one time, a-yeah, yeah
  I'm going to Kansas City
  Get my baby one time, yeah, yeah
  It's just a-one, two, three, four
  Five, six, seven, eight, nine

  Solo

  Hey, hey, hey, hey (Hey hey hey hey)
  Hey, baby (Hey, baby)
  Ooh, now, gall (Well, gal)
  I said, yeah, now, pal (Well, pal)
  No no no no, tell me, baby
  What's been wrong with you?

  a-Hey, hey, hey, hey (Hey hey hey hey)
  Hey, now, baby (Hey, baby)
  ooh, now gal (Well, gal)
  I said yeah now, pal (Well, pal)
  No no no no, tell me, baby
  What's been wrong with you?

  Well, I say bye (Bye-bye, bye-bye, bye-bye)
  Bye-bye, baby, bye-bye (Bye-bye, bye-bye, bye-bye)
  Ooh, so long (So long, so long, so long)
  Bye-bye, baby, I'm gone (Bye-bye, bye-bye, bye-bye)
  Yeah, I say, bye-bye, baby
  Bye-bye bye-bye, bye now bye (bye bye, bye bye, bye bye)
  Bye-bye, baby, bye-bye (Bye-bye, bye-bye, bye-bye)
  So long (So long, so long, so long)...



                   Use a capo on 3rd fret.


  
e|------ ------ ------ ------|------ ------ ------ ------|
B|---------------------------|---------------------------|
G|---------------------------|---------------------------|
D|---------------------------|-------------------------2-|
A|---------------------------|------------------2--4-----|
E|---------------------------|---------------------------|


  E                           A7sus2
e|0-0-0- 0-0-0- 0----- ------|0-0-0- 0-0-0- 0----- ------|
B|0-0-0--0-0-0--0------------|0-0-0--0-0-0--0------------|
G|1-1-1--1-1-1--1------------|0-0-0--0-0-0--0------------|
D|2-2-2--2-2-2--2------------|2-2-2--2-2-2--2------------|
A|2-2-2--2-2-2--2------------|0-0-0--0-0-0--0------------|
E|0-0-0--0-0-0--0------------|---------------------------|
 
e|------ ------ ------ ------|------ ------ ------ ------|
B|---------------------------|---------------------------|
G|---------------------------|---------------------------|
D|6-6-6--6-6-6--6----------2-|5-5-5--5-5-5--5----------4-|
A|------------------2--4-----|------------------2--4-----|
E|---------------------------|---------------------------|



  E                               A  A#  B
e|0-0-0- 0-0-0- 0-0-0- 0-0-0-|----0- 1---2- ------ ------|
B|0-0-0--0-0-0--0-0-0--0-0-0-|----2--3---4---------------|
G|1-1-1--1-1-1--1-1-1--1-1-1-|1---2--3---4---------------|
D|2-2-2--2-2-2--2-2-2--2-2-2-|2---2--3---4---------------|
A|2-2-2--2-2-2--2-2-2--2-2-2-|2---0--1---2---------------|
E|0-0-0--0-0-0--0-0-0--0-0-0-|0--------------------------|
 
e|------ ------ ------ ------|------ ------ ------ ------|
B|---------------------------|----0------0---------------|
G|---------------------------|----2------2---------------|
D|6-6-6--6-6-6--6-6-6--6-6-6-|6---1------1---------------|
A|---------------------------|----2------2---------------|  
E|---------------------------|---------------------------|
                                              Ah
 

  E7     E13    E7     E13
e|0----- 0----- 0----- 0-----|0----- 0----- 0----- 0-----|
B|0------2------3------2-----|0------2------3------2-----|
G|1------1------1------1-----|1------1------1------1-----|
D|0------0------0------0-----|0------0------0------0-----|
A|2------2------2------2-----|2------2------2------2-----|
E|0------0------0------0-----|0------0------0------0-----|
      Kansas city               gonna get my baby back home
e|------ ------ ------ ------|------ ------ ------ ------|
B|---------------------------|---------------------------|
G|1------2----/-4------2-----|1------2----/-4------2-----|
D|0------0------0------0-----|0------0------0------0-----|
A|2------4----/-5------4-----|2------4----/-5------4-----|
E|0------0------0------0-----|0------0------0------0-----|




e|0----- 0----- 0----- 0-----|0----- 0----- 0----- 0-----|
B|0------2------3------2-----|0------2------3------2-----|
G|1------1------1------1-----|1------1------1------1-----|
D|0------0------0------0-----|0------0------0------0-----|
A|2------2------2------2-----|2------2------2------2-----|
E|0------0------0------0-----|0------0------0------0-----|
                       Yeah, yeah               I'm gonna  
e|------ ------ ------ ------|------ ------ ------ ------|
B|---------------------------|---------------------------|
G|1------2----/-4------2-----|1------2----/-4------2-----|
D|0------0------0------0-----|0------0------0------0-----|
A|2------4----/-5------4-----|2------4----/-5------4-----|
E|0------0------0------0-----|0------0------0------0-----|



  A7     A13    A7     A13
e|0----- 2----- 3----- 2-----|0----- 2----- 3----- 2-----|
B|2------2------2------2-----|2------2------2------2-----|
G|0------0------0------0-----|0------0------0------0-----|
D|2------2------2------2-----|2------2------2------2-----|
A|0------0------0------0-----|0------0------0------0-----|
E|---------------------------|---------------------------|
     Kansas city                gonna get my baby back home
e|------ ------ ------ ------|------ ------ ------ ------|
B|2------3----/-5------3-----|2------3----/-5------3-----|
G|0------0------0------0-----|0------0------0------0-----|
D|2------4----/-5------4-----|2------4----/-5------4-----|
A|0------0------0------0-----|0------0------0------0-----|
E|---------------------------|---------------------------|



  E7     E13    E7     E13
e|0----- 0----- 0----- 0-----|0----- 0----- 0----- 0-----|
B|0------2------3------2-----|0------2------3------2-----|
G|1------1------1------1-----|1------1------1------1-----|
D|0------0------0------0-----|0------0------0------0-----|
A|2------2------2------2-----|2------2------2------2-----|
E|0------0------0------0-----|0------0------0------0-----|
                       Yeah, yeah              Well it's a
e|------ ------ ------ ------|------ ------ ------ ------|
B|---------------------------|---------------------------|
G|1------2----/-4------2-----|1------2----/-4------2-----|
D|0------0------0------0-----|0------0------0------0-----|
A|2------4----/-5------4-----|2------4----/-5------4-----|
E|0------0------0------0-----|0------0------0------0-----|



  B7     B13    B7     B13    A7     A13    A7     A13
e|2---2- 4----- 5----- 4-----|0---0- 2----- 3----- 2-----|
B|4---4--4------4------4-----|2---2--2------2------2-----|
G|2---2--2------2------2-----|0---0--0------0------0-----|
D|4---4--4------4------4-----|2---2--2------2------2-----|
A|2---2--2------2------2-----|0---0--0------0------0-----|
E|---------------------------|---------------------------|
  long long time   since             my     baby's been gone
e|------ ------ ------ ------|------ ------ ------ ------|
B|4------5----/-7------5-----|2------3----/-5------3-----|
G|4------4----/-8------4-----|0------0------0------0-----|
D|4------6----/-7------6-----|2------4----/-5------4-----|
A|---------------------------|0------0------0------0-----|
E|---------------------------|---------------------------|



  E7     E13    E7     E13    E7  A6 Bb6 B6
e|0----- 0----- 0----- 0-----|0---2- 3---4- ------ ------|
B|0------2------3------2-----|0---2--3---4---------------|
G|1------1------1------1-----|1---2--3---4---------------|
D|0------0------0------0-----|0--------------------------|
A|2------2------2------2-----|2--------------------------|
E|0------0------0------0-----|0--------------------------|
  
e|------ ------ ------ ------|------ ------ ------ ------|
B|---------------------------|---------------------------|
G|1------2----/-4------2-----|1---2--3---4---------------|
D|0------0------0------0-----|0---2--3---4---------------|
A|2------4----/-5------4-----|2---0--1---2---------------|
E|0------0------0------0-----|0--------------------------|        
                                               Ah


  E7     E13    E7     E13    
e|0----- 0----- 0----- 0-----|0----- 0----- 0----- 0-----|
B|0------2------3------2-----|0------2------3------2-----|
G|1------1------1------1-----|1------1------1------1-----|
D|0------0------0------0-----|0------0------0------0-----|
A|2------2------2------2-----|2------2------2------2-----|
E|0------0------0------0-----|0------0------0------0-----|
      Kansas city               gonna get my babe one time
e|------ ------ ------ ------|------ ------ ------ ------|
B|---------------------------|---------------------------|
G|1------2----/-4------2-----|1------2----/-4------2-----|
D|0------0------0------0-----|0------0------0------0-----|
A|2------4----/-5------4-----|2------4----/-5------4-----|
E|0------0------0------0-----|0------0------0------0-----|



                              E7
e|0----- 0----- 0----- 0-----|0---0- 0---0- 0---0- 0---0-|
B|0------2------3------2-----|3---3--3---3--3---3--3---3-|
G|1------1------1------1-----|1---1--1---1--1---1--1---1-|
D|0------0------0------0-----|0---0--0---0--0---0--0---0-|
A|2------2------2------2-----|2---2--2---2--2---2--2---2-|
E|0------0------0------0-----|0---0--0---0--0---0--0---0-|
                     a-Yeah, yeah               I'm gonna  
e|------ ------ ------ ------|------ ------ ------ ------|
B|---------------------------|---------------------------|
G|1------2----/-4------2-----|1------2----/-4------2-----|
D|0------0------0------0-----|0------0------0------0-----|
A|2------4----/-5------4-----|2------4----/-5------4-----|
E|0------0------0------0-----|0------0------0------0-----|




  A7     A13    A7     A13
e|0----- 2----- 3----- 2-----|0----- 2----- 3----- 2-----|
B|2------2------2------2-----|2------2------2------2-----|
G|0------0------0------0-----|0------0------0------0-----|
D|2------2------2------2-----|2------2------2------2-----|
A|0------0------0------0-----|0------0------0------0-----|
E|---------------------------|---------------------------|
     Kansas city               Gonna  get  my  baby one time           
e|------ ------ ------ ------|------ ------ ------ ------|
B|2------3----/-5------3-----|2------3----/-5------3-----|
G|0------0------0------0-----|0------0------0------0-----|
D|2------4----/-5------4-----|2------4----/-5------4-----|
A|0------0------0------0-----|0------0------0------0-----|
E|---------------------------|---------------------------|



  E7     E13    E7     E13    
e|0----- 0----- 0----- 0-----|0----- 0----- 0----- 0-----|
B|0------2------3------2-----|0------2------3------2-----|
G|1------1------1------1-----|1------1------1------1-----|
D|0------0------0------0-----|0------0------0------0-----|
A|2------2------2------2-----|2------2------2------2-----|
E|0------0------0------0-----|0------0------0------0-----|
                     a-Yeah, yeah              It's just a
e|------ ------ ------ ------|------ ------ ------ ------|
B|---------------------------|---------------------------|
G|1------2----/-4------2-----|1------2----/-4------2-----|
D|0------0------0------0-----|0------0------0------0-----|
A|2------4----/-5------4-----|2------4----/-5------4-----|
E|0------0------0------0-----|0------0------0------0-----|



  B7     B13    B7     B13    A7     A13    A7     A13
e|2---2- 4----- 5----- 4-----|0---0- 2----- 3----- 2-----|
B|4---4--4------4------4-----|2---2--2------2------2-----|
G|2---2--2------2------2-----|0---0--0------0------0-----|
D|4---4--4------4------4-----|2---2--2------2------2-----|
A|2---2--2------2------2-----|0---0--0------0------0-----|
E|---------------------------|---------------------------|
  one  two  three  four        five   six  seven eight nine
e|------ ------ ------ ------|------ ------ ------ ------|
B|4------5----/-7------5-----|2------3----/-5------3-----|
G|4------4----/-8------4-----|0------0------0------0-----|
D|4------6----/-7------6-----|2------4----/-5------4-----|
A|---------------------------|0------0------0------0-----|
E|---------------------------|---------------------------|



  E7     E13    E7     E13        A6 Bb6 B6
e|0----- 0----- 0----- 0-----|0---2- 3---4- ------ ------|
B|0------2------3------2-----|0---2--3---4---------------|
G|1------1------1------1-----|1---2--3---4---------------|
D|0------0------0------0-----|0--------------------------|
A|2------2------2------2-----|2--------------------------|
E|0------0------0------0-----|0--------------------------|
  
e|------ ------ ------ ------|------ ------ ------ ------|
B|---------------------------|---------------------------|
G|1------2----/-4------2-----|1---2--3---4---------------|
D|0------0------0------0-----|0---2--3---4---------------|
A|2------4----/-5------4-----|2---0--1---2---------------|
E|0------0------0------0-----|0--------------------------|


  Solo

  E7
e|------ ------ 0----- ------|------ ------ ------ ------|
B|0--------------------------|---------------------------|
G|----3--------------3B4-----|2------2P0----0------------|
D|---------------------------|-----------2------2------2-|
A|---------------------------|---------------------------|
E|---------------------------|---------------------------|
  
e|------ ------ ------ ------|----0- ----0- ------ ------|
B|---------------------------|--0------0-----------------|
G|0------2-B-4--4-R-2--0-----|3------3------4\2----0-----|
D|---------------------------|-------------------------2-|
A|---------------------------|---------------------------|
E|---------------------------|---------------------------|
  A7
e|------ ------ ------ ------|------ ------ ------ ------|
B|---------------------------|-------0-------------------|
G|--------------0------------|2-B-4------4-R-2--0--------|
D|-----------2------2--------|---------------------2-----|
A|---------------------------|---------------------------|
E|---------------------------|---------------------------|
  E7
e|0----- ------ ------ ------|------ 7----- ----3- 0-----|
B|-----------8--10B11--11R10-|10B12-------------2--------|
G|-----/-9-------------------|---------------------------|
D|---------------------------|---------------------------|
A|---------------------------|---------------------------|
E|---------------------------|---------------------------|
  B7                          A7
e|0----- ----0- ------ ------|0----- ----0- ------ ------|
B|0----------0---------------|0----------0---------------|
G|-----2B4------4\2----0-----|-----2B4------4------4R2--2P
D|---------------------------|---------------------------|
A|---------------------------|---------------------------|
E|---------------------------|---------------------------|
  E7                          B7
e|------ ------ ------ ------|------ ------ ------ ------|
B|---------------------------|---------------------------|
G|0--------------------------|---------------------------|
D|----2--0------0----------1-|---------------------------|
A|-----------2---------4-----|2--------------------------|
E|---------------------------|---------------------------|
                                     Hey    hey    hey


  E7     E13    E7     E13
e|0----- 0----- 0----- 0-----|0----- 0----- 0----- 0-----|
B|0------2------3------2-----|0------2------3------2-----|
G|1------1------1------1-----|1------1------1------1-----|
D|0------0------0------0-----|0------0------0------0-----|
A|2------2------2------2-----|2------2------2------2-----|
E|0------0------0------0-----|0------0------0------0-----|
   hey                                   Hey,         baby
        (Hey    hey    hey    hey)       
e|------ ------ ------ ------|------ ------ ------ ------|
B|---------------------------|---------------------------|
G|1------2----/-4------2-----|1------2----/-4------2-----|
D|0------0------0------0-----|0------0------0------0-----|
A|2------4----/-5------4-----|2------4----/-5------4-----|
E|0------0------0------0-----|0------0------0------0-----|

 


e|0----- 0----- 0----- 0-----|0----- 0----- 0----- 0-----|
B|0------2------3------2-----|0------2------3------2-----|
G|1------1------1------1-----|1------1------1------1-----|
D|0------0------0------0-----|0------0------0------0-----|
A|2------2------2------2-----|2------2------2------2-----|
E|0------0------0------0-----|0------0------0------0-----|
                                         Oooh      now  gal
                (Hey,         baby) 
e|------ ------ ------ ------|------ ------ ------ ------|
B|---------------------------|---------------------------|
G|1------2----/-4------2-----|1------2----/-4------2-----|
D|0------0------0------0-----|0------0------0------0-----|
A|2------4----/-5------4-----|2------4----/-5------4-----|
E|0------0------0------0-----|0------0------0------0-----|



  A7     A13    A7     A13
e|0----- 2----- 3----- 2-----|0----- 2----- 3----- 2-----|
B|2------2------2------2-----|2------2------2------2-----|
G|0------0------0------0-----|0------0------0------0-----|
D|2------2------2------2-----|2------2------2------2-----|
A|0------0------0------0-----|0------0------0------0-----|
E|---------------------------|---------------------------|
                                 I     said yeah  now  pal 
               (Well      gal)         
e|------ ------ ------ ------|------ ------ ------ ------|
B|2------3----/-5------3-----|2------3----/-5------3-----|
G|0------0------0------0-----|0------0------0------0-----|
D|2------4----/-5------4-----|2------4----/-5------4-----|
A|0------0------0------0-----|0------0------0------0-----|
E|---------------------------|---------------------------|



  E7     E13    E7     E13
e|0----- 0----- 0----- 0-----|0----- 0----- 0----- 0-----|
B|0------2------3------2-----|0------2------3------2-----|
G|1------1------1------1-----|1------1------1------1-----|
D|0------0------0------0-----|0------0------0------0-----|
A|2------2------2------2-----|2------2------2------2-----|
E|0------0------0------0-----|0------0------0------0-----|
                                  No    no   no   no   tell 
               (Well,     pal)
e|------ ------ ------ ------|------ ------ ------ ------|
B|---------------------------|---------------------------|
G|1------2----/-4------2-----|1------2----/-4------2-----|
D|0------0------0------0-----|0------0------0------0-----|
A|2------4----/-5------4-----|2------4----/-5------4-----|
E|0------0------0------0-----|0------0------0------0-----|



  B7     B13    B7     B13    A7     A13    A7     A13
e|2---2- 4----- 5----- 4-----|0---0- 2----- 3----- 2-----|
B|4---4--4------4------4-----|2---2--2------2------2-----|
G|2---2--2------2------2-----|0---0--0------0------0-----|
D|4---4--4------4------4-----|2---2--2------2------2-----|
A|2---2--2------2------2-----|0---0--0------0------0-----|
E|---------------------------|---------------------------|
     me  baby                    What's been wrong with you?
e|------ ------ ------ ------|------ ------ ------ ------|
B|4------5----/-7------5-----|2------3----/-5------3-----|
G|4------4----/-8------4-----|0------0------0------0-----|
D|4------6----/-7------6-----|2------4----/-5------4-----|
A|---------------------------|0------0------0------0-----|
E|---------------------------|---------------------------|
  


  E7     E13    E7     E13    E7                     
e|0----- 0----- 0----- 0-----|0----- ------ ------ ------|
B|0------2------3------2-----|3--------------------------|
G|1------1------1------1-----|1--------------------------|
D|0------0------0------0-----|0--------------------------|
A|2------2------2------2-----|2--------------------------|
E|0------0------0------0-----|0--------------------------|
                                   a-Hey    hey    hey         
e|------ ------ ------ ------|------ ------ ------ ------|
B|---------------------------|---------------------------|
G|1------2----/-4------2-----|1--------------------------|
D|0------0------0------0-----|0--------------------------|
A|2------4----/-5------4-----|2--------------------------|
E|0------0------0------0-----|0--------------------------|         



  E7     E13    E7     E13
e|0----- 0----- 0----- 0-----|0----- 0----- 0----- 0-----|
B|0------2------3------2-----|0------2------3------2-----|
G|1------1------1------1-----|1------1------1------1-----|
D|0------0------0------0-----|0------0------0------0-----|
A|2------2------2------2-----|2------2------2------2-----|
E|0------0------0------0-----|0------0------0------0-----|
   hey                                       Hey   now 
        (Hey    hey    hey    hey)                 
e|------ ------ ------ ------|------ ------ ------ ------|
B|---------------------------|---------------------------|
G|1------2----/-4------2-----|1------2----/-4------2-----|
D|0------0------0------0-----|0------0------0------0-----|
A|2------4----/-5------4-----|2------4----/-5------4-----|
E|0------0------0------0-----|0------0------0------0-----|

 


e|0----- 0----- 0----- 0-----|0----- 0----- 0----- 0-----|
B|0------2------3------2-----|0------2------3------2-----|
G|1------1------1------1-----|1------1------1------1-----|
D|0------0------0------0-----|0------0------0------0-----|
A|2------2------2------2-----|2------2------2------2-----|
E|0------0------0------0-----|0------0------0------0-----|
   baby                                  Ooooh     now gal  
                (Hey,     baby)                            
e|------ ------ ------ ------|------ ------ ------ ------|
B|---------------------------|---------------------------|
G|1------2----/-4------2-----|1------2----/-4------2-----|
D|0------0------0------0-----|0------0------0------0-----|
A|2------4----/-5------4-----|2------4----/-5------4-----|
E|0------0------0------0-----|0------0------0------0-----|



  A7     A13    A7     A13
e|0----- 2----- 3----- 2-----|0----- 2----- 3----- 2-----|
B|2------2------2------2-----|2------2------2------2-----|
G|0------0------0------0-----|0------0------0------0-----|
D|2------2------2------2-----|2------2------2------2-----|
A|0------0------0------0-----|0------0------0------0-----|
E|---------------------------|---------------------------|
                                I     said  yeah  now, 
                (Well,     gal)               
e|------ ------ ------ ------|------ ------ ------ ------|
B|2------3----/-5------3-----|2------3----/-5------3-----|
G|0------0------0------0-----|0------0------0------0-----|
D|2------4----/-5------4-----|2------4----/-5------4-----|
A|0------0------0------0-----|0------0------0------0-----|
E|---------------------------|---------------------------|



  E7     E13    E7     E13
e|0----- 0----- 0----- 0-----|0----- 0----- 0----- 0-----|
B|0------2------3------2-----|0------2------3------2-----|
G|1------1------1------1-----|1------1------1------1-----|
D|0------0------0------0-----|0------0------0------0-----|
A|2------2------2------2-----|2------2------2------2-----|
E|0------0------0------0-----|0------0------0------0-----|
     pal                          No     no   no  no  tell
                (Well,     pal)
e|------ ------ ------ ------|------ ------ ------ ------|
B|---------------------------|---------------------------|
G|1------2----/-4------2-----|1------2----/-4------2-----|
D|0------0------0------0-----|0------0------0------0-----|
A|2------4----/-5------4-----|2------4----/-5------4-----|
E|0------0------0------0-----|0------0------0------0-----|



  B7     B13    B7     B13    A7     A13    A7     A13
e|2---2- 4----- 5----- 4-----|0---0- 2----- 3----- 2-----|
B|4---4--4------4------4-----|2---2--2------2------2-----|
G|2---2--2------2------2-----|0---0--0------0------0-----|
D|4---4--4------4------4-----|2---2--2------2------2-----|
A|2---2--2------2------2-----|0---0--0------0------0-----|
E|---------------------------|---------------------------|
    me,  baby,                  What's been wrong  with you?
e|------ ------ ------ ------|------ ------ ------ ------|
B|4------5----/-7------5-----|2------3----/-5------3-----|
G|4------4----/-8------4-----|0------0------0------0-----|
D|4------6----/-7------6-----|2------4----/-5------4-----|
A|---------------------------|0------0------0------0-----|
E|---------------------------|---------------------------|
  


  E7     E13    E7     E13    B7
e|0----- 0----- 0----- 0-----|------ ------ ------ ------|
B|0------2------3------2-----|0---0--0---0--0---0--0---0-|
G|1------1------1------1-----|2---2--2---2--2---2--2---2-|
D|0------0------0------0-----|1---1--1---1--1---1--1---1-|
A|2------2------2------2-----|2---2--2---2--2---2--2---2-|
E|0------0------0------0-----|---------------------------|
                                         Well,  I  say  bye                   
e|------ ------ ------ ------|------ ------ ------ ------|
B|---------------------------|4------5----/-7------5-----|
G|1------2----/-4------2-----|4------4----/-8------4-----|  
D|0------0------0------0-----|4------6----/-7------6-----|
A|2------4----/-5------4-----|---------------------------|
E|0------0------0------0-----|---------------------------|  



  E7     E13    E7     E13
e|0----- 0----- 0----- 0-----|0----- 0----- 0----- 0-----|
B|0------2------3------2-----|0------2------3------2-----|
G|1------1------1------1-----|1------1------1------1-----|
D|0------0------0------0-----|0------0------0------0-----|
A|2------2------2------2-----|2------2------2------2-----|
E|0------0------0------0-----|0------0------0------0-----|
                                 Bye bye,   baby,  bye bye
        (Bye bye,     bye bye,       bye bye)
e|------ ------ ------ ------|------ ------ ------ ------|
B|---------------------------|---------------------------|
G|1------2----/-4------2-----|1------2----/-4------2-----|
D|0------0------0------0-----|0------0------0------0-----|
A|2------4----/-5------4-----|2------4----/-5------4-----|
E|0------0------0------0-----|0------0------0------0-----|

 


e|0----- 0----- 0----- 0-----|0----- 0----- 0----- 0-----|
B|0------2------3------2-----|0------2------3------2-----|
G|1------1------1------1-----|1------1------1------1-----|
D|0------0------0------0-----|0------0------0------0-----|
A|2------2------2------2-----|2------2------2------2-----|
E|0------0------0------0-----|0------0------0------0-----|
                                 Ooooh         So     long
        (Bye bye,      bye bye,      bye bye)                                             
e|------ ------ ------ ------|------ ------ ------ ------|
B|---------------------------|---------------------------|
G|1------2----/-4------2-----|1------2----/-4------2-----|
D|0------0------0------0-----|0------0------0------0-----|
A|2------4----/-5------4-----|2------4----/-5------4-----|
E|0------0------0------0-----|0------0------0------0-----|



  A7     A13    A7     A13
e|0----- 2----- 3----- 2-----|0----- 2----- 3----- 2-----|
B|2------2------2------2-----|2------2------2------2-----|
G|0------0------0------0-----|0------0------0------0-----|
D|2------2------2------2-----|2------2------2------2-----|
A|0------0------0------0-----|0------0------0------0-----|
E|---------------------------|---------------------------|
                                 Bye bye,   baby  I'm  
        (So long,      so long,      so long)                      
e|------ ------ ------ ------|------ ------ ------ ------|
B|2------3----/-5------3-----|2------3----/-5------3-----|
G|0------0------0------0-----|0------0------0------0-----|
D|2------4----/-5------4-----|2------4----/-5------4-----|
A|0------0------0------0-----|0------0------0------0-----|
E|---------------------------|---------------------------|



  E7     E13    E7     E13
e|0----- 0----- 0----- 0-----|0----- 0----- 0----- 0-----|
B|0------2------3------2-----|0------2------3------2-----|
G|1------1------1------1-----|1------1------1------1-----|
D|0------0------0------0-----|0------0------0------0-----|
A|2------2------2------2-----|2------2------2------2-----|
E|0------0------0------0-----|0------0------0------0-----|
   gone                          Yeah           I     say 
        (Bye bye,      bye bye,      bye bye
e|------ ------ ------ ------|------ ------ ------ ------|
B|---------------------------|---------------------------|
G|1------2----/-4------2-----|1------2----/-4------2-----|
D|0------0------0------0-----|0------0------0------0-----|
A|2------4----/-5------4-----|2------4----/-5------4-----|
E|0------0------0------0-----|0------0------0------0-----|



  B7     B13    B7     B13    A7     A13    A7     A13
e|2---2- 4----- 5----- 4-----|0---0- 2----- 3----- 2-----|
B|4---4--4------4------4-----|2---2--2------2------2-----|
G|2---2--2------2------2-----|0---0--0------0------0-----|
D|4---4--4------4------4-----|2---2--2------2------2-----|
A|2---2--2------2------2-----|0---0--0------0------0-----|
E|---------------------------|---------------------------|
  bye bye,         baby                  bye          bye                       
e|------ ------ ------ ------|------ ------ ------ ------|
B|4------5----/-7------5-----|2------3----/-5------3-----|
G|4------4----/-8------4-----|0------0------0------0-----|
D|4------6----/-7------6-----|2------4----/-5------4-----|
A|---------------------------|0------0------0------0-----|
E|---------------------------|---------------------------|
  


  E7     E13    E7     E13    B7
e|0----- 0----- 0----- 0-----|------ ------ ------ ------|
B|0------2------3------2-----|0---0--0---0--0---0--0---0-|
G|1------1------1------1-----|2---2--2---2--2---2--2---2-|
D|0------0------0------0-----|1---1--1---1--1---1--1---1-|
A|2------2------2------2-----|2---2--2---2--2---2--2---2-|
E|0------0------0------0-----|---------------------------|
             bye          bye           bye    now    bye  
e|------ ------ ------ ------|------ ------ ------ ------|
B|---------------------------|4------5----/-7------5-----|
G|1------2----/-4------2-----|4------4----/-8------4-----|
D|0------0------0------0-----|4------6----/-7------6-----|
A|2------4----/-5------4-----|---------------------------|  
E|0------0------0------0-----|---------------------------|



  E7     E13    E7     E13
e|0----- 0----- 0----- 0-----|0----- 0----- 0----- 0-----|
B|0------2------3------2-----|0------2------3------2-----|
G|1------1------1------1-----|1------1------1------1-----|
D|0------0------0------0-----|0------0------0------0-----|
A|2------2------2------2-----|2------2------2------2-----|
E|0------0------0------0-----|0------0------0------0-----|
                                  Bye bye,  baby,  bye bye
        (Bye bye,     bye bye,       bye bye)
e|------ ------ ------ ------|------ ------ ------ ------|
B|---------------------------|---------------------------|
G|1------2----/-4------2-----|1------2----/-4------2-----|
D|0------0------0------0-----|0------0------0------0-----|
A|2------4----/-5------4-----|2------4----/-5------4-----|
E|0------0------0------0-----|0------0------0------0-----|
  .........................Fade..........................
 
           

e|0----- 0----- 0----- 0-----|0----- 0----- 0----- 0-----|
B|0------2------3------2-----|0------2------3------2-----|
G|1------1------1------1-----|1------1------1------1-----|
D|0------0------0------0-----|0------0------0------0-----|
A|2------2------2------2-----|2------2------2------2-----|
E|0------0------0------0-----|0------0------0------0-----|
                                 Ooooh         So     long
        (Bye bye,      bye bye,      bye bye)                                             
e|------ ------ ------ ------|------ ------ ------ ------|
B|---------------------------|---------------------------|
G|1------2----/-4------2-----|1------2----/-4------2-----|
D|0------0------0------0-----|0------0------0------0-----|
A|2------4----/-5------4-----|2------4----/-5------4-----|
E|0------0------0------0-----|0------0------0------0-----|
  .......................................................

  




        B  Bend
        R  Release
        /  slide up
        \  slide down
        H  hammer-on
        P  pull-off
        ~  vibrato
        +  harmonic
        x  Mute note
        . - play note like a dot in standard notation
        ^ - ties two notes together
        (. Pause

      


  -----------------------------------------------------------

  THE BEATLES - EIGHT DAYS A WEEK  (Lennon & McCartney)  From 
                BEATLES FOR SALE album. Released December 4th 
                1964. 

  -----------------------------------------------------------

  Tabbed by:PJVillanueva

                                     
  

  Ooooh I need your love babe,
  Guess you know it's true.
  Hope you need my love babe,
  Just like I need you.
  Hold me, love me, hold me, love me.
  Ain't got nothin'but love babe,
  Eight days a week.
  *
  Love you ev'ry day girl,
  Always on my mind.
  One thing I can say girl,
  Love you all the time.
  Hold me, love me, hold me, love me.
  Ain't got nothin'but love babe,
  Eight days a week.

  Eight days a week
  I love you.
  Eight days a week
  Is not enough to show I care *

  Eight days a week. Eight days a week. Eight days a week.




  12/8 Time


  Intro
  D               D6   D      E               E6/D E
e|5----- ----5- 5H7--- 5-----|7----- ----7- 7H9--- 7-----|
B|7----------7--7------7-----|9----------9--9------9-----|
G|7----------7--7------7-----|9----------9--9------9-----|
D|0----------0--0------0-----|0----------0--0------0-----|
A|---------------------------|---------------------------|
E|---------------------------|---------------------------|
  .......................Fade in.........................
e|0----- ----0- 0----- 0-----|0----- ----0- 0----- 0-----|
B|3----------3--3------3-----|0----------0--0------0-----|
G|2----------2--2------2-----|1----------1--1------1-----|
D|0----------0--0------0-----|0----------0--0------0-----|
A|---------------------------|---------------------------|
E|---------------------------|---------------------------|



  G                G6/D G     D               D6   D  
e|10---- ----10 10H12- 10----|5----- ----5- 5H7--- 5-----|
B|12---------12-12-----12----|7----------7--7------7-----|
G|12---------12-12-----12----|7----------7--7------7-----|
D|-0----------0--0------0----|0----------0--0------0-----|
A|---------------------------|---------------------------|
E|---------------------------|---------------------------|
 
e|0----- ----0- 0----- 0-----|0----- ----0- 0----- 0-----|
B|3----------3--3------3-----|3----------3--3------3-----|
G|0----------0--0------0-----|2----------2--2------2-----|
D|0----------0--0------0-----|0----------0--0------0-----|
A|---------------------------|---------------------------|
E|---------------------------|---------------------------|


  Verse

  D                           E                        G
e|2----- 2----- 2----- 2-----|0----- 0----- 0---0- 0---3-|
B|3------3------3------3-----|0------0------0---0--0---3-|
G|2------2------2------2-----|1------1------1---1--1---0-|
D|0------0------0------0-----|2------2------2---2--2---0-|
A|---------------------------|2------2------2---2--2---2-|
E|---------------------------|0------0------0---0--0---3-|
  Oooh   I      need   your   love,     babe,
e|------ ------ ----2- ------|------ 0----- ----0- ------|
B|------------------3--------|-------0----------0--------|
G|------------------2--------|-------1----------1--------|
D|---------------------------|---------------------------|
A|---------------------------|---------------------------|
E|---------------------------|---------------------------|


                              D
e|3----- 3----- 3----- 3-----|2----- 2----- 2---2- 2---2-|
B|3------3------3------3-----|3------3------3---3--3---3-|
G|0------0------0------0-----|2------2------2---2--2---2-|
D|0------0------0------0-----|0------0------0------0-----|
A|2------2------2------2-----|---------------------------|
E|3------3------3------3-----|---------------------------|
  Guess  you    know   it's true.
e|------ 3----- ----3- ----3-|------ 2----- ----2- ------|
B|-------3----------3------3-|-------3----------3------3-|
G|-------4----------4------4-|-------2----------2------2-|
D|---------------------------|---------------------------|
A|---------------------------|---------------------------|
E|---------------------------|---------------------------|


  D                           E
e|2----- 2----- 2----- 2-----|0----- 0---0- 0----- 0-----|
B|3------3------3------3-----|0------0---0--0------0-----|
G|2------2------2------2-----|1------1---1--1------1-----|
D|0------0------0------0-----|2------2---2--2------2-----|
A|---------------------------|2------2---2--2------2-----|
E|---------------------------|0------0---0--0------0-----|
  Hope   you    need   my     love,      babe,
e|------ 2----- ----2- ------|------ 0----- ----0- ------|
B|-------3----------3------0-|-------0----------0------0-|
G|-------2----------2------1-|-------1----------1------1-|
D|---------------------------|---------------------------|
A|---------------------------|---------------------------|
E|---------------------------|---------------------------|


  G                           D
e|3----- 3----- 3----- 3-----|2----- 2----- 2---2- 2-----|
B|3------3------3------3-----|3------3------3---3--3-----|
G|0------0------0------0-----|2------2------2---2--2-----|
D|0------0------0------0-----|0------0------0---0--0-----|
A|2------2------2------2-----|---------------------------|
E|3------3------3------3-----|---------------------------|
  just   like   I      need you
e|------ 3----- ----3- ----3-|------ 2----- ----2- ------|
B|-------3----------3------3-|-------3----------3--------|
G|-------4----------4------4-|-------2----------2--------|
D|---------------------------|---------------------------|
A|---------------------------|---------------------------|
E|---------------------------|---------------------------|


  Bm                          G 
e|2----- ----2- ----2- 2---2-|3----- ----3- ----3- 3-----|
B|3----------3------3--3---3-|3----------3------3--3-----|
G|4----------4------4--4---4-|0----------0------0--0-----|
D|4----------4------4--4---4-|0----------0------0--0-----|
A|2----------2------2--2---2-|2----------2------2--2-----|
E|---------------------------|3----------3------3--3-----|
  Hold      me                Love      me


  Bm                       E
e|2----- ----2- ----2- 2---0-|0----- 0---0- ----0- 0-----|
B|3----------3------3--3---0-|0------0---0------0--0-----|
G|4----------4------4--4---1-|1------1---1------1--1-----|
D|4----------4------4--5---2-|2------2---2------2--2-----|
A|2----------2------2--2---2-|2------2---2------2--2-----|
E|-------------------------0-|0------0---0------0--0-----|
   Hold      me                Love      me           ain't


  D                           E
e|2----- 2----- 2---2- 2-----|0----- 0---0- 0---0- 0-----|
B|3------3------3---3--3-----|0------0---0--0---0--0-----|
G|2------2------2---2--2-----|1------1---1--1---1--1-----|
D|0------0------0---0--0-----|2------2---2--2---2--2-----|
A|---------------------------|2------2---2--2---2--2-----|
E|---------------------------|0------0---0--0---0--0-----|
         got    nothing but   love,     babe,
e|------ 2----- ----2- ----0-|------ 0----- ----0- ----0-|
B|-------3----------3------0-|-------0----------0------0-|
G|-------2----------2------1-|-------1----------1------1-|
D|---------------------------|---------------------------|
A|---------------------------|---------------------------|
E|---------------------------|---------------------------|


  G                           D
e|3----- 3----- 3----- 3-----|2----- 2---2- 2---2- 2-----|
B|3------3------3------3-----|3------3---3--3---3--3-----|
G|0------0------0------0-----|2------2---2--2---2--2-----|
D|0------0------0------0-----|0------0---0--0---0--0-----|
A|2------2------2------2-----|---------------------------|
E|3------3------3------3-----|---------------------------|
         eight   days     a   week
e|------ 3----- ----3- ----3-|------ 2----- ----2- ----2-|
B|-------3----------3------3-|-------3----------3------3-|
G|-------4----------4------4-|-------2----------2------2-|
D|---------------------------|---------------------------|
A|---------------------------|---------------------------|
E|---------------------------|---------------------------|


  Verse

  D                           E                        G
e|2----- 2---2- 2----- 2---2-|0----- 0---0- 0---0- 0-----|
B|3------3---3--3------3---3-|0------0---0--0---0--0-----|
G|2------2---2--2------2---2-|1------1---1--1---1--1-----|
D|0------0---0--0------0---0-|2------2---2--2---2--2-----|
A|---------------------------|2------2---2--2---2--2-----|
E|---------------------------|0------0---0--0---0--0-----|
  Love   you    ev'....ry  day,         girl
e|------ 2----- ----2- ----2-|------ 0----- ----0- ----0-|
B|-------3----------3------3-|-------0----------0------0-|
G|-------2----------2------2-|-------1----------1------1-|
D|---------------------------|---------------------------|
A|---------------------------|---------------------------|
E|---------------------------|---------------------------|


                              D
e|3----- 3----- 3----- 3-----|2----- 2----- 2---2- 2---2-|
B|3------3------3------3-----|3------3------3---3--3---3-|
G|0------0------0------0-----|2------2------2---2--2---2-|
D|0------0------0------0-----|0------0------0---0--0---0-|
A|2------2------2------2-----|---------------------------|
E|3------3------3------3-----|---------------------------|
  Always        on     my  mind
e|------ 3----- ----3- ----3-|------ 2----- ----2- ----2-|
B|-------3----------3------3-|-------3----------3------3-|
G|-------4----------4------4-|-------2----------2------2-|
D|---------------------------|---------------------------|
A|---------------------------|---------------------------|
E|---------------------------|---------------------------|


  D                        E                        
e|2----- 2----- 2---2- 2---0-|0----- 0----- 0---0- 0-----|
B|3------3------3---3--3---0-|0------0------0---0--0-----|
G|2------2------2---2--2---1-|1------1------1---1--1-----|
D|0------0------0---0--0---2-|2------2------2---2--2-----|
A|-------------------------2-|2------2------2---2--2-----|
E|-------------------------0-|0------0------0---0--0-----|
  One    thing  I      can    say,      girl
e|------ 2----- ----2- ----2-|------ 0----- ----0- ----0-|
B|-------3----------3------3-|-------0----------0------0-|
G|-------2----------2------2-|-------1----------1------1-|
D|---------------------------|---------------------------|
A|---------------------------|---------------------------|
E|---------------------------|---------------------------|


  G                           D
e|3----- 3----- 3----- 3-----|2----- 2----- 2---2- 2---2-|
B|3------3------3------3-----|3------3------3---3--3---3-|
G|0------0------0------0-----|2------2------2---2--2---2-|
D|0------0------0------0-----|0------0------0---0--0---0-|
A|2------2------2------2-----|---------------------------|
E|3------3------3------3-----|---------------------------|
  Love   you    all    the time
e|------ 3----- ----3- ----3-|------ 2----- ----2- ------|
B|-------3----------3------3-|-------3----------3--------|
G|-------4----------4------4-|-------2----------2--------|
D|---------------------------|---------------------------|
A|---------------------------|---------------------------|
E|---------------------------|---------------------------|


  Bm                          G 
e|2----- ----2- ----2- 2---2-|3----- ----3- ----3- 3-----|
B|3----------3------3--3---3-|3----------3------3--3-----|
G|4----------4------4--4---4-|0----------0------0--0-----|
D|4----------4------4--4---4-|0----------0------0--0-----|
A|2----------2------2--2---2-|2----------2------2--2-----|
E|---------------------------|3----------3------3--3-----|
  Hold      me                Love      me


  Bm                       E
e|2----- ----2- ----2- 2---0-|0----- 0---0- 0---0- 0-----|
B|3----------3------3--3---0-|0------0---0--0---0--0-----|
G|4----------4------4--4---1-|1------1---1--1---1--1-----|
D|4----------4------4--5---2-|2------2---2--2---2--2-----|
A|2----------2------2--2---2-|2------2---2--2---2--2-----|
E|-------------------------0-|0------0---0--0---0--0-----|
   Hold      me                Love      me           ain't


  D                           E
e|2----- 2----- 2----- 2-----|0----- 0---0- 0----- 0-----|
B|3------3------3------3-----|0------0---0--0------0-----|
G|2------2------2------2-----|1------1---1--1------1-----|
D|0------0------0------0-----|2------2---2--2------2-----|
A|---------------------------|2------2---2--2------2-----|
E|---------------------------|0------0---0--0------0-----|
         got    nothing but   love,     girl,
e|------ 2----- ----2- ----0-|------ 0----- ----0- ----0-|
B|-------3----------3------0-|-------0----------0------3-|
G|-------2----------2------1-|-------1----------1------1-|
D|---------------------------|---------------------------|
A|---------------------------|---------------------------|
E|---------------------------|---------------------------|


  G                           D
e|3----- 3----- 3----- 3-----|2----- 2---2- 2----- 2-----|
B|3------3------3------3-----|3------3---3--3------3-----|
G|0------0------0------0-----|2------2---2--2------2-----|
D|0------0------0------0-----|0------0---0--0------0-----|
A|2------2------2------2-----|---------------------------|
E|3------3------3------3-----|---------------------------|
         eight   days     a   week
e|------ 3----- ----3- ----2-|------ 2----- ----2- ------|
B|-------3----------3------3-|-------3----------3--------|
G|-------4----------4------2-|-------2----------2--------|
D|---------------------------|---------------------------|
A|---------------------------|---------------------------|
E|---------------------------|---------------------------|


  Middle eight

  A
e|0----- 0---0- 0----- 0-----|0----- 0----- 0---0- 0-----|
B|2------2---2--2------2-----|2------2------2---2--2-----|
G|2------2---2--2------2-----|2------2------2---2--2-----|
D|2------2---2--2------2-----|2------2------2---2--2-----|
A|0------0---0--0------0-----|0------0------0---0--0-----|
E|---------------------------|---------------------------|
  Eight          days      a  week                     I


  Bm
e|2----- ------ ------ ------|------ ------ ----2- 2---0-|
B|3--------------------------|------------------3--3---0-|
G|4--------------------------|------------------4--4---1-|
D|4--------------------------|------------------4--4---2-|
A|2--------------------------|------------------2--2---2-|
E|---------------------------|-------------------------0-|
  lo..........................ve you

  E

e|0----- 0----- 0----- 0---0-|0----- 0----- 0---0- 0-----|
B|0------0------0------0---0-|0------0------0---0--0-----|
G|1------1------1------1---1-|1------1------1---1--1-----|
D|2------2------2------2---2-|2------2------2---2--2-----|
A|2------2------2------2---2-|2------2------2---2--2-----|
E|0------0------0------0---0-|0------0------0---0--0-----|
  Eight          days      a  week                     is


  G                           A
e|3----- 3---3- 3----- 3-----|0----- 0---0- 0----- 0-----|
B|3------3---3--3------3-----|2------2---2--2------2-----|
G|0------0---0--0------0-----|2------2---2--2------2-----|
D|0------0---0--0------0-----|2------2---2--2------2-----|
A|2------2---2--2------2-----|0------0---0--0------0-----|
E|3------3---3--3------3-----|---------------------------|
  not    enough        to     show I   care
e|------ ------ ------ ------|------ ------ ------ ----2-|
B|---------------------------|-------------------------3-|
G|---------------------------|-------------------------2-|
D|---------------------------|---------------------------|
A|---------------------------|---------------------------|
E|---------------------------|---------------------------|


  Verse

  D                        E                           
e|2----- 2----- 2----- 2---0-|0----- 0---0- 0----- 0-----|
B|3------3------3------3---0-|0------0---0--0------0-----|
G|2------2------2------2---1-|1------1---1--1------1-----|
D|0------0------0------0---2-|2------2---2--2------2-----|
A|-------------------------2-|2------2---2--2------2-----|
E|-------------------------0-|0------0---0--0------0-----|
  Oooh   I      need   your   love,     babe,
e|------ 2----- ------ ------|------ 0----- ----0- ----0-|
B|-------3----------3------3-|-------0----------0------3-|
G|-------2----------2------2-|-------1----------1------1-|
D|-------------------------4-|---------------------------|
A|---------------------------|---------------------------|
E|---------------------------|---------------------------|



                              D
e|3----- 3---3- 3----- 3-----|2----- 2----- 2---2- 2-----|
B|3------3---3--3------3-----|3------3------3---3--3-----|
G|0------0---0--0------0-----|2------2------2---2--2-----|
D|0------0---0--0------0-----|0------0------0------0-----|
A|2------2---2--2------2-----|---------------------------|
E|3------3---3--3------3-----|---------------------------|
  Guess  you    know   it's true.
e|------ 3----- ----3- ------|------ 2----- ----2- ----2-|
B|-------3----------3--------|-------3----------3------3-|
G|-------4----------4--------|-------2----------2------2-|
D|---------------------------|---------------------------|
A|---------------------------|---------------------------|
E|---------------------------|---------------------------|


  D                           E
e|2----- 2---2- 2----- 2-----|0----- 0---0- 0----- 0-----|
B|3------3---3--3------3-----|0------0---0--0------0-----|
G|2------2---2--2------2-----|1------1---1--1------1-----|
D|0------0---0--0------0-----|2------2---2--2------2-----|
A|---------------------------|2------2---2--2------2-----|
E|---------------------------|0------0---0--0------0-----|
  Hope   you    need   my     love,      babe,
e|------ 2----- ----2- ------|------ 0----- ----0- ----0-|
B|-------3----------3------0-|-------0----------0------0-|
G|-------2----------2------1-|-------1----------1------1-|
D|---------------------------|---------------------------|
A|---------------------------|---------------------------|
E|---------------------------|---------------------------|


  G                           D
e|3----- 3----- 3----- 3-----|2----- 2----- 2---2- 2-----|
B|3------3------3------3-----|3------3------3---3--3-----|
G|0------0------0------0-----|2------2------2---2--2-----|
D|0------0------0------0-----|0------0------0---0--0-----|
A|2------2------2------2-----|---------------------------|
E|3------3------3------3-----|---------------------------|
  just   like   I      need you
e|------ 3----- ----3- ----3-|------ 2----- ------ ------|
B|-------3----------3------3-|-------3-------------------|
G|-------4----------4------4-|-------2-------------------|
D|---------------------------|---------------------------|
A|---------------------------|---------------------------|
E|---------------------------|---------------------------|



  Bm                       G 
e|2----- ----2- ----2- 2---3-|3----- ----3- ----3- 3---3-|
B|3----------3------3--3---3-|3----------3------3--3---3-|
G|4----------4------4--4---0-|0----------0------0--0---0-|
D|4----------4------4--4---0-|0----------0------0--0---0-|
A|2----------2------2--2---2-|2----------2------2--2---2-|
E|-------------------------3-|3----------3------3--3---3-|
  Hold      me                Love      me


  Bm                       E
e|2----- 2---2- ----2- 2---0-|0----- ----0- ----0- 0---0-|
B|3------3---3------3--3---0-|0----------0------0--0---0-|
G|4------4---4------4--4---1-|1----------1------1--1---1-|
D|4------4---4------4--5---2-|2----------2------2--2---2-|
A|2------2---2------2--2---2-|2----------2------2--2---2-|
E|-------------------------0-|0----------0------0--0---0-|
   Hold      me                Love      me           ain't


  D                           E
e|2----- 2----- 2---2- 2-----|0----- 0---0- 0----- 0-----|
B|3------3------3---3--3-----|0------0---0--0------0-----|
G|2------2------2---2--2-----|1------1---1--1------1-----|
D|0------0------0---0--0-----|2------2---2--2------2-----|
A|---------------------------|2------2---2--2------2-----|
E|---------------------------|0------0---0--0------0-----|
         got    nothing but   love,     babe,
e|------ 2----- ----2- ----2-|------ 0----- ----0- ----0-|
B|-------3----------3------3-|-------0----------0------0-|
G|-------2----------2------2-|-------1----------1------1-|
D|---------------------------|---------------------------|
A|---------------------------|---------------------------|
E|---------------------------|---------------------------|


  G                           D
e|3----- 3----- 3---3- 3---3-|2----- 2---2- 2---2- 2-----|
B|3------3------3---3--3---3-|3------3---3--3---3--3-----|
G|0------0------0---0--0---0-|2------2---2--2---2--2-----|
D|0------0------0---0--0---0-|0------0---0--0---0--0-----|
A|2------2------2---2--2---2-|---------------------------|
E|3------3------3---3--3---3-|---------------------------|
         eight   days     a   week
e|------ 3----- ----3- ----3-|------ 2----- ----2- ----0-|
B|-------3----------3------3-|-------3----------3------2-|
G|-------4----------4------4-|-------2----------2------2-|
D|---------------------------|---------------------------|
A|---------------------------|---------------------------|
E|---------------------------|---------------------------|


  Middle eight

  A
e|0---0- 0----- 0----- 0-----|0----- 0----- 0----- 0-----|
B|2---2--2------2------2-----|2------2------2------2-----|
G|2---2--2------2------2-----|2------2------2------2-----|
D|2---2--2------2------2-----|2------2------2------2-----|
A|0---0--0------0------0-----|0------0------0------0-----|
E|---------------------------|---------------------------|
  Eight          days      a  week                     I


  Bm
e|2----- ------ ------ ------|------ ------ ----2- 2-----|
B|3--------------------------|------------------3--3-----|
G|4--------------------------|------------------4--4-----|
D|4--------------------------|------------------4--4-----|
A|2--------------------------|------------------2--2-----|
E|---------------------------|---------------------------|
  lo..........................ve you


  E
e|0----- 0----- 0----- 0---0-|0----- 0----- 0----- 0-----|
B|0------0------0------0---0-|0------0------0------0-----|
G|1------1------1------1---1-|1------1------1------1-----|
D|2------2------2------2---2-|2------2------2------2-----|
A|2------2------2------2---2-|2------2------2------2-----|
E|0------0------0------0---0-|0------0------0------0-----|
  Eight          days      a  week                     is
e|------ ------ ------ ------|------ ------ ----0- ------|
B|---------------------------|------------------0--------|
G|---------------------------|------------------1--------|
D|---------------------------|---------------------------|
A|---------------------------|---------------------------|
E|---------------------------|---------------------------|


  G                           A
e|3----- 3----- 3----- 3-----|0----- 0----- 0----- 0-----|
B|3------3------3------3-----|2------2------2------2-----|
G|0------0------0------0-----|2------2------2------2-----|
D|0------0------0------0-----|2------2------2------2-----|
A|2------2------2------2-----|0------0------0------0-----|
E|3------3------3------3-----|---------------------------|
  not    enough        to     show I   care
e|------ 3----- ----3- ----3-|------ 0----- ----0- ----0-|
B|-------3----------3------3-|-------2----------2------0-|
G|-------4----------4------4-|-------2----------2------2-|
D|---------------------------|---------------------------|
A|---------------------------|---------------------------|
E|---------------------------|---------------------------|


  Verse

  D                           E                        
e|2----- 2----- 2----- 2-----|0----- 0----- 0----- 0---0-|
B|3------3------3------3-----|0------0------0------0---0-|
G|2------2------2------2-----|1------1------1------1---1-|
D|0------0------0------0-----|2------2------2------2---2-|
A|---------------------------|2------2------2------2---2-|
E|---------------------------|0------0------0------0---0-|
  Love   you    ev'....ry  day,         girl
e|------ 2----- ----2- ----0-|------ 0----- ----0- ----0-|
B|-------3----------3------0-|-------0----------0------0-|
G|-------2----------2------1-|-------1----------1------1-|
D|---------------------------|---------------------------|
A|---------------------------|---------------------------|
E|---------------------------|---------------------------|


                              D
e|3----- 3----- 3----- 3---3-|2----- 2----- 2---2- 2-----|
B|3------3------3------3---3-|3------3------3---3--3-----|
G|0------0------0------0---0-|2------2------2---2--2-----|
D|0------0------0------0---0-|0------0------0---0--0-----|
A|2------2------2------2---2-|---------------------------|
E|3------3------3------3---3-|---------------------------|
  Always        on     my  mind
e|------ 3----- ----3- ----3-|------ 2----- ----2- ----2-|
B|-------3----------3------3-|-------3----------3------3-|
G|-------4----------4------4-|-------2----------2------2-|
D|---------------------------|---------------------------|
A|---------------------------|---------------------------|
E|---------------------------|---------------------------|


  D                           E                        
e|2----- 2----- 2---2- 2-----|0----- 0----- 0---0- 0-----|
B|3------3------3---3--3-----|0------0------0---0--0-----|
G|2------2------2---2--2-----|1------1------1---1--1-----|
D|0------0------0---0--0-----|2------2------2---2--2-----|
A|---------------------------|2------2------2---2--2-----|
E|---------------------------|0------0------0---0--0-----|
  One    thing  I      can    say,      girl
e|------ 2----- ----2- ----2-|------ 0----- ----0- ----0-|
B|-------3----------3------3-|-------0----------0------0-|
G|-------2----------2------2-|-------1----------1------1-|
D|---------------------------|---------------------------|
A|---------------------------|---------------------------|
E|---------------------------|---------------------------|


  G                           D
e|3----- 3---3- 3----- 3-----|2----- 2----- 2---2- 2-----|
B|3------3---3--3------3-----|3------3------3---3--3-----|
G|0------0---0--0------0-----|2------2------2---2--2-----|
D|0------0---0--0------0-----|0------0------0---0--0-----|
A|2------2---2--2------2-----|---------------------------|
E|3------3---3--3------3-----|---------------------------|
  Love   you    all    the time
e|------ 3----- ----3- ------|------ 2----- ----2- ------|
B|-------3----------3------3-|-------3----------3--------|
G|-------4----------4------4-|-------2----------2--------|
D|---------------------------|---------------------------|
A|---------------------------|---------------------------|
E|---------------------------|---------------------------|



  Bm                       G 
e|2----- ----2- ----2- 2---3-|3----- 3---3- ----3- 3---3-|
B|3----------3------3--3---3-|3------3---3------3--3---3-|
G|4----------4------4--4---0-|0------0---0------0--0---0-|
D|4----------4------4--4---0-|0------0---0------0--0---0-|
A|2----------2------2--2---2-|2------2---2------2--2---2-|
E|-------------------------3-|3------3---3------3--3---3-|
  Hold      me                Love      me


  Bm                       E
e|2----- 2---2- 2---2- 2---0-|0----- 0---0- 0---0- 0-----|
B|3------3---3--3---3--3---0-|0------0---0--0---0--0-----|
G|4------4---4--4---4--4---1-|1------1---1--1---1--1-----|
D|4------4---4--4---4--5---2-|2------2---2--2---2--2-----|
A|2------2---2--2---2--2---2-|2------2---2--2---2--2-----|
E|-------------------------0-|0------0---0--0---0--0-----|
   Hold      me                Love      me           ain't


  D                        E                           G
e|2----- 2----- 2---2- 2---0-|0----- 0---0- 0----- 0---3-|
B|3------3------3---3--3---0-|0------0---0--0------0---3-|
G|2------2------2---2--2---1-|1------1---1--1------1---0-|
D|0------0------0---0--0---2-|2------2---2--2------2---0-|
A|-------------------------2-|2------2---2--2------2---2-|
E|-------------------------0-|0------0---0--0------0---3-|
         got    nothing but   love,     babe,
e|------ 2----- ----2- ----0-|------ 0----- ----0- ------|
B|-------3----------3------0-|-------3----------3--------|
G|-------2----------2------1-|-------1----------1--------|
D|---------------------------|---------------------------|
A|---------------------------|---------------------------|
E|---------------------------|---------------------------|


  Coda
                              D
e|3----- 3----- 3----- 3-----|2----- 2---2- 2---2- 2---2-|
B|3------3------3------3-----|3------3---3--3---3--3---3-|
G|0------0------0------0-----|2------2---2--2---2--2---2-|
D|0------0------0------0-----|0------0---0--0---0--0---0-|
A|2------2------2------2-----|---------------------------|
E|3------3------3------3-----|---------------------------|
         eight   days     a   week
e|------ 3----- ----3- ----2-|------ 2----- ----2- ----2-|
B|-------3----------3------3-|-------3----------3------3-|
G|-------4----------4------2-|-------2----------2------2-|
D|---------------------------|---------------------------|
A|---------------------------|---------------------------|
E|---------------------------|---------------------------|


  G                           D                        G
e|3----- 3----- 3---3- 3-----|2----- 2----- 2---2- 2---3-|
B|3------3------3---3--3-----|3------3------3---3--3---3-|
G|0------0------0---0--0-----|2------2------2---2--2---0-|
D|0------0------0---0--0-----|0------0------0---0--0---0-|
A|2------2------2---2--2-----|-------------------------2-|
E|3------3------3---3--3-----|-------------------------3-|
         eight  days       a  week
e|------ 3----- ----3- ----3-|------ 2----- ----2- ----2-|
B|-------3----------3------3-|-------3----------3------3-|
G|-------4----------4------4-|-------2----------2------2-|
D|---------------------------|---------------------------|
A|---------------------------|---------------------------|
E|---------------------------|---------------------------|



                              D
e|3----- 3----- 3----- 3-----|2----- 2---2- 2---2- 2-----|
B|3------3------3------3-----|3------3---3--3---3--3-----|
G|0------0------0------0-----|2------2---2--2---2--2-----|
D|0------0------0------0-----|0------0---0--0---0--0-----|
A|2------2------2------2-----|---------------------------|
E|3------3------3------3-----|---------------------------|
         eight  days       a  week
e|------ 3----- ----3- ------|------ 2----- ----2- ------|
B|-------3----------3--------|-------3----------3--------|
G|-------4----------4--------|-------2----------2--------|
D|---------------------------|---------------------------|
A|---------------------------|---------------------------|
E|---------------------------|---------------------------|


  Outro

  D                           E
e|5----- ----5- 5H7--- 5-----|7----- ----7- 7H9--- 7-----|
B|7----------7--7------7-----|9----------9--9------9-----|
G|7----------7--7------7-----|9----------9--9------9-----|
D|0----------0--0------0-----|0----------0--0------0-----|
A|---------------------------|---------------------------|
E|---------------------------|---------------------------|
 
e|0----- ----0- 0----- 0-----|0----- ----0- 0----- 0-----|
B|3----------3--3------3-----|0----------0--0------0-----|
G|2----------2--2------2-----|1----------1--1------1-----|
D|0----------0--0------0-----|0----------0--0------0-----|
A|---------------------------|---------------------------|
E|---------------------------|---------------------------|


  G                           D(.
e|10---- ----10 10H12- 10----|5----- ------ ------ ------|
B|12---------12-12-----12----|7--------------------------|
G|12---------12-12-----12----|7--------------------------|
D|-0----------0--0------0----|0--------------------------|
A|---------------------------|---------------------------|
E|---------------------------|---------------------------|
                              Dsus2
e|0----- ----0- 0----- 0-----|0----- ------ ------ ------|
B|3----------3--3------3-----|3--------------------------|
G|0----------0--0------0-----|2--------------------------|
D|0----------0--0------0-----|0--------------------------|
A|---------------------------|---------------------------|
E|---------------------------|---------------------------|
 




        B  Bend
        R  Release
        /  slide up
        \  slide down
        H  hammer-on
        P  pull-off
        ~  vibrato
        +  harmonic
        x  Mute note
        . - play note like a dot in standard notation
        ^ - ties two notes together
        (. Pause



    -----------------------------------------------------------

    THE BEATLES - WORDS OF LOVE (B Holly) From BEATLES FOR SALE
                  album. Released on December, 4th, 1964.
   
    -----------------------------------------------------------

    Tabbed by:PJVillanueva




    Hold me close and tell me how you feel
    Tell me love is real Mmmmmmmmm

    Words of love you whisper soft and true
    Darling I love you Mmmmmmmmm 

                 SOLO

    Let me hear you say the words I long to hear
    Darling when you're near Mmmmmmmmm

    Words of love you whisper soft and true
    Darling I love you Mmmmmmmmm Hmmmmmmmmm Aaaaaaaaaahh



                                                                Ab
  e|------- ------- ------- -------|------- ------- ------- -------|
  B|-------------------------------|----------------------------1--|
  G|-------------------------------|----------------------------1--|
  D|-------------------------------|----------------------------1--|
  A|-------------------------------|-------------------------------|
  E|-------------------------------|-------------------------------|


    INTRO

    A                           C#  D           E
  e|0------ 0------ 0------ 0---1-/|2---2-- 2---0-- 0------ ----0--|
  B|2-------2-------2-------2---2-/|3---3---3---0---0-----------0--|
  G|2-------2-------2-------2---1-/|2---2---2---1---1-----------1--|
  D|2-------2-------2-------2---0--|0---0---0---2---2-----------2--|
  A|0-------0-------0-------0------|------------2---2-----------2--|
  E|-------------------------------|------------0---0-----------0--|

  e|------- ------- ------- ------0|----2-- ------- 0------ ----0--|
  B|5-------5-\-----2-/-----5------|--------3-----------0----------|
  G|-------------------------------|2-----------2-----------1------|
  D|-------------------------------|-------------------------------|
  A|-------------------------------|-------------------------------|
  E|-------------------------------|-------------------------------|




    A                           C#  D           E
  e|0---0-- 0------ 0------ 0---1-/|2---2-- 2---0-- 0------ ----0--|
  B|2---2---2-------2-------2---2-/|3---3---3---0---0-----------0--|
  G|2---2---2-------2-------2---1-/|2---2---2---1---1-----------1--|
  D|2---2---2-------2-------2---0--|0---0---0---2---2-----------2--|
  A|0---0---0-------0-------0------|------------2---2-----------2--|
  E|-------------------------------|------------0---0-----------0--|

  e|------- ------- ------- -------|----2-- ------- 0------ ----0--|
  B|5-------5-\-----2-/-----5------|--------3-----------0----------|
  G|-------------------------------|2-----------2-----------1------|
  D|-------------------------------|-------------------------------|
  A|-------------------------------|-------------------------------|
  E|-------------------------------|-------------------------------|




    A                               D           E
  e|0---0-- 0------ 0------ 0-----0|2---2-- 2---0-- 0------ ----0--|  
  B|2---2---2-------2-------2-----2|3---3---3---0---0-----------0--|   
  G|2---2---2-------2-------2-----2|2---2---2---1---1-----------1--|
  D|2---2---2-------2-------2-----2|0---0---0---2---2-----------2--|
  A|0-------0-------0-------0-----0|------------2---2-----------2--|
  E|-------------------------------|------------0---0-----------0--|

  e|------- ------- ------- ------0|----2-- ------- 0------ ----0--|
  B|5-------5-\-----2-/-----5------|--------3-----------0----------|
  G|-------------------------------|2-----------2-----------1------|
  D|-------------------------------|-------------------------------|
  A|-------------------------------|-------------------------------|
  E|-------------------------------|-------------------------------|




    A5                  E           D               E
  e|5------ 5-----5 5---0-- -------|----2-- ------- 0------ -------|
  B|5-------5-----5-5---5----------|--------3----------------------|
  G|-------------------------------|2-----------2------------------|
  D|-------------------------------|-------------------------------|
  A|-------------------------------|-------------------------------|
  E|-------------------------------|-------------------------------|

  e|0------ 0------ 0---0-- -------|----2-- ------- 0------ -------|
  B|----------------------------0--|--------3-----------2---0------|
  G|-------------------------------|2-----------2---------------1--|
  D|-------------------------------|-------------------------------|
  A|-------------------------------|-------------------------------|
  E|-------------------------------|-------------------------------|


    VERSE
    00:16
    A                               D               E
  e|0------ 0------ 0------ 0------|2---2-- 2---2-- 0---0-- 0---0--|
  B|2-------2-------2-------2------|3---3---3---3---0---0---0---0--|
  G|2-------2-------2-------2------|2---2---2---2---1---1---1---1--|
  D|2-------2-------2-------2------|0---0---0---0---2---2---2---2--|
  A|0-------0-------0-------0------|----------------2---2---2---2--|
  E|-------------------------------|----------------0---0---0---0--|

  e|------- ------- ------- -------|----2-- ------0 ------- -------|
  B|-------------------------------|--------3----------------------|
  G|2------------------------------|2-----------2------------------|
  D|-------------------------------|-------------------------------|
  A|-------------------------------|-------------------------------|
  E|-------------------------------|-------------------------------|
    Hold    me      close   and                     tell    how you
                                                        me


    A                           C#  D               E
  e|0------ 0------ 0------ 0---1-/|2---2-- 2---2-- 0---0-- 0---0--|
  B|2-------2-------2-------2---2-/|3---3---3---3---0---0---0---0--|
  G|2-------2-------2-------2---1-/|2---2---2---2---1---1---1---1--|
  D|2-------2-------2-------2---0--|0---0---0---0---2---2---2---2--|
  A|0-------0-------0-------0------|----------------2---2---2---2--|
  E|-------------------------------|----------------0---0---0---0--|

  e|------- ------- ------- -------|----2-- ------- 0------ -------|
  B|--------2-------2-------2---2--|--------3-----------0----------|
  G|2-------2-------2-------2------|2-----------2-----------1------|
  D|-------------------------------|-------------------------------|
  A|-------------------------------|-------------------------------|
  E|-------------------------------|-------------------------------|
       feel                                         Tell    love
                                                        me      is



  e|0------ 0------ 0------ 0---1-/|2---2-- 2---0-- 0------ 0------|
  B|2-------2-------2-------2---2-/|3---3---3---0---0-------0------|
  G|2-------2-------2-------2---1-/|2---2---2---1---1-------1------|
  D|2-------2-------2-------2---0--|0---0---0---2---2-------2------|
  A|0-------0-------0-------0------|------------2---2-------2------|
  E|-------------------------------|------------0---0-------0------|

  e|------- ------- ------- -------|----2-- ------- 0------ -------|
  B|2-------2-------2-------2------|--------3-----------0----------|
  G|2-------2-------2-------2---1--|2-----------2-----------1------|
  D|-------------------------------|-------------------------------|
  A|-------------------------------|-------------------------------|
  E|-------------------------------|-------------------------------|
    real                                            Mmmmmmmmmmmmmmm




  e|0------ 0------ 0------ 0------|2---2-- 2------ 0---0-- ----0--|
  B|2-------2-------2-------2------|3---3---3-------0---0-------0--|
  G|2-------2-------2-------2------|2---2---2-------1---1-------1--|
  D|2-------2-------2-------2------|0---0---0-------2---2-------2--|
  A|0-------0-------0-------0------|----------------2---2-------2--|
  E|-------------------------------|----------------0---0-------0--|

  e|------- ------- ------- -------|----2-- ------- 0------ -------|
  B|--------2-------2-------2-----0|--------3-----------2---0------|
  G|--------2-------2-------2------|2-----------2---------------1--|
  D|-------------------------------|-------------------------------|
  A|-------------------------------|-------------------------------|
  E|-------------------------------|-------------------------------|
    mmmmmmmmmmmmmmmmmmmmmmmmmmmmmmmmmmmmmmmmmmmmmmmmmmmmmmmmmmmmmmm

    VERSE
    00:31                                                            
  e|0------ 0------ 0------ 0---1-/|2---2-- 2---0-- 0---0-- 0---0--|
  B|2-------2-------2-------2---2-/|3---3---3---0---0---0---0---0--|
  G|2-------2-------2-------2---1-/|2---2---2---1---1---1---1---1--|
  D|2-------2-------2-------2---0--|0---0---0---2---2---2---2---2--|
  A|0-------0-------0-------0------|------------2---2---2---2---2--|
  E|-------------------------------|------------0---0---0---0---0--|

  e|------- ------- ------- -------|----2-- ------- 0------ -------|
  B|----------------2--------------|--------------------2---0------|
  G|----------------2-----------1--|2-----------2---------------1--|
  D|----------------2--------------|-------------------------------|
  A|-------------------------------|-------------------------------|
  E|-------------------------------|-------------------------------|
    Words   of      love    you                     whisper soft
                                                                and



  e|0------ 0------ 0------ 0---1-/|2---2-- 2---0-- 0------ 0---0--|
  B|2-------2-------2-------2---2-/|3---3---3---0---0-------0---0--|
  G|2-------2-------2-------2---1-/|2---2---2---1---1-------1---1--|
  D|2-------2-------2-------2---0--|0---0---0---2---2-------2---2--|
  A|0-------0-------0-------0------|------------2---2-------2---2--|
  E|-------------------------------|------------0---0-------0---0--|

  e|------- ------- ------- -------|----2-- ------- 0------ -------|
  B|2-------2-------2-------2------|--------3---------------0------|
  G|2-------2-------2-------2---1--|2-----------2---------------1--|
  D|-------------------------------|-------------------------------|
  A|-------------------------------|-------------------------------|
  E|-------------------------------|-------------------------------|
    true                                            Darling I   love




  e|0------ 0------ 0------ 0---1-/|2------ 2------ 0------ 0---0--|
  B|2-------2-------2-------2---2-/|3-------3-------0-------0---0--|
  G|2-------2-------2-------2---1-/|2-------2-------1-------1---1--|
  D|2-------2-------2-------2---0--|0-------0-------2-------2---2--|
  A|0-------0-------0-------0------|----------------2-------2---2--|
  E|-------------------------------|----------------0-------0---0--|

  e|------- ------- ------- -------|----2-- ------- 0------ -------|
  B|2-------2-------2-------2------|--------3-----------2---0------|
  G|2-------2-------2-------2---1--|2---------------------------1--|
  D|-------------------------------|-------------------------------|
  A|-------------------------------|-------------------------------|
  E|-------------------------------|-------------------------------|
    you                                             Mmmmmmmmmmmmmmm




  e|0------ 0------ 0------ 0---1-/|2------ 2------ 0------ 0---0--|
  B|2-------2-------2-------2---2-/|3-------3-------0-------0---0--|
  G|2-------2-------2-------2---1-/|2-------2-------1-------1---1--|
  D|2-------2-------2-------2---0--|0-------0-------2-------2---2--|
  A|0-------0-------0-------0------|----------------2-------2---2--|
  E|-------------------------------|----------------0-------0---0--|

  e|------- ------- ------- -------|------- ------- 4-/---- 7------|
  B|2-------2-------2-------2------|----------------5-/-----9--10--|
  G|2-------2-------2-------2------|-------------------------------|
  D|-------------------------------|-------------------------------|
  A|-------------------------------|-------------------------------|
  E|-------------------------------|-------------------------------|
    mmmmmmmmmmmmmmmmmmmmmmmmmmmmmmmmmmmmmmmmmmmmmmmmmmmmmmmmmmmmmmm


    SOLO
    00:47
  
  e|9\----- 5\----- 0/----- 5------|2/--5-- ----5-- 4/----- 7-/-9--|
  B10\------5\------2/------5------|3/--7-------7---5/------9-/10--|
  G|-------------------------------|-------------------------------|
  D|-------------------------------|-------------------------------|
  A|-------------------------------|-------------------------------|
  E|-------------------------------|-------------------------------|



  e|9\----- 5\----- 0/----- 5\-----|2/--5-- ----5-- 4/----- 7-/-9--|
  B10\------5\------2/------5\-----|3/--7-------7---5/------9-/10--|
  G|-------------------------------|-------------------------------|
  D|-------------------------------|-------------------------------|
  A|-------------------------------|-------------------------------|
  E|-------------------------------|-------------------------------|



  e|9\----- 5\----- 0/----- 5\-----|2/--5-- ----5-- 4/----- 7------|
  B10\------5\------2/------5\-----|3/--7-------7---5/------9------|
  G|-------------------------------|-------------------------------|
  D|-------------------------------|-------------------------------|
  A|-------------------------------|-------------------------------|
  E|-------------------------------|-------------------------------|


   
  e|5------ 5-----5 ------- -------|----2-- ------- 0------ -------|
  B|5-------5-------5---5-------0--|--------3-----------2---0---0--|
  G|-------------------------------|2-----------2------------------|
  D|-------------------------------|-------------------------------|
  A|-------------------------------|-------------------------------|
  E|-------------------------------|-------------------------------|


    01:03

  e|------- ------- ------- ------0|----2-- ----2-- 0------ -------|
  B|0H2-----2-------2-------2------|--------------------2---0---0--|
  G|0H2-----2-------2-------2------|2------------------------------|
  D|-------------------------------|-------------------------------|
  A|-------------------------------|-------------------------------|
  E|-------------------------------|-------------------------------|



  e|------- ------- ------- ------0|----2-- ---2--- 0------ -------|
  B|1/2-----2-------2-------2------|------------3-------2---0---0--|
  G|1/2-----2-------2-------2------|2------------------------------|
  D|-------------------------------|-------------------------------|
  A|-------------------------------|-------------------------------|
  E|-------------------------------|-------------------------------|



  e|------- ------- ------- ------0|----2-- ----2-- 0------ ----0--|
  B|1/2-----2-------2-------2------|------------3-------2---0------|
  G|1/2-----2-------2-------2------|2------------------------------|
  D|-------------------------------|-------------------------------|
  A|-------------------------------|-------------------------------|
  E|-------------------------------|-------------------------------|



  e|------- 0------ 0------ 0-----0|----2-- ------- 0------ -------|
  B|5-------5-\-----2-/-----5------|--------3-----------2---0------|
  G|-------------------------------|2-----------2---------------1--|
  D|-------------------------------|-------------------------------|
  A|-------------------------------|-------------------------------|
  E|-------------------------------|-------------------------------|


    VERSE
    01:18
    Let me hear you say the words I long to hear
    Darling when you're near Mmmmmmmmm

    01:34
    Words of love you whisper soft and true
    Darling I love you Mmmmmmmmm Hmmmmmmmmm Aaaaaaaaahh




        B  Bend
        R  Release
        /  Slide up
        \  Slide down
        H  Hammer-on
        P  Pull-off
        ~  Vibrato
        +  Harmonic
        x  Mute note
        .  Play note like a dot in standard notation
        ^  Ties two notes together
        (. Pause



    ---------------------------------------------------------

    THE BEATLES - HONEY DON'T (Perkins) From BEATLES FOR SALE
                  album. Released on December 4th 1964.
   
    ---------------------------------------------------------

    Tabbed by:PJVillanueva





   Well how come you say you will when you won't,
   Say you do, baby, when you don't?
   Let me know, honey, how you feel,
   Tell the truth now, is love real?

   But uh huh well honey don't, well honey don't,
   Honey don't, honey don't, honey don't
   I say you will when you won't, uh huh honey, don't.

   Well I love you, baby, and you ought to know
   I like the way that you wear your clothes,
   Everything about you is so doggone sweet,
   You got that sand all over your feet.

   But uh huh well honey don't, honey don't,
   Honey don't, honey don't, honey don't
   I say you will when you won't, uh huh honey, don't.

   Oh, rock on George, one time for me
   I feel fine 
   Mmmmmmmmmmm hmm
   I'm sad

   Well sometimes I love you on a Saturday night,
   Sunday morning you don't look right.
   You've been out painting the town,
   Uh huh baby, been stepping around.

   But uh huh well honey don't, I said honey don't,
   Honey don't, honey don't, honey don't
   I say you will when you won't, uh huh honey, don't.

   Oh, rock on George, for Ringo one time

   Well honey don’t, well honey don’t,
   A little little honey don't, 
   I say you will when you won't, uh huh honey, don't.


   
      12/8


    e|------ ------ ------ ------|------ 0----- ----0- ------|
    B|---------------------------|0------0---0------0--0-----|
    G|---------------------------/4---------/4--------/4-----|
    D|---------------------------|---------------------------|
    A|---------------------------|---------------------------|
    E|---------------------------|---------------------------|



                                                           E
    e|------ ------ ------ ------|------ ------ ------ ----0-|
    B|---------------------------|-------------------------0-|
    G|---------------------------|-------------------------1-|
    D|---------------------------|-------------------------2-|
    A|---------------------------|-------------------------2-|
    E|---------------------------|-------------------------0-|

    e|------ 0----- ---0-- ------|------ 0----- ----0- ------|
    B|0------0---0-----0---0-----|0------0---0------0--0-----|
    G|3----------3-----3---3-----|2----------2---------2P0---|
    D|---------------------------|---------------------------|
    A|---------------------------|---------------------------|
    E|---------------------------|---------------------------|


      00:04
 
    e|0----- 0----- 0---0- 0-----|0----- 0----- 0---0- 0-----|
    B|0------0------0---0--0-----|0------0------0---0--0-----|
    G|1------1------1---1--1-----|1------1------1---1--1-----|
    D|2------2------2---2--2-----|2------2------2---2--2-----|
    A|2------2------2---2--2-----|2------2------2---2--2-----|
    E|0------0------0---0--0-----|0------0------0---0--0-----|
 
    e|------ ------ ------ ------|------ ------ ------ ------|
    B|-------0-------------------|0--------------------------|
    G|------------------1--------|---------------------------|
    D|2-----------------2--------|---------------------------|
    A|---------------------------|---------------------------|
    E|---------------------------|---------------------------|
                                                       Well,
                                                           how
      

    e|0----- ------ ------ ------|------ ------ ----0- 0---0-|
    B|0--------------------------|------------------0--0---0-|
    G|1--------------------------|------------------1--1---0-|
    D|2--------------------------|------------------2--2---0-|
    A|2--------------------------|------------------2--2-----|
    E|0--------------------------|------------------0--0-----|
          come   you       you will   when   won't,
                    say                  you
      00:10
      C           
    e|0----- ------ ------ ------|------ ------ ----0- ----0-|
    B|1--------------------------|------------------1------1-|
    G|0--------------------------|------------------0------0-|
    D|2--------------------------|------------------2------2-|
    A|3--------------------------|------------------3------3-|
    E|---------------------------|---------------------------|
             Say you       baby,  when       don't?
                    do,               you    
      
      E
    e|0----- ------ ------ ------|------ ------ ----0- 0---0-|
    B|0--------------------------|------------------0--0---0-|
    G|1--------------------------|------------------1--1---0-|
    D|2--------------------------|------------------2--2---0-|
    A|2--------------------------|------------------2--2-----|
    E|0--------------------------|------------------0--0-----|
             Let me know,  honey, how you    feel,



    e|0----- ------ ------ ------|------ ------ ------ 0-----|
    B|1--------------------------|---------------------0-----|
    G|0--------------------------|---------------------0-----|
    D|2--------------------------|---------------------------|
    A|3--------------------------|---------------------------|
    E|---------------------------|---------------------------|
             Tell   truth  now,   is  love   real?     But uh 
                 the

      00:18
      B7                          B11
    e|2----- 2----- 2----- 2---2-|0---0- 0----- 0----- 0-----|
    B|0------0------0------0---0-|2---2--2------2------2-----|
    G|2------2------2------2---2-|2---2--2------2------2-----|
    D|1------1------1------1---1-|1---1--1------1------1-----|
    A|2------2------2------2---2-|2---2--2------2------2-----|
    E|---------------------------|---------------------------|

    e|------ ------ ------ ------|------ ------ ------ ------|  
    B|-------2----------2--------|2----------2---------------|
    G|-------2----------2--------|2----------2---------------|
    D|---------------------------|1--------------------------|
    A|---------------------------|---------------------------|
    E|---------------------------|-------------------------0-|
          huh                            Well,      honey  don't 

      00:21
      E
    e|0---0- 0----- 0----- 0-----|0----- 0----- 0----- 0-----|
    B|0---0--0------0------0-----|0------0------0------0-----|
    G|1---1--1------1------1-----|1------1------1------1-----|
    D|2---2--2------2------2-----|2------2------2------2-----|
    A|2---2--2------2------2-----|2------2------2------2-----|
    E|0---0--0------0------0-----|0------0------0------0-----|

    e|------ ------ ------ ------|------ ------ ------ ------|
    B|---------------------------|---------------------------|
    G|---------------------------|---------------------------|
    D|---------------------------|2---2----------------------|
    A|--------------2---2--4-----|-------4------2---2------2-|
    E|----0--4-------------------|---------------------4-----|
                                         well,      honey  don't,


 
    e|0----- 0----- 0----- 0---0-|0----- 0----- 0---0- 0---0-|
    B|0------0------0------0---0-|0------0------0---0--0---0-|
    G|1------1------1------1---1-|1------1------1---1--1---1-|
    D|2------2------2------2---2-|2------2------2---2--2---2-|
    A|2------2------2------2---2-|2------2------2---2--2---2-|
    E|0------0------0------0---0-|0------0------0---0--0---0-|

    e|------ ------ ------ ------|------ ------ ------ ------|
    B|---------------------------|---------------------------|
    G|---------------------------|---------------------------|
    D|------------------2--------|---------------------------|
    A|----2---------2------4-----|5------4------2------------|
    E|0------4-------------------|---------------------4-----|
                                                    honey  don't,



    e|0----- 0----- 0---0- 0---0-|0---0- 0----- 0----- 0-----|
    B|0------0------0---0--0---0-|0---0--0------0------0-----|
    G|1------1------1---1--1---1-|1---1--1------1------1-----|
    D|2------2------2---2--2---2-|2---2--2------2------2-----|
    A|2------2------2---2--2---2-|2---2--2------2------2-----|
    E|0------0------0---0--0---0-|0---0--0------0------0-----|

    e|------ ------ ------ ------|------ ------ ------ ------|
    B|---------------------------|---------------------------|
    G|---------------------------|---------------------------|
    D|--------------2---2--------|------------------2--------|
    A|----2---------2------4-----|5------4------2------------|
    E|0------4-------------------|---------------------4-----|
                                                    honey  don't,


      A7
    e|3----- 3----- 3---3- 3-----|------ 3----- 3---3- 3---3-|
    B|2------2------2---2--2-----|-------2------2---2--2---2-|
    G|2------2------2---2--2-----|-------2------2---2--2---2-|
    D|2------2------2---2--2-----|-------2------2---2--2---2-|
    A|0------0------0---0--0-----|-------0------0---0--0---0-|
    E|---------------------------|---------------------------|

    e|------ ------ ------ ------|------ ------ ------ ------|
    B|---------------------------|---------------------------|
    G|----2---------2---2--2-----|--------------2---2--------|
    D|----2---------2---2--4-----|5------4------2---2------0-|
    A|0------4-------------------|---------------------4-----|
    E|---------------------------|---------------------------|
                                                    honey  don't,


      E
    e|0----- 0----- 0---0- 0---0-|0----- 0----- 0---0- 0-----|
    B|0------0------0---0--0---0-|0------0------0---0--0-----|
    G|1------1------1---1--1---1-|1------1------1---1--1-----|
    D|2------2------2---2--2---2-|2------2------2---2--2-----|
    A|2------2------2---2--2---2-|2------2------2---2--2-----|
    E|0------0------0---0--0---0-|0------0------0---0--0-----|

    e|------ ------ ------ ------|------ ------ ------ ------|
    B|---------------------------|---------------------------|
    G|---------------------------|---------------------------|
    D|--------------2------------|2-------------2---2--------|
    A|--------------2------4-----|-------4------2---2--------|
    E|0------4-------------------|---------------------4-----|
                                                    I  say you


      B7
    e|2----- 2---2- 2----- 2-----|2----- 2---2- 2----- 2-----|
    B|0------0---0--0------0-----|0------0---0--0------0-----|
    G|2------2---2--2------2-----|2------2---2--2------2-----|
    D|1------1---1--1------1-----|1------1---1--1------1-----|
    A|2------2---2--2------2-----|2------2---2--2------2-----|
    E|---------------------------|---------------------------|

    e|------ ------ ------ ------|------ ------ ------ ------|
    B|---------------------------|---------------------------|
    G|---------------------------|---------------------------|
    D|---------------------------|---------------------------|
    A|2------2---2---------------|2------0-------------------|
    E|--------------2------2-----|--------------4------2-----|
      will   you won't,        uh     huh           honey, don't.
          when 

      E
    e|0---0- 0---0- 0---0- 0-----|0----- 0----- 0---0- 0-----|
    B|0---0--0---0--0---0--0-----|0------0------0---0--0-----|
    G|1---1--1---1--1---1--1-----|1------1------1---1--1-----|
    D|2---2--2---2--2---2--2-----|2------2------2---2--2-----|
    A|2---2--2---2--2---2--2-----|2------2------2---2--2-----|
    E|0---0--0---0--0---0--0-----|0------0------0---0--0-----|

    e|------ ------ ------ ------|------ ------ ------ ------|
    B|---------------------------|---------------------------|
    G|---------------------------|---------------------------|
    D|----2---------2------------|2----------2------2------2-|
    A|----2---------2------4---2-|----2----------------------|
    E|0------4-------------------|---------------------------|
                                                    Well,
                                                       I

      00:42                                                        
  
    e|0----- ------ ------ ------|------ ------ ----0- 0-----|
    B|0--------------------------|------------------0--0-----|
    G|1--------------------------|------------------1--1-----|
    D|2--------------------------|------------------2--2-----|
    A|2--------------------------|------------------2--2-----|
    E|0--------------------------|------------------0--0-----|
      love   you,   baby,  and    ought  to  know
                               you

  
    e|0----- ------ ------ ------|------ ------ ----0- ----0-|
    B|1--------------------------|------------------1------1-|
    G|0--------------------------|------------------0------0-|
    D|2--------------------------|------------------2------2-|
    A|3--------------------------|------------------3------3-|
    E|---------------------------|---------------------------|
          I  like   way    that   wear   your              Ev..
                 the           you           clothes,
      

    e|0----- ------ ------ ------|------ ------ ----0- 0-----|
    B|0--------------------------|------------------0--0-----|
    G|1--------------------------|------------------1--1-----|
    D|2--------------------------|------------------2--2-----|
    A|2--------------------------|------------------2--2-----|
    E|0--------------------------|------------------0--0-----|
       .. erything      you    so doggone    sweet,        You
                 about     is


    e|0----- ------ ------ ------|------ ------ ----0- 0---0-|
    B|1--------------------------|------------------1--1---0-|
    G|0--------------------------|------------------0--0---0-|
    D|2--------------------------|------------------2--2---0-|
    A|3--------------------------|------------------3--3-----|
    E|---------------------------|---------------------------|
      got    that   sand   all    over   your          but uh
                                             feet,

      00:53
  
    e|2----- 2----- 2----- 2---2-|0----- 0----- 0----- 0-----|
    B|0------0------0------0---0-|2------2------2------2-----|
    G|2------2------2------2---2-|2------2------2------2-----|
    D|1------1------1------1---1-|1------1------1------1-----|
    A|2------2------2------2---2-|2------2------2------2-----|
    E|---------------------------|---------------------------|

    e|------ ------ ------ ----2-|------ ------ ------ ------|  
    B|----2---------2----------2-|----2---------2------------|
    G|----2---------2----------2-|----2---------2------------|
    D|----1---------1------------|----1---------1------------|
    A|---------------------------|---------------------------|
    E|---------------------------|---------------------------|
          huh                     Well,             honey  don't 


      00:56                                                     

    e|0----- 0----- 0---0- 0---0-|0----- 0----- 0---0- 0---0-|
    B|0------0------0---0--0---0-|0------0------0---0--0---0-|
    G|1------1------1---1--1---1-|1------1------1---1--1---1-|
    D|2------2------2---2--2---2-|2------2------2---2--2---2-|
    A|2------2------2---2--2---2-|2------2------2---2--2---2-|
    E|0------0------0---0--0---0-|0------0------0---0--0---0-|

    e|------ ------ ------ ------|------ ------ ------ ------|
    B|---------------------------|---------------------------|
    G|---------------------------|---------------------------|
    D|---------------------------|2---2----------------------|
    A|--------------2------4-----|-------4------2------------|
    E|0---0--4-------------------|---------------------4-----|
                                         well,      honey  don't,


 
    e|0----- 0----- 0---0- 0---0-|0----- 0----- 0---0- 0-----|
    B|0------0------0---0--0---0-|0------0------0---0--0-----|
    G|1------1------1---1--1---1-|1------1------1---1--1-----|
    D|2------2------2---2--2---2-|2------2------2---2--2-----|
    A|2------2------2---2--2---2-|2------2------2---2--2-----|
    E|0------0------0---0--0---0-|0------0------0---0--0-----|

    e|------ ------ ------ ------|------ ------ ------ ------|
    B|---------------------------|---------------------------|
    G|---------------------------|---------------------------|
    D|---------------------------|------------------2------2-|
    A|--------------2------4-----|5------4------2------------|
    E|0---0--4-------------------|---------------------4-----|
                                                    honey  don't,



    e|0----- 0---0- 0----- 0---0-|0----- 0---0- 0----- 0-----|
    B|0------0---0--0------0---0-|0------0---0--0------0-----|
    G|1------1---1--1------1---1-|1------1---1--1------1-----|
    D|2------2---2--2------2---2-|2------2---2--2------2-----|
    A|2------2---2--2------2---2-|2------2---2--2------2-----|
    E|0------0---0--0------0---0-|0------0---0--0------0-----|

    e|------ ------ ------ ------|------ ------ ------ ------|
    B|---------------------------|---------------------------|
    G|---------------------------|---------------------------|
    D|------------------2--------|------------------2------2-|
    A|----2---------2------4-----|5------4------2------------|
    E|0------4-------------------|---------------------4-----|
                                                    honey  don't,


      A                           A7
    e|0----- 0---0- 0----- 0---0-|3----- 3---3- 3----- 3-----|
    B|2------2---2--2------2---2-|2------2---2--2------2-----|
    G|2------2---2--2------2---2-|2------2---2--2------2-----|
    D|2------2---2--2------2---2-|2------2---2--2------2-----|
    A|0------0---0--0------0---0-|0------0---0--0------0-----|
    E|---------------------------|---------------------------|

    e|------ ------ ------ ------|------ ------ ------ ------|
    B|---------------------------|---------------------------|
    G|--------------2------------|---------------------------|
    D|----2---------2------4-----|5------4------2---2------2-|
    A|0------4-------------------|---------------------4-----|
    E|---------------------------|---------------------------|
                                                    honey  don't,



    e|0----- 0---0- 0---0- 0-----|0----- 0---0- ----0- 0-----|
    B|0------0---0--0---0--0-----|0------0---0------0--0-----|
    G|1------1---1--1---1--1-----|1------1---1------1--1-----|
    D|2------2---2--2---2--2-----|2------2---2------2--2-----|
    A|2------2---2--2---2--2-----|2------2---2------2--2-----|
    E|0------0---0--0---0--0-----|0------0---0------0--0-----|

    e|------ ------ ------ ------|------ ------ ------ ------|
    B|---------------------------|---------------------------|
    G|---------------------------|---------------------------|
    D|----2---------2------------|2--------------------------|
    A|----2---------2------4-----|5------4------2------------|
    E|0------4-------------------|---------------------4-----|
                                                    I  say you


  
    e|2----- 2---2- 2---2- 2---2-|2----- 2---2- 2----- 2-----|
    B|0------0---0--0---0--0---0-|0------0---0--0------0-----|
    G|2------2---2--2---2--2---2-|2------2---2--2------2-----|
    D|1------1---1--1---1--1---1-|1------1---1--1------1-----|
    A|2------2---2--2---2--2---2-|2------2---2--2------2-----|
    E|---------------------------|---------------------------|

    e|------ ------ ------ ------|------ ------ ------ ------|
    B|---------------------------|---------------------------|
    G|---------------------------|---------------------------|
    D|---------------------------|---------------------------|
    A|2----------2-------------1/|2------0-------------------|
    E|--------------2------------|--------------4------2-----|
      will   you won't,        uh     huh           honey, don't.
          when 


    e|0----- 0----- 0----- 0---0-|0----- 0---0- 0---0- 0---0-|
    B|0------0------0------0---0-|0------0---0--0---0--0---0-|
    G|1------1------1------1---1-|1------1---1--1---1--1---1-|
    D|2------2------2------2---2-|2------2---2--2---2--2---2-|
    A|2------2------2------2---2-|2------2---2--2---2--2---2-|
    E|0------0------0------0---0-|0------0---0--0---0--0---0-|

    e|------ ------ ------ ------|------ ------ ------ ------|
    B|---------------------------|---------------------------|
    G|---------------------------|---------------------------|
    D|----2---------2------------|2----------2---------------|
    A|----2---------2------4---2-|----2----------------------|
    E|0------4-------------------|---------------------------|
          Oh,       rock       George,   one time   for me
                        on

      SOLO
      01:17

    e|0----- 0----- 0---0- 0-----|0----- 0----- 0----- 0-----|
    B|0------0------0---0--0-----|0------0------0------0-----|
    G|1------1------1---1--1-----|1------1------1------1-----|
    D|2------2------2---2--2-----|2------2------2------2-----|
    A|2------2------2---2--2-----|2------2------2------2-----|
    E|0------0------0---0--0-----|0------0------0------0-----|

    e|---12- ------ 12---- ---12-|---12- ---12- ---12- 12--8-|
    B|---12---------12--------12-|---12-----12-----12--12--8-|
    G|---13---------13--------13-|---13-----13-----13--13--9-|
    D|---------------------------|---------------------------|
    A|---------------------------|---------------------------|
    E|---------------------------|---------------------------|



  
    e|0----- 0---0- 0---0- 0-----|0----- 0----- 0----- 0---0-|
    B|1------1---1--1---1--1-----|1------1------1------1---1-|
    G|0------0---0--0---0--0-----|0------0------0------0---0-|
    D|2------2---2--2---2--2-----|2------2------2------2---2-|
    A|3------3---3--3---3--3-----|3------3------3------3---3-|
    E|---------------------------|---------------------------|

    e|8----- 8----- 8----- ---12-|----12 ----12 ----12 12----|
    B|8------8------8---------13-|----13-----13-----13-13----|
    G|9------9------9---------12-|----12-----12-----12-12----|
    D|---------------------------|---------------------------|
    A|---------------------------|---------------------------|
    E|---------------------------|---------------------------|




    e|0----- 0----- 0---0- 0-----|0----- 0----- 0---0- 0---0-|
    B|0------0------0---0--0-----|0------0------0---0--0---0-|
    G|1------1------1---1--1-----|1------1------1---1--1---1-|
    D|2------2------2---2--2-----|2------2------2---2--2---2-|
    A|2------2------2---2--2-----|2------2------2---2--2---2-|
    E|0------0------0---0--0-----|0------0------0---0--0---0-|

    e|---12\ ------ 12\--- ---12-|---12- ---12- ---12- 12--8-|
    B|---12\--------12\-------12-|---12-----12-----12--12--8-|
    G|---13\--------13\-------13-|---13-----13-----13--13--9-|
    D|---------------------------|---------------------------|
    A|---------------------------|---------------------------|
    E|---------------------------|---------------------------|



  
    e|0----- 0----- 0---0- 0-----|----2- 2---2- 2---2- 2---0-|
    B|1------1------1---1--1-----|x---0--0---0--0---0--0---0-|
    G|0------0------0---0--0-----|x---2--2---2--2---2--2---1-|
    D|2------2------2---2--2-----|x---1--1---1--1---1--1---2-|
    A|3------3------3---3--3-----|----2--2---2--2---2--2---2-|
    E|---------------------------|-------------------------0-|

    e|8----- 8----- ------ ------|------ ------ ------ ------|
    B|8------8-------------------|---------------------------|
    G|9------9-------------------|---------------------------|
    D|---------------------------|---------------------------|
    A|-------------------------1/|2---2--0-------------------|
    E|---------------------------|--------------4------2-----|
                                             I      feel   fine 

      01:28

    e|0---0- 0----- ------ 0-----|------ 0----- ----0- ----0-|
    B|0---0--0-------------0-----|-------0----------0------0-|
    G|1---1--1-------------1-----|-------1----------1------1-|
    D|2---2--2-------------2-----|-------2----------2------2-|
    A|2---2--2-------------2-----|-------2----------2------2-|
    E|0---0--0-------------0-----|-------0----------0------0-|

    e|------ ------ ------ ------|------ ------ ------ ------|
    B|---------------------------|---------------------------|
    G|---------------------------|---------------------------|
    D|---------------------------|---------------------------|
    A|----2-------------2--------|----2-------------2--------|
    E|0-----H4------4----------0-|------H4------4----------0-|



  
    e|0---0- 0----- ------ 0-----|----0- 0---0- 0---0- 0---0-|
    B|0---0--0-------------0-----|----0--0---0--0---0--0---0-|
    G|1---1--1-------------1-----|----1--1---1--1---1--1---1-|
    D|2---2--2-------------2-----|----2--2---2--2---2--2---2-|
    A|2---2--2-------------2-----|----2--2---2--2---2--2---2-|
    E|0---0--0-------------0-----|----0--0---0--0---0--0---0-|

    e|------ ------ ------ ------|------ ------ ------ ------|
    B|---------------------------|---------------------------|
    G|---------------------------|---------------------------|
    D|---------------------------|---------------------------|
    A|----2-------------2--------|----2-------------2------0-|
    E|------H4------4----------0-|------H4------4------------|




    e|0----- 3---3- 3---3- 3-----|3----- 3---3- 3---3- 3---0-|  
    B|2------2---2--2---2--2-----|2------2---2--2---2--2---0-|
    G|2------2---2--2---2--2-----|2------2---2--2---2--2---0-|
    D|2------2---2--2---2--2-----|2------2---2--2---2--2---0-|
    A|0------0---0--0---0--0-----|0------0---0--0---0--0-----|
    E|---------------------------|---------------------------|

    e|------ ------ ------ ------|------ ------ ------ ------|
    B|---------------------------|---------------------------|
    G|---------------------------|---------------------------|
    D|----2-------------2--------|----2-------------2--------|
    A|------H4------4----------0-|------H4------4------------|
    E|---------------------------|-------------------------0-|
                             HmmmmmmmmmmmmmmmmmmmmmmmmmmmmmHmm


  
    e|0----- 0----- ------ 0-----|0---0- 0----- ----0- 0---0-|
    B|0------0-------------0-----|0---0--0----------0--0---0-|
    G|1------1-------------1-----|1---1--1----------1--1---0-|
    D|2------2-------------2-----|2---2--2----------2--2---0-|
    A|2------2-------------2-----|2---2--2----------2--2-----|
    E|0------0-------------0-----|0---0--0----------0--0-----|

    e|------ ------ ------ ------|------ ------ ------ ------|
    B|---------------------------|---------------------------|
    G|---------------------------|---------------------------|
    D|---------------------------|---------------------------|
    A|----2-------------2--------|----2-------------2------2-|
    E|------H4------4----------0-|------H4------4------------|




    e|2---2- 2---2- 2---2- 2-----|0----- 0----- 0----- 0-----|
    B|0---0--0---0--0---0--0-----|2------2------2------2-----|
    G|2---2--2---2--2---2--2-----|2------2------2------2-----|
    D|1---1--1---1--1---1--1-----|1------1------1------1-----|
    A|2---2--2---2--2---2--2-----|2------2------2------2-----|
    E|---------------------------|---------------------------|

    e|------ ------ ------ ------|------ ------ ------ ------|
    B|---------------------------|---------------------------|
    G|---------------------------|---------------------------|
    D|--------------1---4--------|--------------2---2--------|
    A|---------------------4-----|2------4---2---------4---2-|
    E|---------------------------|---------------------------|
                 I'm    sad


  
    e|----0- 0----- ----0- 0-----|----0- 0----- ----0- 0-----|
    B|----0--0----------0--0-----|----0--0----------0--0-----|
    G|----1--1----------1--1-----|----1--1----------1--1-----|
    D|----2--2----------2--2-----|----2--2----------2--2-----|
    A|----2--2----------2--2-----|----2--2----------2--2-----|
    E|----0--0----------0--0-----|----0--0----------0--0-----|

    e|------ ------ ------ ------|------ ------ ------ ------|
    B|---------------------------|---------------------------|
    G|---------------------------|---------------------------|
    D|---------------------------|2----------2------2------2-|
    A|----2---------2----------2-|----2----------------------|
    E|0------4-------------------|---------------------------|
                                                    Well,  some..


      01:46

    e|0----- ------ ------ ------|------ ------ ----0- 0---0-|
    B|0--------------------------|------------------0--0---0-|
    G|1--------------------------|------------------1--1---0-|
    D|2--------------------------|------------------2--2---0-|
    A|2--------------------------|------------------2--2-----|
    E|0--------------------------|------------------0--0-----|

    e|------ ------ ------ ------|------ ------ ------ ------|
    B|---------------------------|---------------------------|
    G|---------------------------|---------------------------|
    D|---------------------------|---------------------------|
    A|---------------------------|---------------------------|
    E|0--------------------------|---------------------------|
             times  love   on  a  Saturday   night,
                 I      you                                   


    e|0----- ------ ------ ------|------ ------ 0---0- 0---0-|
    B|1--------------------------|--------------1---1--1---0-|
    G|0--------------------------|--------------0---0--0---0-|
    D|2--------------------------|--------------2---2--2---0-|
    A|3--------------------------|--------------3---3--3-----|
    E|---------------------------|---------------------------|
             Sunday morning    don't  look   right.
                           you
      

    e|0----- ------ ------ ------|------ ------ ----0- 0---0-|
    B|0--------------------------|------------------0--0---0-|
    G|1--------------------------|------------------1--1---0-|
    D|2--------------------------|------------------2--2---0-|
    A|2--------------------------|------------------2--2-----|
    E|0--------------------------|------------------0--0-----|
          You've    out           painting   town,
             been                        the


    e|0----- ------ ------ ------|------ ------ ---0-- 0---0-|
    B|1--------------------------|-----------------1---1---0-|
    G|0--------------------------|-----------------0---0---0-|
    D|2--------------------------|-----------------2---2---0-|
    A|3--------------------------|-----------------3---3-----|
    E|---------------------------|---------------------------|
      Uh     huh    baby,  been   stepping             but huh
                                         around,

      01:58 
  
    e|0----- 0----- 0----- 0-----|0----- 0----- 0----- 0-----|
    B|2------2------2------2-----|2------2------2------2-----|
    G|2------2------2------2-----|2------2------2------2-----|
    D|1------1------1------1-----|1------1------1------1-----|
    A|2------2------2------2-----|2------2------2------2-----|
    E|---------------------------|---------------------------|

    e|------ ------ ------ ----2-|------ ------ ------ ------|
    B|----2---------2----------2-|----2-------------2--------|
    G|----2---------2------------|----2-------------2--------|
    D|---------------------------|---------------------------|
    A|---------------------------|---------------------------|
    E|---------------------------|---------------------------|
          huh                     Well,             honey  don't 


      02:01                                                      

    e|0---0- 0----- 0---0- 0-----|0----- 0----- 0---0- 0---0-|
    B|0---0--0------0---0--0-----|0------0------0---0--0---0-|
    G|1---1--1------1---1--1-----|1------1------1---1--1---1-|
    D|2---2--2------2---2--2-----|2------2------2---2--2---2-|
    A|2---2--2------2---2--2-----|2------2------2---2--2---2-|
    E|0---0--0------0---0--0-----|0------0------0---0--0---0-|
 
    e|------ ------ ------ ------|------ ------ ------ ------|
    B|---------------------------|---------------------------|
    G|---------------------------|---------------------------|
    D|---------------------------|2--------------------------|
    A|--------------2------4-----|-------4-------------------|
    E|0---0--4-------------------|--------------0------3/4---|
                               I      say           honey  don't,


 
    e|0---0- 0----- ----0- ----0-|0----- 0----- ----0- 0---0-|
    B|0---0--0----------0------0-|0------0----------0--0---0-|
    G|1---1--1----------1------1-|1------1----------1--1---1-|
    D|2---2--2----------2------2-|2------2----------2--2---2-|
    A|2---2--2----------2------2-|2------2----------2--2---2-|
    E|0---0--0----------0------0-|0------0----------0--0---0-|

    e|------ ------ ------ ------|------ ------ ------ ------|
    B|---------------------------|---------------------------|
    G|---------------------------|---------------------------|
    D|---------------------------|----2------2------2--------|
    A|--------------2------4-----|5------4------2----------2-|
    E|0---0--4-------------------|---------------------4-----|
                                                    honey  don't,



    e|0----- 0----- 0---0- 0-----|0----- ----0- 0---0- 0-----|
    B|0------0------0---0--0-----|0----------0--0---0--0-----|
    G|1------1------1---1--1-----|1----------1--1---1--1-----|
    D|2------2------2---2--2-----|2----------2--2---2--2-----|
    A|2------2------2---2--2-----|2----------2--2---2--2-----|
    E|0------0------0---0--0-----|0----------0--0---0--0-----|

    e|------ ------ ------ ------|------ ------ ------ ------|
    B|---------------------------|---------------------------|
    G|---------------------------|---------------------------|
    D|---------------------------|--------------2------------|
    A|----2---------2------4-----|5------4------2----------2-|
    E|0------4-------------------|---------------------4-----|
                                                    honey  don't,


  
    e|3----- 3---3- 3---3- 3-----|3----- 3----- 3----- 3-----|
    B|2------2---2--2---2--2-----|2------2------2------2-----|
    G|2------2---2--2---2--2-----|2------2------2------2-----|
    D|2------2---2--2---2--2-----|2------2------2------2-----|
    A|0------0---0--0---0--0-----|0------0------0------0-----|
    E|---------------------------|---------------------------|

    e|------ ------ ------ ------|------ ------ ------ ------|
    B|---------------------------|---------------------------|
    G|----0--0------0------------|---------------------------|
    D|----2--2------2------4---2-|5---2--4------2----------2-|
    A|0------4-------------------|---------------------4-----|
    E|---------------------------|---------------------------|
                                                    honey  don't,



    e|0----- 0---0- 0---0- 0---0-|0----- 0---0- 0---0- 0---0-|
    B|0------0---0--0---0--0---0-|0------0---0--0---0--0---0-|
    G|1------1---1--1---1--1---1-|1------1---1--1---1--1---0-|
    D|2------2---2--2---2--2---2-|2------2---2--2---2--2---0-|
    A|2------2---2--2---2--2---2-|2------2---2--2---2--2-----|
    E|0------0---0--0---0--0---0-|0------0---0--0---0--0-----|

    e|------ ------ ------ ------|------ ------ ------ ------|
    B|---------------------------|---------------------------|
    G|---------------------------|---------------------------|
    D|---------------------------|---------------------------|
    A|----2---------2----------2-|----2---------2------------|
    E|0------4-------------0-----|0------4-------------------|
                                                    I  say you


  
    e|2----- 2---2- 2---2- 2-----|2----- 2---2- 2----- 2-----|
    B|0------0---0--0---0--0-----|0------0---0--0------0-----|
    G|2------2---2--2---2--2-----|2------2---2--2------2-----|
    D|1------1---1--1---1--1-----|1------1---1--1------1-----|
    A|2------2---2--2---2--2-----|2------2---2--2------2-----|
    E|---------------------------|---------------------------|

    e|------ ------ ------ ------|------ ------ ------ ------|
    B|---------------------------|---------------------------|
    G|---------------------------|---------------------------|
    D|---------------------------|---------------------------|
    A|2----------2---------------|2------0-------------------|
    E|--------------2------------|--------------4------2-----|
      will   you won't,        uh     huh           honey, don't.
          when 


    e|0----- 0----- 0---0- 0---0-|0----- 0----- 0---0- 0---0-|
    B|0------0------0---0--0---0-|0------0------0---0--0---0-|
    G|1------1------1---1--1---1-|1------1------1---1--1---1-|
    D|2------2------2---2--2---2-|2------2------2---2--2---2-|
    A|2------2------2---2--2---2-|2------2------2---2--2---2-|
    E|0------0------0---0--0---0-|0------0------0---0--0---0-|

    e|------ ------ ------ ------|------ ------ ------ ------|
    B|---------------------------|---------------------------|
    G|---------------------------|---------------------------|
    D|----2---------2------------|2----------2---------------|
    A|----2---------2------4---2-|----2----------------------|
    E|0------4-------------------|---------------------------|
          Oh,       rock       George,   Ringo one time 
                        on            for

      02:22
      SOLO                                                       

    e|0----- 0----- 0---0- 0-----|0----- 0----- 0----- 0---0-|  
    B|0------0------0---0--0-----|0------0------0------0---0-|
    G|1------1------1---1--1-----|1------1------1------1---1-|
    D|2------2------2---2--2-----|2------2------2------2---2-|
    A|2------2------2---2--2-----|2------2------2------2---2-|
    E|0------0------0---0--0-----|0------0------0------0---0-|

    e|---12- ------ ------ ---12-|---12- ------ ---12- ------|
    B|---12---------12--------12-|---12-----12-----12--12----|
    G|---13---------13--------13-|---13-----13-----13--13----|
    D|---------------------------|---------------------------|
    A|---------------------------|---------------------------|
    E|---------------------------|---------------------------|



  
    e|0----- 0---0- 0---0- 0-----|0----- 0----- 0---0- 0---0-|
    B|1------1---1--1---1--1-----|1------1------1---1--1---1-|
    G|0------0---0--0---0--0-----|0------0------0---0--0---0-|
    D|2------2---2--2---2--2-----|2------2------2---2--2---2-|
    A|3------3---3--3---3--3-----|3------3------3---3--3---3-|
    E|---------------------------|---------------------------|

    e|------ ------ ------ ------|-----8 ------ -----8 ----8-|
    B|----8---------8----------8-|-----8------8------8--8--8-|
    G|----9---------9----------9-|-----9------9------9--9--9-|
    D|---10--------10---------10-|-----------10--------10----|
    A|---------------------------|---------------------------|
    E|---------------------------|---------------------------|




    e|0----- 0---0- 0----- 0-----|0----- 0----- 0---0- 0-----|
    B|0------0---0--0------0-----|0------0------0---0--0-----|
    G|1------1---1--1------1-----|1------1------1---1--1-----|
    D|2------2---2--2------2-----|2------2------2---2--2-----|
    A|2------2---2--2------2-----|2------2------2---2--2-----|
    E|0------0---0--0------0-----|0------0------0---0--0-----|

    e|---12- ------ ------ ------|---12- ---12- ---12- ----8-|
    B|---12---------12--------12-|---12-----12-----12------8-|
    G|---13---------13--------13-|---13-----13-----13------9-|
    D|---------------------------|---------------------------|
    A|---------------------------|---------------------------|
    E|---------------------------|---------------------------|



  
    e|0----- 0----- 0----- 0-----|2---2- 2---2- 2---2- 2---0-|
    B|1------1------1------1-----|0---0--0---0--0---0--0---0-|
    G|0------0------0------0-----|2---2--2---2--2---2--2---0-|
    D|2------2------2------2-----|1---1--1---1--1---1--1---0-|
    A|3------3------3------3-----|2---2--2---2--2---2--2-----|
    E|---------------------------|---------------------------|

    e|8----- 8----- ------ ------|------ ------ ------ ------|
    B|8------8-------------------|---------------------------|
    G|9------9-------------------|---------------------------|
    D|---------------------------|---------------------------|
    A|-------------------------1/|2---2--0---2---------------|
    E|---------------------------|--------------4------2-----|
                                     

      02:33

    e|0---0- 0----- 0---0- 0-----|0----- 0---0- 0---0- 0---0-|
    B|0---0--0------0---0--0-----|0------0---0--0---0--0---0-|
    G|1---1--1------1---1--1-----|1------1---1--1---1--1---1-|
    D|2---2--2------2---2--2-----|2------2---2--2---2--2---2-|
    A|2---2--2------2---2--2-----|2------2---2--2---2--2---2-|
    E|0---0--0------0---0--0-----|0------0---0--0---0--0---0-|

    e|------ ------ ------ ------|------ ------ ------ ------|
    B|---------------------------|---------------------------|
    G|---------------------------|---------------------------|
    D|---------------------------|---------------------------|
    A|----2---------2----------2-|----2---------2---2------2-|
    E|0------3/4-----------3/4---|0------4-------------4-----|
                                                    Well,  don't
                                                       honey

  
    e|0----- 0---0- 0----- 0-----|0---0- 0----- 0---0- 0---0-|
    B|0------0---0--0------0-----|0---0--0------0---0--0---0-|
    G|1------1---1--1------1-----|1---1--1------1---1--1---1-|
    D|2------2---2--2------2-----|2---2--2------2---2--2---2-|
    A|2------2---2--2------2-----|2---2--2------2---2--2---2-|
    E|0------0---0--0------0-----|0---0--0------0---0--0---0-|

    e|------ ------ ------ ------|------ ------ ------ ------|
    B|---------------------------|---------------------------|
    G|---------------------------|---------------------------|
    D|---------------------------|---------------------------|
    A|----2---------2----------2-|----2---------2----------2-|
    E|0------4-------------4-----|-------4-------------4-----|
                                         Well,         honey  



    e|3---3- 3----- 3----- 3--3--|----3- 3----- 3---3- 3-----|  
    B|2---2--2------2------2--2--|----2--2------2---2--2-----|
    G|2---2--2------2------2--2--|----2--2------2---2--2-----|
    D|2---2--2------2------2--2--|----2--2------2---2--2-----|
    A|0---0--0------0------0--0--|----0--0------0---0--0-----|
    E|---------------------------|---------------------------|

    e|------ ------ ------ ------|------ ------ ------ ------|
    B|---------------------------|---------------------------|
    G|---------------------------|---------------------------|
    D|----2---------2------4-----|5------4------2---2------2-|
    A|0------4-------------------|---------------------4-----|
    E|---------------------------|---------------------------|
      don't                           a  little little honey 


  
    e|0---0- 0----- 0----- ----0-|----0- 0---0- ----0- 0---0-|
    B|0---0--0------0------x---0-|----0--0---0------0--0---0-|
    G|1---1--1------1------x---1-|----1--1---1------1--1---0-|
    D|2---2--2------2------x---2-|----2--2---2------2--2---0-|
    A|2---2--2------2----------2-|----2--2---2------2--2-----|
    E|0---0--0------0----------0-|----0--0---0------0--0-----|

    e|------ ------ ------ ------|------ ------ ------ ------|
    B|---------------------------|---------------------------|
    G|---------------------------|---------------------------|
    D|---------------------------|2---2----------------------|
    A|----2---------2---2--------|-------4------2------------|
    E|0------3/4-----------------|---------------------4-----|
      don't,                                        I  say you



    e|2----- 2---2- 2----- 2-----|2----- 2---2- 2----- 2-----|
    B|0------0---0--0------0-----|0------0---0--0------0-----|
    G|2------2---2--2------2-----|2------2---2--2------2-----|
    D|1------1---1--1------1-----|1------1---1--1------1-----|
    A|2------2---2--2------2-----|2------2---2--2------2-----|
    E|---------------------------|---------------------------|

    e|------ ------ ------ ------|------ ------ ------ ------|
    B|---------------------------|---------------------------|
    G|---------------------------|---------------------------|
    D|---------------------------|---------------------------|
    A|2------0-------------4-----|2------0-------------------|
    E|--------------2------------|--------------4------2-----|
      will   you won't,        uh     huh           honey, don't.
          when           

                                                      (.
  
    e|0----- 0----- 0---0- 0-----|0----- 0---0- ------ 0-----|
    B|0------0------0---0--0-----|0------0---0---------0-----|
    G|1------1------1---1--1-----|1------1---1---------1-----|
    D|2------2------2---2--2-----|2------2---2---------2-----|
    A|2------2------2---2--2-----|2------2---2---------2-----|
    E|0------0------0---0--0-----|0------0---0---------0-----|

    e|------ ----0- ------ ------|------ ------ ------ ------|
    B|----0------0--0------0-----|0--------------------------|
    G|----4---------3------2-----|0H1------------------------|
    D|---------------------------|----2------2---------------|
    A|---------------------------|-------4-------------------|
    E|---------------------------|---------------------------|






        B  Bend
        R  Release
        /  Slide up
        \  Slide down
        H  Hammer-on
        P  Pull-off
        ~  Vibrato
        +  Harmonic
        x  Mute note
        .  Play note like a dot in standard notation
        ^  Ties two notes together
        (. Pause



    ----------------------------------------------------------

    THE BEATLES - EVERY LITTLE THING (Lennon & McCartney) From 
                  BEATLES FOR SALE album (Released on December 
                  4th 1964.)

    ----------------------------------------------------------


    Tabbed by: PJVillanueva

 
    
    John said in his 1980 Playboy interview that the song was
    from Paul, but Mcartney never mentioned it. The structure 
    of the verse looks like John's, but the chorus has Paul's 
    typical long intervals. Both John and Paul sing in unison
    in the verses and in fifths and fourths in the chorus.
    Some people said that George was not at the studio during
    the recording and that John played lead, but this has not 
    been properly documented. George's Rickenbacker twelve st
    was boosted in the midrange and also double tracked.
  

 
    When I'm walking beside her
    People tell me I'm lucky
    Yes I know I'm a lucky guy

    I remember the first time
    I was lonely without her
    Yes I'm thinking about her now
 
    Every little thing she does                           
    She does for me, yeah                   
    And you know the things she does                     
    She does for me, ooooh
 
    When I'm with her I'm happy
    Just to know that she loves 
    Yes I know that she loves me now

    There is one thing I'm sure of
    I will love her forever
    For I know love will never die 

    Every little thing she does                           
    She does for me, yeah                   
    And you know the things she does                     
    She does for me, ooh



                                            (.

   e|------- 0------ 0----0- ----0--|0------ 0------ ------- -------|
   B|--------5-------5----3------2--|2-------3----------------------|
   G|--------6-H-7---6----4------2--|2-------4----------------------|
   D|-------------------------------|-------------------------------|
   A|-------------------------------|-------------------------------|
   E|-------------------------------|-------------------------------|


     00:03                                
     A                               D       E
   e|0------ 0---0-- 0---0-- 0---0--|2------ 0------ ----0-- 0------|
   B|2-------2---2---2---2---2---2--|3-------0-----------0---0---0--|
   G|2-------2---2---2---2---2---2--|2-------1-----------1---1---0--|
   D|2-------2---2---2---2---2---2--|0-------2-----------2---2---0--|
   A|0-------0---0---0---0---0---0--|--------2-----------2---2------|
   E|-------------------------------|--------0-----------0---0------|
             When    walking     beside      her
                 I'm

     A                               G       D
   e|0------ 0---0-- 0---0-- 0------|3------ 2------ ----2-- 2------|
   B|2-------2---2---2---2---2------|0-------3-----------3---3---0--|
   G|2-------2---2---2---2---2------|0-------2-----------2---2---0--|
   D|2-------2---2---2---2---2------|0-------0-----------0---0---0--|
   A|0-------0---0---0---0---0------|2------------------------------|
   E|-------------------------------|3------------------------------|
             People  tell  I'm lucky
                         me

     Bm              Bm7             E               A
   e|2------ 2------ 2------ 2------|0------ 0---0-- 0------ 0---0--|
   B|3-------3-------3-------3------|0-------0---0---2-------2---2--|
   G|4-------4-------2-------2------|1-------1---1---2-------2---2--|
   D|4-------4-------4-------4------|2-------2---2---2-------2---2--|
   A|2-------2-------2-------2------|2-------2---2---0-------0---0--|
   E|-------------------------------|0-------0---0------------------|


     00:15

   e|0------ 0---0-- 0---0-- 0---0--|2------ 0------ ----0-- 0------|
   B|2-------2---2---2---2---2---2--|3-------0-----------0---0---0--|
   G|2-------2---2---2---2---2---2--|2-------1-----------1---1---0--|
   D|2-------2---2---2---2---2---2--|0-------2-----------2---2---0--|
   A|0-------0---0---0---0---0---0--|--------2-----------2---2------|
   E|-------------------------------|--------0-----------0---0------|
             I   remember        the first   time



   e|0------ 0------ 0------ 0------|3------ 2------ 2---2-- 2------|
   B|2-------2-------2-------2------|0-------3-------3---3---3---0--|
   G|2-------2-------2-------2------|0-------2-------2---2---2---0--|
   D|2-------2-------2-------2------|0-------0-------0---0---0---0--|
   A|0-------0-------0-------0------|2------------------------------|
   E|-------------------------------|3------------------------------|
             I   was lonely      without     her



   e|2------ 2------ 2------ 2------|0------ 0------ 0------ 0---0--|
   B|3-------3-------3-------3------|0-------0-------2-------2---2--|
   G|4-------4-------2-------2------|1-------1-------2-------2---2--|
   D|4-------4-------4-------4------|2-------2-------2-------2---2--|
   A|2-------2-------2-------2------|2-------2-------0-------0---0--|
   E|-------------------------------|0-------0----------------------|
             Yes I'm thinking    about   her     now

     00:27
     A                               G
   e|0------ 0---0-- 0---0-- 0------|3------ 3------ 3---3-- 3------|
   B|2-------2---2---2---2---2------|0-------0-------0---0---0------|
   G|2-------2---2---2---2---2------|0-------0-------0---0---0------|
   D|2-------2---2---2---2---2------|0-------0-------0---0---0------|
   A|0-------0---0---0---0---0------|2-------2-------2---2---2------|
   E|-------------------------------|3-------3-------3---3---3------|
             Every   little          thing       she does 
   e|9------ ------- ------- -------|9-\-7-- ----7-- ----7-- -------|
   B10------------------------------10-\-8-----------8-------8------|
   G|9------------------------------|9-\-7--------------------------|
   D|-------------------------------|-------------------------------|
   A|-------------------------------|-------------------------------|
   E|-------------------------------|-------------------------------|
 


                                     A
   e|3---3-- 3------ 3---3-- 3------|0---0-- 0---0-- 0------ 0---0--|
   B|0---0---0-------0---0---0------|2---2---2---2---2-------2---2--|
   G|0---0---0-------0---0---0------|2---2---2---2---2-------2---2--|
   D|0---0---0-------0---0---0------|2---2---2---2---2-------2---2--|
   A|2---2---2-------2---2---2------|0---0---0---0---0-------0---0--|
   E|3---3---3-------3---3---3------|-------------------------------|
                 she does    for     me,             yeah
   e|------- ----7-- ----7-- -------|7-/-9-- ------- 7-/-9-- -------|
   B|----------------8-------8------|8-/10-----------8-/10----------|
   G|-------------------------------|7-/-9-----------7-/-9----------|
   D|-------------------------------|-------------------------------|
   A|-------------------------------|-------------------------------|
   E|-------------------------------|-------------------------------|


     00:34
                                     G
   e|0---0-- 0---0-- 0---0-- 0------|3------ 3------ 3---3-- 3------|
   B|2---2---2---2---2---2---2------|0-------0-------0---0---0------|
   G|2---2---2---2---2---2---2------|0-------0-------0---0---0------|
   D|2---2---2---2---2---2---2------|0-------0-------0---0---0------|
   A|0---0---0---0---0---0---0------|2-------2-------2---2---2------|
   E|-------------------------------|3-------3-------3---3---3------|
             And you know    the     things      she does
   e|------- ------- ------- -------|9-\-7-- ----7-- ----7-- -------|
   B|-------------------------------10-\-8-----------8-------8------|
   G|-------------------------------|9-\-7--------------------------|
   D|-------------------------------|-------------------------------|
   A|-------------------------------|-------------------------------|
   E|-------------------------------|-------------------------------|



                                     A
   e|3---3-- 3------ 3---3-- 3---3--|0------ 0---0-- 0------ 0---0--|
   B|0---0---0-------0---0---0---0--|2-------2---2---2-------2---2--|
   G|0---0---0-------0---0---0---0--|2-------2---2---2-------2---2--|
   D|0---0---0-------0---0---0---0--|2-------2---2---2-------2---2--|
   A|2---2---2-------2---2---2---2--|0-------0---0---0-------0---0--|
   E|3---3---3-------3---3---3---3--|-------------------------------|
                 she does    for     me,             oooohh
   e|------- ----7-- ------- -------|7-/-9-- ------- 7-/-9-- -------|
   B|----------------8--------------|8-/10-----------8-/10----------|
   G|-------------------------------|7-/-9-----------7-/-9----------|
   D|-------------------------------|-------------------------------|
   A|-------------------------------|-------------------------------|
   E|-------------------------------|-------------------------------|


     00:42                                               

   e|0------ 0---0-- ----0-- 0------|2------ 0------ ----0-- 0------|
   B|2-------2---2-------2---2------|3-------0-----------0---0---0--|
   G|2-------2---2-------2---2------|2-------1-----------1---1---0--|
   D|2-------2---2-------2---2------|0-------2-----------2---2---0--|
   A|0-------0---0-------0---0------|--------2-----------2---2------|
   E|-------------------------------|--------0-----------0---0------|
             When    with her    I'm happy     
                 I'm


   e|0------ 0---0-- 0------ 0------|3------ 2---2-- ----2-- 2------|
   B|2-------2---2---2-------2------|0-------3---3-------3---3---0--|
   G|2-------2---2---2-------2------|0-------2---2-------2---2---0--|
   D|2-------2---2---2-------2------|0-------0---0-------0---0---0--|
   A|0-------0---0---0-------0------|2------------------------------|
   E|-------------------------------|3------------------------------|
             Just    know        she loves   me
                 to      that 
  

   e|2------ 2------ 2------ 2------|0---0-- 0---0-- 0------ 0------|
   B|3-------3-------3-------3------|0---0---0---0---2-------2------|
   G|4-------4-------2-------2------|1---1---1---1---2-------2---2--|
   D|4-------4-------4-------4------|2---2---2---2---2-------2---2--|
   A|2-------2-------2-------2------|2---2---2---2---0-------0---0--|
   E|-------------------------------|0---0---0---0------------------|
             Yes I   know        she loves   me  now
                         that

     00:54

   e|0------ 0------ 0---0-- 0---0--|2------ 0------ ----0-- 0------|
   B|2-------2-------2---2---2---2--|3-------0-----------0---0---0--|
   G|2-------2-------2---2---2---2--|2-------1-----------1---1---0--|
   D|2-------2-------2---2---2---2--|0-------2-----------2---2---0--|
   A|0-------0-------0---0---0---0--|--------2-----------2---2------|
   E|-------------------------------|--------0-----------0---0------|
             There   one thing   I'm sure    of 
                 is


   e|0------ 0---0-- 0---0-- ----0--|3------ 2------ ----2-- 2------|
   B|2-------2---2---2---2-------2--|0-------3-----------3---3---0--|
   G|2-------2---2---2---2-------2--|0-------2-----------2---2---0--|
   D|2-------2---2---2---2-------2--|0-------0-----------0---0---0--|
   A|0-------0---0---0---0-------0--|2------------------------------|
   E|-------------------------------|3------------------------------|
             I   will    her     forever
                     love


   e|2------ 2------ 2------ 2------|0------ 0------ 0------ 0---0--|
   B|3-------3-------3-------3------|0-------0-------2-------2---2--|
   G|4-------4-------2-------2------|1-------1-------2-------2---2--|
   D|4-------4-------4-------4------|2-------2-------2-------2---2--|
   A|2-------2-------2-------2------|2-------2-------0-------0---0--|
   E|-------------------------------|0-------0----------------------|
             For I   know        will            die 
                         love        never

     01:06

   e|0------ 0------ 0------ 0---0--|3------ 3------ 3---3-- 3------|
   B|2-------2-------2-------2---2--|0-------0-------0---0---0------|
   G|2-------2-------2-------2---2--|0-------0-------0---0---0------|
   D|2-------2-------2-------2---2--|0-------0-------0---0---0------|
   A|0-------0-------0-------0---0--|2-------2-------2---2---2------|
   E|-------------------------------|3-------3-------3---3---3------|
             Every   little          thing       she does
   e|9------ ------- ------- -------|9-\-7-- ----7-- ----7-- -------|
   B10------------------------------10-\-8-----------8-------8------|
   G|9------------------------------|9-\-7--------------------------|
   D|-------------------------------|-------------------------------|
   A|-------------------------------|-------------------------------|
   E|-------------------------------|-------------------------------|

  


   e|3---3-- 3------ 3---3-- 3---3--|0---0-- 0---0-- 0------ 0---0--|
   B|0---0---0-------0---0---0---0--|2---2---2---2---2-------2---2--|
   G|0---0---0-------0---0---0---0--|2---2---2---2---2-------2---2--|
   D|0---0---0-------0---0---0---0--|2---2---2---2---2-------2---2--|
   A|2---2---2-------2---2---2---2--|0---0---0---0---0-------0---0--|
   E|3---3---3-------3---3---3---3--|-------------------------------|
                 she does    for     me,             yeah
   e|------- ----7-- ------- 7------|7-/-9-- ------- 7-/-9-- -------|
   B|----------------8-------8------|8-/10-----------8-/10----------|
   G|-------------------------------|7-/-9-----------7-/-9----------|
   D|-------------------------------|-------------------------------|
   A|-------------------------------|-------------------------------|
   E|-------------------------------|-------------------------------|


     

   e|0---0-- 0---0-- 0---0-- 0------|3------ 3------ 3---3-- 3------|
   B|2---2---2---2---2---2---2------|0-------0-------0---0---0------|
   G|2---2---2---2---2---2---2------|0-------0-------0---0---0------|
   D|2---2---2---2---2---2---2------|0-------0-------0---0---0------|
   A|0---0---0---0---0---0---0------|2-------2-------2---2---2------|
   E|-------------------------------|3-------3-------3---3---3------|
             And you know    the     things      she does
   e|------- ------- ------- -------|9-\-7-- ----7-- ------- -------|
   B|-------------------------------10-\-8-----------8--------------|
   G|-------------------------------|9-\-7--------------------------|
   D|-------------------------------|-------------------------------|
   A|-------------------------------|-------------------------------|
   E|-------------------------------|-------------------------------|




   e|3---3-- 3------ 3---3-- 3---3--|0------ 0---0-- 0------ 0---0--|
   B|0---0---0-------0---0---0---0--|2-------2---2---2-------2---2--|
   G|0---0---0-------0---0---0---0--|2-------2---2---2-------2---2--|
   D|0---0---0-------0---0---0---0--|2-------2---2---2-------2---2--|
   A|2---2---2-------2---2---2---2--|0-------0---0---0-------0---0--|
   E|3---3---3-------3---3---3---3--|-------------------------------|
                 she does    for     me,             oooohh
   e|------- ----7-- ------- -------|7-/-9-- ------- 7-/-9-- -------|
   B|----------------8-------8------|8-/10-----------8-/10----------|
   G|-------------------------------|7-/-9-----------7-/-9----------|
   D|-------------------------------|-------------------------------|
   A|-------------------------------|-------------------------------|
   E|-------------------------------|--------------------0---2---4--|

     SOLO
     01:21

   e|0------ 0------ 0------ 0---0--|2------ 0------ ----0-- 0------|
   B|2-------2-------2-------2---2--|3-------0-----------0---0------|
   G|2-------2-------2-------2---2--|2-------1-----------1---1------|
   D|2-------2-------2-------2---2--|0-------2-----------2---2------|
   A|0-------0-------0-------0---0--|--------2-----------2---2------|
   E|-------------------------------|--------0-----------0---0------|

   e|------- 0------ 0---0-- ----0--|0------ 0------ ------- -------|
   B|--------5-------5---3-------2--|2-------3----------------------|
   G|--------6-H-7---6---4-------2--|2-------4----------------------|
   D|-------------------------------|-------------------------------|
   A|0------------------------------|-------------------------------|
   E|-------------------------------|-------------------------------|

   e|------- 0---0-- 0---0-- ----0--|0------ 0------ ------- -------|
   B|-------14-/15--14--12------10--10---/--12----------------------|
   G|-------------------------------|-------------------------------|
   D|-------------------------------|-------------------------------|
   A|-------------------------------|-------------------------------|
   E|-------------------------------|-------------------------------|





   e|0------ 0---0-- 0---0-- 0---0--|3------ 2------ 2---2-- ----2--|
   B|2-------2---2---2---2---2---2--|0-------3-------3---3-------3--|
   G|2-------2---2---2---2---2---2--|0-------2-------2---2-------2--|
   D|2-------2---2---2---2---2---2--|0-------0-------0---0-------0--|
   A|0-------0---0---0---0---0---0--|2------------------------------|
   E|-------------------------------|3------------------------------|

   e|------- 0------ 0---0-- ----0--|------- ------- ------- -------|
   B|--------5-------5---3-------2--|3-------3----------------------|
   G|--------6-H-7---6---4-------2--|4-------2----------------------|
   D|-------------------------------|5-------4----------------------|
   A|-------------------------------|-------------------------------|
   E|-------------------------------|-------------------------------|

   e|------- 0---0-- 0---0-- ----0--|------- ------- ------- -------|
   B|-------14--15--14--12------10--12------10----------------------|
   G|-------------------------------12------11----------------------|
   D|-------------------------------12------12----------------------|
   A|-------------------------------|-------------------------------|
   E|-------------------------------|-------------------------------|





   e|2------ 2---2-- 2------ 2------|0------ 0---0-- 0------ 0---0--|
   B|3-------3---3---3-------3------|0-------0---0---2-------2---2--|
   G|4-------4---4---2-------2------|1-------1---1---2-------2---2--|
   D|4-------4---4---4-------4------|2-------2---2---2-------2---2--|
   A|2-------2---2---2-------2------|2-------2---2---0-------0---0--|
   E|-------------------------------|0-------0---0------------------|

   e|------- ------- ------- -------|------- ------- 0------ -------|
   B|-----3---------------3---------|-----0----3-----2--------------|
   G|4---------4-----2---------2----|1------------------------------|
   D|-------------------------------|-------------------------------|
   A|-------------------------------|-------------------------------|
   E|-------------------------------|-------------------------------|

   e|------- ------- ------- -------|------- ------- ------- -------|
   B|3----3----3-----3----3----3----|0----0----3-----2--------------|
   G|-------------------------------|----------------2--------------|
   D|-------------------------------|-------------------------------|
   A|-------------------------------|-------------------------------|
   E|-------------------------------|-------------------------------|



     01:33                                                          

   e|0------ 0------ 0------ 0---0--|3------ 3------ 3---3-- 3------|
   B|2-------2-------2-------2---2--|0-------0-------0---0---0------|
   G|2-------2-------2-------2---2--|0-------0-------0---0---0------|
   D|2-------2-------2-------2---2--|0-------0-------0---0---0------|
   A|0-------0-------0-------0---0--|2-------2-------2---2---2------|
   E|-------------------------------|3-------3-------3---3---3------|
             Every   little          thing       she does
   e|------- ------- ------- -------|9-\-7-- ----7-- ------- -------|
   B|-------------------------------10-\-8-------------------8------|
   G|-------------------------------|9-\-7--------------------------|
   D|-------------------------------|-------------------------------|
   A|-------------------------------|-------------------------------|
   E|-------------------------------|-------------------------------|

  


   e|3---3-- 3------ 3---3-- 3------|0---0-- 0---0-- 0---0-- 0---0--|
   B|0---0---0-------0---0---0------|2---2---2---2---2---2---2---2--|
   G|0---0---0-------0---0---0------|2---2---2---2---2---2---2---2--|
   D|0---0---0-------0---0---0------|2---2---2---2---2---2---2---2--|
   A|2---2---2-------2---2---2------|0---0---0---0---0---0---0---0--|
   E|3---3---3-------3---3---3------|-------------------------------|
                 she does    for     me,             yeah
   e|------- ----7-- ------- -------|7-/-9-- ------- 7-/-9-- ----9--|
   B|------------------------8------|8-/10-----------8-/10------10--|
   G|-------------------------------|7-/-9-----------7-/-9-------9--|
   D|-------------------------------|-------------------------------|
   A|-------------------------------|-------------------------------|
   E|-------------------------------|-------------------------------|


     

   e|0---0-- 0---0-- 0---0-- 0---0--|3------ 3------ 3------ 3------|
   B|2---2---2---2---2---2---2---2--|0-------0-------0-------0------|
   G|2---2---2---2---2---2---2---2--|0-------0-------0-------0------|
   D|2---2---2---2---2---2---2---2--|0-------0-------0-------0------|
   A|0---0---0---0---0---0---0---0--|2-------2-------2-------2------|
   E|-------------------------------|3-------3-------3-------3------|
             And you know    the     things      she does
   e|------- ------- ------- -------|9-\-7-- ----7-- ------- ----7--|
   B|-------10----------------------10-\-8-----------8--------------|
   G|--------9----------------------|9-\-7--------------------------|
   D|-------------------------------|-------------------------------|
   A|-------------------------------|-------------------------------|
   E|-------------------------------|-------------------------------|




   e|3---3-- 3------ 3------ 3------|0------ 0---0-- 0---0-- 0---0--|
   B|0---0---0-------0-------0------|2-------2---2---2---2---2---2--|
   G|0---0---0-------0-------0------|2-------2---2---2---2---2---2--|
   D|0---0---0-------0-------0------|2-------2---2---2---2---2---2--|
   A|2---2---2-------2-------2------|0-------0---0---0---0---0---0--|
   E|3---3---3-------3-------3------|-------------------------------|
                 she does    for     me,             oooohh
   e|------- ----7-- ----7-- -------|7-/-9-- ------- 7-/-9-- -------|
   B|----------------8-------8------|8-/10-----------8-/10----------|
   G|-------------------------------|7-/-9-----------7-/-9----------|
   D|-------------------------------|-------------------------------|
   A|-------------------------------|-------------------------------|
   E|-------------------------------|-------------------------------|


     01:48               
                     
   e|0------ ----0-- 0---0-- 0---0--|2------ 0------ 0------ 0------|
   B|2-----------2---2---2---2---2--|3-------0-------0-------0------|
   G|2-----------2---2---2---2---2--|2-------1-------1-------1------|
   D|2-----------2---2---2---2---2--|0-------2-------2-------2------|
   A|0-----------0---0---0---0---0--|--------2-------2-------2------|
   E|-------------------------------|--------0-------0-------0------|
                                                     Every   little
   e|------- 0------ 0----0- ----0--|0------ 0------ ------- -------|
   B|--------5-------5----3------2--|2-/-3---3----------------------|
   G|--------6-H-7---6----4------2--|2-/-4---4----------------------|
   D|-------------------------------|-------------------------------|
   A|-------------------------------|-------------------------------|
   E|-------------------------------|-------------------------------|




   e|0------ ----0-- ----0-- 0---0--|2------ 0------ 0------ 0------|
   B|2-----------2-------2---2---2--|3-------0-------0-------0------|
   G|2-----------2-------2---2---2--|2-------1-------1-------1------|
   D|2-----------2-------2---2---2--|0-------2-------2-------2------|
   A|0-----------0-------0---0---0--|--------2-------2-------2------|
   E|-------------------------------|--------0-------0-------0------|
     thing                                           Every   little
   e|------- 0------ 0----0- ----0--|0------ 0------ ------- -------|
   B|--------5-------5----3------2--|2-/-3---3----------------------|
   G|--------6-H-7---6----4------2--|2-/-4---4----------------------|
   D|-------------------------------|-------------------------------|
   A|-------------------------------|-------------------------------|
   E|-------------------------------|-------------------------------|
     .......................... Fade out ...........................




   e|0------ 0---0-- ----0-- 0---0--|2------ 0------ ------- -------|
   B|2-------2---2-------2---2---2--|3-------0----------------------|
   G|2-------2---2-------2---2---2--|2-------1----------------------|
   D|2-------2---2-------2---2---2--|0-------2----------------------|
   A|0-------0---0-------0---0---0--|--------2----------------------|
   E|-------------------------------|--------0----------------------|
     thing
   e|------- 0------ 0----0- ----0--|0------ 4------ ------- -------|
   B|--------5-------5----3------2--|2-/-3---3----------------------|
   G|--------6-H-7---6----4------2--|2-/-4---4----------------------|
   D|-------------------------------|-------------------------------|
   A|-------------------------------|-------------------------------|
   E|-------------------------------|-------------------------------|
     .........................................





        B  Bend
        R  Release
        /  Slide up
        \  Slide down
        H  Hammer-on
        P  Pull-off
        ~  Vibrato
        +  Harmonic
        x  Mute note
        .  Play note like a dot in standard notation
        ^  Ties two notes together
        (. Pause



  ------------------------------------------------------------------

  THE BEATLES - I DON'T WANT TO SPOIL THE PARTY (Lennon & McCartney)
                From BEATLES FOR SALE album. Released December, 4th
                1964. 
             
  ------------------------------------------------------------------
 
  Tabbed by:PJVillanueva
 
 
 

  I don't want to spoil the party so I'll go,
  I would hate my disappointment to show,
  There's nothing for me here so I will disappear,
  If she turns up while I'm gone please let me know.

  I've had a drink or two and I don't care,
  There's no fun in what I do if she's not there,
  I wonder what went wrong I've waited far too long,
  I think I'll take a walk and look for her.

  Though tonight she's made me sad,
  I still love her,
  If I find her I'll be glad,
  I still love her.

  I don't want to spoil the party so I'll go,
  I would hate my disappointment to show,
  There's nothing for me here so I will disappear,
  If she turns up while I'm gone please let me know.

  Though tonight she's made me sad,
  I still love her,
  If I find her I'll be glad,
  I still love her.

  I've had a drink or two and I don't care,
  There's no fun in what I do if she's not there,
  I wonder what went wrong I've waited far too long,
  I think I'll take a walk and look for her.



  INTRO

e|3------ 3---3-- ----3-- 3------|------- 3------ ------- 3------|
B|3-------3---3-------3---3------|--------0---------------3------|
G|0-------0---0-------0---0------|--------0---------------0------|
D|0-------0---0-------0---0------|--------0---------------0------|
A|2-------2---2-------2---2------|--------2---------------2------|
E|3-------3---3-------3---3------|--------3---------------3------|

e|------- ------- ------- -------|------- ------- ------- -------|
B|-------------------------------|--------0-------3-------0------|
G|-------------------------------|0---------------------------7-\|
D|-------------------------------|3---------------2--------------|
A|-------------------------------|-------------------------------|
E|-------------------------------|-------------------------------|


 
e|------- 3------ 3---3-- 3------|------- 3------ ------- 3------|
B|--------1-------1---1---1------|--------1---------------1------|
G|--------2-------2---2---2------|--------2---------------2------|
D|--------0-------0---0---0------|--------0---------------0------|
A|-------------------------------|-------------------------------|
E|-------------------------------|-------------------------------|

e|------- ------- ------- -------|------- ------- ------- -------|
B|-------------------------------|----------------1--------------|
G|5------------------------------|2------------------------------|
D|0------------------------------|3---------------2--------------|
A|-------------------------------|-------------------------------|
E|-------------------------------|-------------------------------|


        
 
e|------- 2---2-- ----2-- 2------|------- 2------ ------- 2------|
B|--------3---3-------3---3------|--------3-------3-------1------|
G|2-------2---2-------2---2------|--------2-------2-------2------|
D|0-------0---0-------0---0------|--------0---------------0------|
A|-------------------------------|-------------------------------|
E|-------------------------------|-------------------------------|

e|------- ------- ------- -------|------- ------- ------- -------|
B|-------------------------------|3------------------------------|
G|2-------2---2---2-------2------|----------------5--------------|
D|0-------0---0---0-------0------|2---------------4--------------|
A|-------------------------------|------------------------0------|
E|-------------------------------|-------------------------------|

 
  00:07
  G
e|3------ 3------ 3---3-- 3---3--|3------ 3------ 3------ 3------|
B|3-------3-------3---3---3---3--|3-------3-------3-------3------|
G|0-------0-------0---0---0---0--|0-------0-------0-------0------|
D|0-------0-------0---0---0---0--|0-------0-------0-------0------|
A|2-------2-------2---2---2---2--|2-------2-------2-------2------|
E|3-------3-------3---3---3---3--|3-------3-------3-------3------|
                                                  I       don't 
                                                              want


e|3------ 3------ 3---3-- 3---3--|3------ 3------ 3---3-- 3---3--|
B|3-------3-------3---3---3---3--|3-------3-------3---3---3---3--|
G|0-------0-------0---0---0---0--|0-------0-------0---0---0---0--|
D|0-------0-------0---0---0---0--|0-------0-------0---0---0---0--|
A|2-------2-------2---2---2---2--|2-------2-------2---2---2---2--|
E|3-------3-------3---3---3---3--|3-------3-------3---3---3---3--|
          to      spoil   the party               so  I'll    go



e|3------ 3------ 3---3-- 3---3--|3------ 3------ 3------ 3------|
B|3-------3-------3---3---3---3--|3-------3-------3-------3------|
G|0-------0-------0---0---0---0--|0-------0-------0-------0------|
D|0-------0-------0---0---0---0--|0-------0-------0-------0------|
A|2-------2-------2---2---2---2--|2-------2-------2-------2------|
E|3-------3-------3---3---3---3--|3-------3-------3-------3------|
                                                  I       Would 
                                                              hate


e|3------ 3------ 3---3-- 3---3--|3------ 3------ 3---3-- 3------|
B|3-------3-------3---3---3---3--|3-------3-------3---3---3------|
G|0-------0-------0---0---0---0--|0-------0-------0---0---0------|
D|0-------0-------0---0---0---0--|0-------0-------0---0---0------|
A|2-------2-------2---2---2---2--|2-------2-------2---2---2------|
E|3-------3-------3---3---3---3--|3-------3-------3---3---3------|
          my      dissapointment                      to      show


  D
e|2------ 2------ 2---2-- 2---2--|2------ 2---2-- 2---2-- 2------|
B|3-------3-------3---3---3---3--|3-------3---3---3---3---3------|
G|2-------2-------2---2---2---2--|2-------2---2---2---2---2------|
D|0-------0-------0---0---0---0--|0-------0---0---0---0---0------|
A|-------------------------------|-------------------------------|
E|-------------------------------|-------------------------------|
                                                              There's 
e|------- ------- ------- -------|------- ------- ------- -------|
B|--------6-----------6----------|6-----------6-------6----------|
G|--------5-----------5----------|5-----------5-------5----------|
D|--------4-----------4----------|4-----------4-------4----------|
A|5------------------------------|0------------------------------|
E|-------------------------------|-------------------------------|


  00:20
  Em                              B7
e|0------ 0---0-- 0---0-- 0---0--|2------ 2---2-- ----2-- 2---0--|
B|0-------0---0---0---0---0---0--|0-------0---0-------0---0---1--|
G|0-------0---0---0---0---0---0--|2-------2---2-------2---2---2--|
D|2-------2---2---2---2---2---2--|1-------1---1-------1---1---2--|
A|2-------2---2---2---2---2---2--|2-------2---2-------2---2---0--|
E|0-------0---0---0---0---0---0--|-------------------------------|
  nothing         for     me  here                            So


  Am7                             D
e|0------ 0------ 0---0-- 0---0--|2------ 2------ 2---2-- 2------|
B|1-------1-------1---1---1---1--|3-------3-------3---3---3------|
G|2-------2-------2---2---2---2--|2-------2-------2---2---2------|
D|2-------2-------2---2---2---2--|0-------0-------0---0---0------|
A|0-------0-------0---0---0---0--|-------------------------------|
E|-------------------------------|-------------------------------|
  I       will    dissappear                      If      she turns


  G                               F9
e|3------ 3------ 3---3-- 3------|3------ 3------ 3---3-- 3------|
B|3-------3-------3---3---3------|1-------1-------1---1---1------|
G|0-------0-------0---0---0------|2-------2-------2---2---2------|
D|0-------0-------0---0---0------|1-------1-------1---1---1------|
A|2-------2-------2---2---2------|3-------3-------3---3---3------|
E|3-------3-------3---3---3------|1-------1-------1---1---1------|
          up      while       gone,       please, let     me  know
                      I'm 

  G
e|3------ 3---3-- 3---3-- 3---3--|3------ 3------ 3---3-- 3------|
B|3-------3---3---3---3---3---3--|3-------3-------3---3---3------|
G|0-------0---0---0---0---0---0--|0-------0-------0---0---0------|
D|0-------0---0---0---0---0---0--|0-------0-------0---0---0------|
A|2-------2---2---2---2---2---2--|2-------2-------2---2---2------|
E|3-------3---3---3---3---3---3--|3-------3-------3---3---3------|   
                                                              I


  00:29

e|3------ 3------ ----3-- 3---3--|3------ 3---3-- 3---3-- 3------|
B|3-------3-----------3---3---3--|3-------3---3---3---3---3------|
G|0-------0-----------0---0---0--|0-------0---0---0---0---0------|
D|0-------0-----------0---0---0--|0-------0---0---0---0---0------|
A|2-------2-----------2---2---2--|2-------2---2---2---2---2------|
E|3-------3-----------3---3---3--|3-------3---3---3---3---3------|
  had a       drink   or      two         and I       don't   care 
       


e|3------ 3------ 3---3-- 3---3--|3------ 3------ 3------ 3------|
B|3-------3-------3---3---3---3--|3-------3-------3-------3------|
G|0-------0-------0---0---0---0--|0-------0-------0-------0------|
D|0-------0-------0---0---0---0--|0-------0-------0-------0------|
A|2-------2-------2---2---2---2--|2-------2-------2-------2------|
E|3-------3-------3---3---3---3--|3-------3-------3-------3------|
                                                  there's no  
              


e|3------ 3---3-- 3---3-- 3---3--|3------ 3---3-- 3---3-- 3------|
B|3-------3---3---3---3---3---3--|3-------3---3---3---3---3------|
G|0-------0---0---0---0---0---0--|0-------0---0---0---0---0------|
D|0-------0---0---0---0---0---0--|0-------0---0---0---0---0------|
A|2-------2---2---2---2---2---2--|2-------2---2---2---2---2------|
E|3-------3---3---3---3---3---3--|3-------3---3---3---3---3------|
  fun     in      what        do          If      she's   not        
                      I

  D
e|2------ 2---2-- 2---2-- ----2--|2------ 2------ 2---2-- 2------|
B|3-------3---3---3---3-------3--|3-------3-------3---3---3------|
G|2-------2---2---2---2-------2--|2-------2-------2---2---2------|
D|0-------0---0---0---0-------0--|0-------0-------0---0---0------|
A|-------------------------------|-------------------------------|
E|-------------------------------|-------------------------------|
  there                                                       I 
e|------- ------- ------- -------|------- ------- ------- -------|
B|--------6-----------6----------|6-----------6-------6----------|
G|--------5-----------5----------|5-----------5-------5----------|
D|--------4-----------4----------|4-----------4-------4----------|
A|5------------------------------|0------------------------------|
E|-------------------------------|-------------------------------|

                                                           
  00:39
  Em                              B7
e|0------ 0---0-- 0---0-- 0------|2------ 2---2-- 2---2-- 2---0--|
B|0-------0---0---0---0---0------|0-------0---0---0---0---0---1--|
G|0-------0---0---0---0---0------|2-------2---2---2---2---2---2--|
D|2-------2---2---2---2---2------|1-------1---1---1---1---1---2--|
A|2-------2---2---2---2---2------|2-------2---2---2---2---2---0--|
E|0-------0---0---0---0---0------|-------------------------------|
  wonder      what    went    wrong                           I've


  C                               D
e|0------ 0---0-- 0---0-- 0---0--|2------ 2---2-- 2---2-- 2------|
B|1-------1---1---1---1---1---1--|3-------3---3---3---3---3------|
G|2-------2---2---2---2---2---2--|2-------2---2---2---2---2------|
D|2-------2---2---2---2---2---2--|0-------0---0---0---0---0------|
A|0-------0---0---0---0---0---0--|-------------------------------|
E|-------------------------------|-------------------------------|
  waited      far     too     long                            I


  G                               F9
e|3------ 3------ 3---3-- 3------|3------ 3---3-- 3---3-- 3---3--|
B|3-------3-------3---3---3------|1-------1---1---1---1---1---1--|
G|0-------0-------0---0---0------|2-------2---2---2---2---2---2--|
D|0-------0-------0---0---0------|1-------1---1---1---1---1---1--|
A|2-------2-------2---2---2------|3-------3---3---3---3---3---3--|
E|3-------3-------3---3---3------|1-------1---1---1---1---1---1--|
  Think   I'll    take    a   walk        and     look    for her 
     

  G
e|3------ 3---3-- 3---3-- 3---3--|3------ 3------ 3------ 3------|
B|3-------3---3---3---3---3---3--|3-------3-------3-------3------|
G|0-------0---0---0---0---0---0--|0-------0-------0-------0------|
D|0-------0---0---0---0---0---0--|0-------0-------0-------0------|
A|2-------2---2---2---2---2---2--|2-------2-------2-------2------|
E|3-------3---3---3---3---3---3--|3-------3-------3-------3------|
                                                  Though  tonight

  00:49

e|3------ 3------ 3------ 3------|3------ 3---3-- 3---3-- 3------|
B|3-------3-------3-------3------|3-------3---3---3---3---3------|
G|0-------0-------0-------0------|0-------0---0---0---0---0------|
D|0-------0-------0-------0------|0-------0---0---0---0---0------|
A|2-------2-------2-------2------|2-------2---2---2---2---2------|
E|3-------3-------3-------3------|3-------3---3---3---3---3------|
          she's   make    me  sad             


  Em                              A
e|0------ 0---0-- ----0-- 0------|0------ 0---0-- ----0-- 0------|
B|0-------0---0-------0---0------|2-------2---2-------2---2------|
G|0-------0---0-------0---0------|2-------2---2-------2---2------|
D|2-------2---2-------2---2------|2-------2---2-------2---2------|
A|2-------2---2-------2---2------|0-------0---0-------0---0------|
E|0-------0---0-------0---0------|-------------------------------|
  I                               still

 
  C                               D
e|0------ 0---0-- 0---0-- 0------|2------ 2---2-- 2---2-- 2------|
B|1-------1---1---1---1---1------|3-------3---3---3---3---3------|
G|0-------0---0---0---0---0------|2-------2---2---2---2---2------|
D|2-------2---2---2---2---2------|0-------0---0---0---0---0------|
A|3-------3---3---3---3---3------|-------------------------------|
E|3-------3---3---3---3---3------|-------------------------------|
  love                        her                 If  I       find


  00:57
  G
e|3------ 3------ 3------ 3------|3------ 3---3-- 3---3-- 3------|
B|3-------3-------3-------3------|3-------3---3---3---3---3------|
G|0-------0-------0-------0------|0-------0---0---0---0---0------|
D|0-------0-------0-------0------|0-------0---0---0---0---0------|
A|2-------2-------2-------2------|2-------2---2---2---2---2------|
E|3-------3-------3-------3------|3-------3---3---3---3---3------|
          her I'll        be  glad  
       

  Em                              A
e|0------ 0---0-- ----0-- 0------|0------ 0---0-- ----0-- 0------|
B|0-------0---0-------0---0------|2-------2---2-------2---2------|
G|0-------0---0-------0---0------|2-------2---2-------2---2------|
D|2-------2---2-------2---2------|2-------2---2-------2---2------|
A|2-------2---2-------2---2------|0-------0---0-------0---0------|
E|0-------0---0-------0---0------|-------------------------------|
  I                               still


  C                               D
e|0------ 0---0-- ----0-- 0------|2------ 2---2-- 2---2-- 2---2--|
B|1-------1---1-------1---1------|3-------3---3---3---3---3---3--|
G|0-------0---0-------0---0------|2-------2---2---2---2---2---2--|
D|2-------2---2-------2---2------|0-------0---0---0---0---0---0--|
A|3-------3---3-------3---3------|-------------------------------|
E|3-------3---3-------3---3------|-------------------------------|
  love                            her             I       don't 
                                                              want

  01:04
  G
e|3------ 3------ 3------ 3------|3------ 3------ 3------ 3------|
B|3-------3-------3-------3------|3-------3-------3-------3------|
G|0-------0-------0-------0------|0-------0-------0-------0------|
D|0-------0-------0-------0------|0-------0-------0-------0------|
A|2-------2-------2-------2------|2-------2-------2-------2------|
E|3-------3-------3-------3------|3-------3-------3-------3------|
          to      spoil   the party               so  I'll    go



e|3------ 3---3-- 3------ 3---3--|3------ 3------ 3------ 3------|
B|3-------3---3---3-------3---3--|3-------3-------3-------3------|
G|0-------0---0---0-------0---0--|0-------0-------0-------0------|
D|0-------0---0---0-------0---0--|0-------0-------0-------0------|
A|2-------2---2---2-------2---2--|2-------2-------2-------2------|
E|3-------3---3---3-------3---3--|3-------3-------3-------3------|
                                                  I       Would 
                                                              hate


e|3------ 3------ 3---3-- 3------|3------ 3------ 3---3-- 3------|
B|3-------3-------3---3---3------|3-------3-------3---3---3------|
G|0-------0-------0---0---0------|0-------0-------0---0---0------|
D|0-------0-------0---0---0------|0-------0-------0---0---0------|
A|2-------2-------2---2---2------|2-------2-------2---2---2------|
E|3-------3-------3---3---3------|3-------3-------3---3---3------|
          my      dissapointment                      to      show


  D
e|2------ 2---2-- ----2-- 2---2--|2------ 2------ 2---2-- 2------|
B|3-------3---3-------3---3---3--|3-------3-------3---3---3------|
G|2-------2---2-------2---2---2--|2-------2-------2---2---2------|
D|0-------0---0-------0---0---0--|0-------0-------0---0---0------|
A|-------------------------------|-------------------------------|
E|-------------------------------|-------------------------------|
                                                              There's
e|------- ------- ------- -------|------- ------- ------- -------|
B|--------6-----------6----------|6-----------6-------6----------|
G|--------5-----------5----------|5-----------5-------5----------|
D|--------4-----------4----------|4-----------4-------4----------|
A|5------------------------------|0------------------------------|
E|-------------------------------|-------------------------------|


  01:14
  Em                              B7
e|0------ 0---0-- 0---0-- 0---0--|2------ 2------ 2---2-- 2---2--|
B|0-------0---0---0---0---0---0--|0-------0-------0---0---0---0--|
G|0-------0---0---0---0---0---0--|2-------2-------2---2---2---2--|
D|2-------2---2---2---2---2---2--|1-------1-------1---1---1---1--|
A|2-------2---2---2---2---2---2--|2-------2-------2---2---2---2--|
E|0-------0---0---0---0---0---0--|-------------------------------|
  nothing     for         me  here                            So


  Am                              D
e|0------ 0------ 0---0-- 0------|2------ 2------ 2---2-- 2------|
B|1-------1-------1---1---1------|3-------3-------3---3---3------|
G|2-------2-------2---2---2------|2-------2-------2---2---2------|
D|2-------2-------2---2---2------|0-------0-------0---0---0------|
A|0-------0-------0---0---0------|-------------------------------|
E|-------------------------------|-------------------------------|
  I       will    dissappear                      If      she turns


  G                               F9
e|3------ 3------ 3---3-- 3------|3------ 3------ 3---3-- 3------|
B|3-------3-------3---3---3------|1-------1-------1---1---1------|
G|0-------0-------0---0---0------|2-------2-------2---2---2------|
D|0-------0-------0---0---0------|1-------1-------1---1---1------|
A|2-------2-------2---2---2------|3-------3-------3---3---3------|
E|3-------3-------3---3---3------|1-------1-------1---1---1------|
          up      while       gone,       please, let     me  know
                      I'm

                                  SOLO
                                  01:23
  G
e|3------ 3---3-- 3---3-- 3---3--|3------ 3------ 3------ 3------|
B|3-------3---3---3---3---3---3--|3-------3-------3-------3------|
G|0-------0---0---0---0---0---0--|0-------0-------0-------0------|
D|0-------0---0---0---0---0---0--|0-------0-------0-------0------|
A|2-------2---2---2---2---2---2--|2-------2-------2-------2------|
E|3-------3---3---3---3---3---3--|3-------3-------3-------3------|   
                                                              
e|------- ------- ------- -------|------- ------- ------- -------|
B|-------------------------------|--------0-------1-------2------|
G|-------------------------------|--------0-------2-------3------|
D|-------------------------------|-------------------------------|
A|-------------------------------|-------------------------------|
E|-------------------------------|-------------------------------|




e|3------ 3------ 3---3-- 3---3--|3------ 3---3-- 3---3-- 3------|
B|3-------3-------3---3---3---3--|3-------3---3---3---3---3------|
G|0-------0-------0---0---0---0--|0-------0---0---0---0---0------|
D|0-------0-------0---0---0---0--|0-------0---0---0---0---0------|
A|2-------2-------2---2---2---2--|2-------2---2---2---2---2------|
E|3-------3-------3---3---3---3--|3-------3---3---3---3---3------|

e|------- ------- ------- -------|------- ------- ------- -------|
B|--------3-----------3----------|5-------3-------0-------1------|
G|--------4-----------4----------|5-------4-------0-------2------|
D|0---------------0--------------|-------------------------------|
A|-------------------------------|-------------------------------|
E|-------------------------------|-------------------------------|




e|3------ 3------ 3---3-- 3---3--|3------ 3------ 3---3-- 3------|
B|3-------3-------3---3---3---3--|3-------3-------3---3---3------|
G|0-------0-------0---0---0---0--|0-------0-------0---0---0------|
D|0-------0-------0---0---0---0--|0-------0-------0---0---0------|
A|2-------2-------2---2---2---2--|2-------2-------2---2---2------|
E|3-------3-------3---3---3---3--|3-------3-------3---3---3------|

e|------- ------- ------- -------|------- ------- ------- -------|
B|--------3-P-0-------3-P-0------|3-------0-------1-------2------|
G|0------------------------------|--------0-------2-------3------|
D|-------------------------------|-------------------------------|
A|-------------------------------|-------------------------------|
E|-------------------------------|-------------------------------|




e|3------ 3---3-- 3------ 3------|3------ 3---3-- 3------ 3------|
B|3-------3---3---3-------3------|3-------3---3---3-------3------|
G|0-------0---0---0-------0------|0-------0---0---0-------0------|
D|0-------0---0---0-------0------|0-------0---0---0-------0------|
A|2-------2---2---2-------2------|2-------2---2---2-------2------|
E|3-------3---3---3-------3------|3-------3---3---3-------3------|

e|------- ------- ------- -------|------- ------- ------- -------|
B|--------3-----------3----------|5-------3----------------------|
G|0-------4-----------4----------|5-------4-------0-------2------|
D|-------------------------------|-------------------------------|
A|-------------------------------|-------------------------------|
E|-------------------------------|-------------------------------|



  D
e|2------ 2---2-- 2------ 2------|2------ 2------ 2------ 2------|
B|3-------3---3---3-------3------|3-------3-------3-------3------|
G|2-------2---2---2-------2------|2-------2-------2-------2------|
D|0-------0---0---0-------0------|0-------0-------0-------0------|
A|-------------------------------|-------------------------------|
E|-------------------------------|-------------------------------|

e|------- 0------ ----0-- -------|1------ ----1-- ----1-- -------|
B|--------1-----------1----------|1-----------1-------1----------|
G|-------------------------------|-------------------------------|
D|4------------------------------|-------------------------------|
A|-------------------------------|-------------------------------|
E|-------------------------------|-------------------------------|



  Em                              B7
e|0------ 0---0-- 0---0-- 0------|2------ 2---2-- 2---2-- 2------|
B|0-------0---0---0---0---0------|0-------0---0---0---0---0------|
G|0-------0---0---0---0---0------|2-------2---2---2---2---2------|
D|2-------2---2---2---2---2------|1-------1---1---1---1---1------|
A|2-------2---2---2---2---2------|2-------2---2---2---2---2------|
E|0-------0---0---0---0---0------|-------------------------------|

e|------- ------- ------- -------|------- ------- ------- -------|
B|--------0-----------0----------|0-----------0---------------0--|
G|------------0-----------0------|----2---------------2----------|
D|2------------------------------|-------------------------------|
A|-------------------------------|-------------------------------|
E|-------------------------------|-------------------------------|



  Am                              D
e|0------ 0------ 0---0-- 0------|2------ 2---2-- 2---2-- 2------|
B|1-------1-------1---1---1------|3-------3---3---3---3---3------|
G|2-------2-------2---2---2------|2-------2---2---2---2---2------|
D|2-------2-------2---2---2------|0-------0---0---0---0---0------|
A|0-------0-------0---0---0------|-------------------------------|
E|-------------------------------|-------------------------------|

e|------- ------- ------- -------|------- ------- ------- -------|
B|1-------1-----------1----------|3-------0-------1-------2------|
G|------------2-----------2------|4-------0-------2-------3------|
D|-------------------------------|-------------------------------|
A|-------------------------------|-------------------------------|
E|-------------------------------|-------------------------------|



  G                               F9
e|3------ 3------ 3---3-- 3------|3------ 3---3-- 3---3-- 3---3--|
B|3-------3-------3---3---3------|1-------1---1---1---1---1---1--|
G|0-------0-------0---0---0------|2-------2---2---2---2---2---2--|
D|0-------0-------0---0---0------|1-------1---1---1---1---1---1--|
A|2-------2-------2---2---2------|3-------3---3---3---3---3---3--|
E|3-------3-------3---3---3------|1-------1---1---1---1---1---1--|

e|------- ------- ------- -------|------- ------- ------- -------|
B|--------3-----------3----------|5-------3----------------------|
G|0-------4-------0---4----------|5-------4-------0-------2------|
D|-------------------------------|-------------------------------|
A|-------------------------------|-------------------------------|
E|-------------------------------|-------------------------------|



  G
e|3------ 3------ 3---3-- 3---3--|3------ 3------ 3------ 3------|
B|3-------3-------3---3---3---3--|3-------3-------3-------3------|
G|0-------0-------0---0---0---0--|0-------0-------0-------0------|
D|0-------0-------0---0---0---0--|0-------0-------0-------0------|
A|2-------2-------2---2---2---2--|2-------2-------2-------2------|
E|3-------3-------3---3---3---3--|3-------3-------3-------3------|
                                                  Though  tonight
e|------- ------- ------- -------|3------ ------- ------- -------|
B|--------3-P-0-------3-P-0------|-------------------------------|
G|0------------------------------|-------------------------------|
D|-------------------------------|-------------------------------|
A|-------------------------------|-------------------------------|
E|-------------------------------|-------------------------------|


  01:44

e|3------ 3------ 3---3-- 3------|3------ 3---3-- 3---3-- ----3--|
B|3-------3-------3---3---3------|3-------3---3---3---3-------3--|
G|0-------0-------0---0---0------|0-------0---0---0---0-------0--|
D|0-------0-------0---0---0------|0-------0---0---0---0-------0--|
A|2-------2-------2---2---2------|2-------2---2---2---2-------2--|
E|3-------3-------3---3---3------|3-------3---3---3---3-------3--|
          she's   make    me  sad             


  Em                              A
e|0------ 0---0-- ----0-- 0------|0------ ----0-- ----0-- 0------|
B|0-------0---0-------0---0------|2-----------2-------2---2------|
G|0-------0---0-------0---0------|2-----------2-------2---2------|
D|2-------2---2-------2---2------|2-----------2-------2---2------|
A|2-------2---2-------2---2------|0-----------0-------0---0------|
E|0-------0---0-------0---0------|-------------------------------|
  I                               still

 
  C                               D
e|0------ 0---0-- ----0-- 0------|2------ 2---2-- ----2-- 2------|
B|1-------1---1-------1---1------|3-------3---3-------3---3------|
G|0-------0---0-------0---0------|2-------2---2-------2---2------|
D|2-------2---2-------2---2------|0-------0---0-------0---0------|
A|3-------3---3-------3---3------|-------------------------------|
E|3-------3---3-------3---3------|-------------------------------|
  love                        her                 If  I       find


  G
e|3------ 3------ 3---3-- 3---3--|3------ 3------ 3---3-- 3---3--|
B|3-------3-------3---3---3---3--|3-------3-------3---3---3---3--|
G|0-------0-------0---0---0---0--|0-------0-------0---0---0---0--|
D|0-------0-------0---0---0---0--|0-------0-------0---0---0---0--|
A|2-------2-------2---2---2---2--|2-------2-------2---2---2---2--|
E|3-------3-------3---3---3---3--|3-------3-------3---3---3---3--|
          her I'll        be  glad      
   

  Em                              A
e|0------ 0---0-- ----0-- 0------|0------ 0---0-- ----0-- 0------|
B|0-------0---0-------0---0------|2-------2---2-------2---2------|
G|0-------0---0-------0---0------|2-------2---2-------2---2------|
D|2-------2---2-------2---2------|2-------2---2-------2---2------|
A|2-------2---2-------2---2------|0-------0---0-------0---0------|
E|0-------0---0-------0---0------|-------------------------------|
  I                               still


  C                               D
e|0------ 0---0-- ----0-- 0------|2------ 2---2-- 2---2-- 2------|
B|1-------1---1-------1---1------|3-------3---3---3---3---3------|
G|0-------0---0-------0---0------|2-------2---2---2---2---2------|
D|2-------2---2-------2---2------|0-------0---0---0---0---0------|
A|3-------3---3-------3---3------|-------------------------------|
E|3-------3---3-------3---3------|-------------------------------|
  love                            her             Though  I've  
     

  01:59
  G
e|3------ 3------ 3---3-- 3------|3------ 3------ 3------ 3------|
B|3-------3-------3---3---3------|3-------3-------3-------3------|
G|0-------0-------0---0---0------|0-------0-------0-------0------|
D|0-------0-------0---0---0------|0-------0-------0-------0------|
A|2-------2-------2---2---2------|2-------2-------2-------2------|
E|3-------3-------3---3---3------|3-------3-------3-------3------|
  had     a   drink   or      two         and I       don't   care 
       


e|3------ 3---3-- 3---3-- 3---3--|3------ 3------ 3------ 3------|
B|3-------3---3---3---3---3---3--|3-------3-------3-------3------|
G|0-------0---0---0---0---0---0--|0-------0-------0-------0------|
D|0-------0---0---0---0---0---0--|0-------0-------0-------0------|
A|2-------2---2---2---2---2---2--|2-------2-------2-------2------|
E|3-------3---3---3---3---3---3--|3-------3-------3-------3------|
                                                  there's no  
              


e|3------ 3------ 3---3-- 3---3--|3------ 3---3-- 3---3-- 3------|
B|3-------3-------3---3---3---3--|3-------3---3---3---3---3------|
G|0-------0-------0---0---0---0--|0-------0---0---0---0---0------|
D|0-------0-------0---0---0---0--|0-------0---0---0---0---0------|
A|2-------2-------2---2---2---2--|2-------2---2---2---2---2------|
E|3-------3-------3---3---3---3--|3-------3---3---3---3---3------|
  fun     in      what        do          If      she's   not        
                      I

  D
e|2------ 2------ 2---2-- 2---2--|2------ 2---2-- 2---2-- 2------|
B|3-------3-------3---3---3---3--|3-------3---3---3---3---3------|
G|2-------2-------2---2---2---2--|2-------2---2---2---2---2------|
D|0-------0-------0---0---0---0--|0-------0---0---0---0---0------|
A|-------------------------------|-------------------------------|
E|-------------------------------|-------------------------------|
  there                                                       I
e|------- ------- ------- -------|------- ------- ------- -------|
B|--------6-----------6----------|6-----------6-------6----------|
G|--------5-----------5----------|5-----------5-------5----------|
D|--------4-----------4----------|4-----------4-------4----------|
A|5------------------------------|0------------------------------|
E|-------------------------------|-------------------------------|
 
                                                           
  02:10
  Em                              B7
e|0------ 0------ 0---0-- 0------|2------ 2------ 2---2-- 2------|
B|0-------0-------0---0---0------|0-------0-------0---0---0------|
G|0-------0-------0---0---0------|2-------2-------2---2---2------|
D|2-------2-------2---2---2------|1-------1-------1---1---1------|
A|2-------2-------2---2---2------|2-------2-------2---2---2------|
E|0-------0-------0---0---0------|-------------------------------|
  wonder      what    went    wrong                           I've


  Am                              D
e|0------ 0------ 0---0-- 0------|2------ 2------ 2---2-- 2------|
B|1-------1-------1---1---1------|3-------3-------3---3---3------|
G|2-------2-------2---2---2------|2-------2-------2---2---2------|
D|2-------2-------2---2---2------|0-------0-------0---0---0------|
A|0-------0-------0---0---0------|-------------------------------|
E|-------------------------------|-------------------------------|
  waited      far     too     long                            I


  G                               F9
e|3------ 3------ 3---3-- 3------|3------ 3------ 3---3-- 3------|
B|3-------3-------3---3---3------|1-------1-------1---1---1------|
G|0-------0-------0---0---0------|2-------2-------2---2---2------|
D|0-------0-------0---0---0------|1-------1-------1---1---1------|
A|2-------2-------2---2---2------|3-------3-------3---3---3------|
E|3-------3-------3---3---3------|1-------1-------1---1---1------|
  Think   I'll    take    a   walk        and look    for     her 
     

  G
e|3------ 3------ 3---3-- 3---3--|3------ 3------ 3---3-- 3------|
B|3-------3-------3---3---3---3--|3-------3-------3---3---3------|
G|0-------0-------0---0---0---0--|0-------0-------0---0---0------|
D|0-------0-------0---0---0---0--|0-------0-------0---0---0------|
A|2-------2-------2---2---2---2--|2-------2-------2---2---2------|
E|3-------3-------3---3---3---3--|3-------3-------3---3---3------|

e|------- ------- ------- -------|------- ------- ------- -------|
B|-------------------------------|-----------------------------2/|
G|-------------------------------|-------------------------------|
D|-------------------------------|-------------------------------|
A|-------------------------------|-------------------------------|
E|-------------------------------|-------------------------------|

                                                 

  02:20
                                                 
e|3------ 3---3-- 3---3-- 3------|------- 3------ ------- 3------|
B|3-------3---3---3---3---3------|--------3---------------3------|
G|0-------0---0---0---0---0------|--------0---------------0------|
D|0-------0---0---0---0---0------|--------0---------------0------|
A|2-------2---2---2---2---2------|--------2---------------2------|
E|3-------3---3---3---3---3------|--------3---------------3------|

e|------- ------- ------- -------|------- ------- ------- -------|
B|3------------------------------|----------------3-----------3-\|
G|----------------------------3-/|4------------------------------|
D|-------------------------------|-------------------------------|
A|-------------------------------|-------------------------------|
E|-------------------------------|-------------------------------|

                                                 

          Dsus4
e|------- 3---3-- 3---3-- 3------|------- 3------ ------- 3------|
B|--------3---3---3---3---3------|--------3---------------3------|
G|--------2---2---2---2---2------|--------2---------------2------|
D|--------0---0---0---0---0------|--------0---------------0------|
A|-------------------------------|-------------------------------|
E|-------------------------------|-------------------------------|

e|------- ------- ------- -------|------- ------- ------- -------|
B|1------------------------------|----------------1--------------|
G|----------------------------1-/|2---------------------------1-/|
D|-------------------------------|-------------------------------|
A|-------------------------------|-------------------------------|
E|-------------------------------|-------------------------------|



  D
e|------- 2---2-- 2---2-- 2------|------- 2------ ------- -------|
B|--------3---3---3---3---3------|--------3---------------3------|
G|--------2---2---2---2---2------|--------2---------------2------|
D|--------0---0---0---0---0------|--------0---------------0------|
A|-------------------------------|-------------------------------|
E|-------------------------------|-------------------------------|

e|------- ------- ------- -------|2------ ------- 2------ -------|
B|-------------------------------|3---------------1--------------|
G|2------------------------------|-------------------------------|
D|-------------------------------|-------------------------------|
A|-------------------------------|-------------------------------|
E|-------------------------------|-------------------------------|


 (.
  G
e|3------ ------- ------- -------|------- ------- ------- -------|
B|3------------------------------|-------------------------------|
G|0------------------------------|-------------------------------|
D|0------------------------------|-------------------------------|
A|2------------------------------|-------------------------------|
E|3------------------------------|-------------------------------|

e|3------ ------- ------- -------|------- ------- ------- -------|
B|-------------------------------|-------------------------------|
G|4------------------------------|-------------------------------|
D|-------------------------------|-------------------------------|
A|-------------------------------|-------------------------------|
E|-------------------------------|-------------------------------|






        B  Bend
        R  Release
        /  slide up
        \  slide down
        H  hammer-on
        P  pull-off
        ~  vibrato
        +  harmonic
        x  Mute note
        . - play note like a dot in standard notation
        ^ - ties two notes together
        (. Pause

 

  -----------------------------------------------------------------
  
  THE BEATLES - WHAT YOU'RE DOING (Lennon & McCartney) From BEATLES
                FOR SALE album. Released December 4th 1964.

  -----------------------------------------------------------------

  Tabbed by:PJVillanueva


                              

  Look what you're doing, I'm feeling blue and lonely,
  Would it be too much to ask you,
  What you're doing to me?

  You got me running and there's no fun in it,
  Why should it be so much to ask of you,
  What you're doing to me?

  I've been waiting here for you,
  Wond'ring what you're gonna do,
  Should you need a love that's true,
  It's me.

  Please stop your lying, you've got me crying, girl,
  Why should it be so much to ask of you,
  What you're doing to me?

  What you're doing to me.



  X       x   X   X   x x x       X       x   X   X   x x x
e|------- ------- ------- -------|------- ------- ------- -------|
B|-------------------------------|-------------------------------|
G|-------------------------------|-------------------------------|
D|-------------------------------|-------------------------------|
A|-------------------------------|-------------------------------|
E|-------------------------------|-------------------------------|2 times



  D                               G
e|2------ 2------ 2---2-- 2---2--|3------ 3------ 3---3-- 3---3--|
B|3-------3-------3---3---3---3--|3-------3-------3---3---3---3--|
G|2-------2-------2---2---2---2--|0-------0-------0---0---0---0--|
D|0-------0-------0---0---0---0--|0-------0-------0---0---0---0--|
A|-------------------------------|2-------2-------2---2---2---2--|
E|-------------------------------|3-------3-------3---3---3---3--|

e|------- ------- ------- -------|------- ------- ------- -------|
B|-------------------------------|-------------------------------|
G|----------------4---2----------|-------------------------------|
D|0----------4------------4---2--|--------2---0---2---4-------0--|
A|-------------------------------|-------------------------------|
E|-------------------------------|-------------------------------|


  D                               G
e|2------ 2------ 2---2-- 2------|3------ 3------ 3---3-- 3---3--|
B|3-------3-------3---3---3------|3-------3-------3---3---3---3--|
G|2-------2-------2---2---2------|0-------0-------0---0---0---0--|
D|0-------0-------0---0---0------|0-------0-------0---0---0---0--|
A|-------------------------------|2-------2-------2---2---2---2--|
E|-------------------------------|3-------3-------3---3---3---3--|

e|------- ------- ------- -------|------- ------- ------- -------|
B|-------------------------------|-------------------------------|
G|----------------4---2----------|-------------------------------|
D|-----------4------------4---2--|--------2---0---2---4-------0--|
A|-------------------------------|-------------------------------|
E|-------------------------------|-------------------------------|


  D                           G                               D
e|2------ 2---2-- 2---2-- 2---3--|3------ 3------ 3---3-- 3---2--|
B|3-------3---3---3---3---3---3--|3-------3-------3---3---3---3--|
G|2-------2---2---2---2---2---0--|0-------0-------0---0---0---2--|
D|0-------0---0---0---0---0---0--|0-------0-------0---0---0---0--|
A|----------------------------2--|2-------2-------2---2---2------|
E|----------------------------3--|3-------3-------3---3---3------|
  Look                 what you're doing
e|------- ------- ------- -------|------- ------- ------- -------|
B|-------------------------------|-------------------------------|
G|----------------4---2----------|-------------------------------|
D|-----------4------------4---2--|--------2---0---2---4-------0--|
A|-------------------------------|-------------------------------|
E|-------------------------------|-------------------------------|


                                  G
e|2------ 2------ 2---2-- 2---2--|3------ 3------ 3---3-- 3---3--|
B|3-------3-------3---3---3---3--|3-------3-------3---3---3---3--|
G|2-------2-------2---2---2---2--|0-------0-------0---0---0---0--|
D|0-------0-------0---0---0---0--|0-------0-------0---0---0---0--|
A|-------------------------------|2-------2-------2---2---2---2--|
E|-------------------------------|3-------3-------3---3---3---3--|
  I'm                     feelin' blue  and  lonely       would it
e|------- ------- ------- -------|------- ------- ------- -------|
B|-------------------------------|-------------------------------|
G|----------------4---2----------|-------------------------------|
D|-----------4------------4---2--|--------2---0---2---4-------0--|
A|-------------------------------|-------------------------------|
E|-------------------------------|-------------------------------|



  Bm                              G
e|2------ 2---2-- 2---2-- 2------|3------ 3---3-- 3---3-- 3------|
B|3-------3---3---3---3---3------|3-------3---3---3---3---3------|
G|4-------4---4---4---4---4------|0-------0---0---0---0---0------|
D|4-------4---4---4---4---4------|0-------0---0---0---0---0------|
A|2-------2---2---2---2---2------|2-------2---2---2---2---2------|
E|-------------------------------|3-------3---3---3---3---3------|
  be too     much              to ask of     you        what you're 
e|------- ----2-- ----2-- ----2--|------- ----3-- ----3-- ----3--|
B|------------3-------3-------3--|------------3-------3-------3--|
G|------------4-------4-------4--|------------4-------4-------4--|
D|-------------------------------|-------------------------------|
A|-------------------------------|-------------------------------|
E|-------------------------------|-------------------------------|


                                  D
e|3------ 3---3-- 3---3-- 3------|2------ 2---2-- 2---2-- 2------|
B|3-------3---3---3---3---3------|3-------3---3---3---3---3------|
G|0-------0---0---0---0---0------|2-------2---2---2---2---2------|
D|0-------0---0---0---0---0------|0-------0---0---0---0---0------|
A|2-------2---2---2---2---2------|-------------------------------|
E|3-------3---3---3---3---3------|-------------------------------|
  doin'                   to      me
e|------- ----3-- ----3-- -------|------- ------- ------- -------|
B|------------3-------3----------|-------------------------------|
G|------------4-------4----------|----------------4---2----------|
D|-------------------------------|0-----------4-----------4---2--|
A|-------------------------------|-------------------------------|
E|-------------------------------|-------------------------------|


  G                               D
e|3------ 3---3-- 3---3-- 3---0--|2------ 2---2-- 2---2-- 2---3--|
B|3-------3---3---3---3---3---0--|3-------3---3---3---3---3---3--|
G|0-------0---0---0---0---0---0--|2-------2---2---2---2---2---0--|
D|0-------0---0---0---0---0------|0-------0---0---0---0---0---0--|
A|2-------2---2---2---2---2------|-------------------------------|
E|3-------3---3---3---3---3------|-------------------------------|
                                  You                     got me
e|------- ------- ------- -------|------- ------- ------- -------|
B|-------------------------------|-------------------------------|
G|-------------------------------|----------------4---2----------|
D|--------2---0---2---4----------|------------4-----------4---2--|
A|-------------------------------|-------------------------------|
E|-------------------------------|-------------------------------|


  G                               D
e|3------ 3---3-- 3---3-- 3---3--|2------ 2---2-- 2---2-- 2------|
B|3-------3---3---3---3---3---3--|3-------3---3---3---3---3------|
G|0-------0---0---0---0---0---0--|2-------2---2---2---2---2------|
D|0-------0---0---0---0---0---0--|0-------0---0---0---0---0------|
A|2-------2---2---2---2---2---2--|-------------------------------|
E|3-------3---3---3---3---3---3--|-------------------------------|
  runnin'                         And                    there's no


e|------- ------- ------- -------|------- ------- ------- -------|
B|-------------------------------|-------------------------------|
G|-------------------------------|----------------4---2----------|
D|--------2---0---2---4-------0--|------------4-----------4---2--|
A|-------------------------------|-------------------------------|
E|-------------------------------|-------------------------------|

  G                               Bm
e|3------ 3------ 3---3-- 3---3--|2------ 2------ 2---2-- 2---2--|
B|3-------3-------3---3---3---3--|3-------3-------3---3---3---3--|
G|0-------0-------0---0---0---0--|4-------4-------4---4---4---4--|
D|0-------0-------0---0---0---0--|4-------4-------4---4---4---4--|
A|2-------2-------2---2---2---2--|2-------2-------2---2---2---2--|
E|3-------3-------3---3---3---3--|-------------------------------|
  fun in     it      why should it be so      much             to
e|------- ------- ------- -------|------- ----2-- ----2-- ----2--|
B|-------------------------------|------------3-------3-------3--|
G|-------------------------------|------------4-------4-------4--|
D|--------2---0---2---4-------0--|-------------------------------|
A|-------------------------------|-------------------------------|
E|-------------------------------|-------------------------------|



  G
e|3------ 3------ 3---3-- 3---3--|3------ 3------ 3---3-- 3---3--|
B|3-------3-------3---3---3---3--|3-------3-------3---3---3---3--|
G|0-------0-------0---0---0---0--|0-------0-------0---0---0---0--|
D|0-------0-------0---0---0---0--|0-------0-------0---0---0---0--|
A|2-------2-------2---2---2---2--|2-------2-------2---2---2---2--|
E|3-------3-------3---3---3---3--|3-------3-------3---3---3---3--|
  ask of     you         what you're doin'                    to
e|------- ----3-- ----3-- ----3--|------- ----3-- ----3-- -------|
B|------------3-------3-------3--|------------3-------3----------|
G|------------4-------4-------4--|------------4-------4----------|
D|-------------------------------|-------------------------------|
A|-------------------------------|-------------------------------|
E|-------------------------------|-------------------------------|




  D                               G
e|2------ 2------ 2---2-- 2---2--|3------ 3------ 3---3-- 3---3--|
B|3-------3-------3---3---3---3--|3-------3-------3---3---3---3--|
G|2-------2-------2---2---2---2--|0-------0-------0---0---0---0--|
D|0-------0-------0---0---0---0--|0-------0-------0---0---0---0--|
A|-------------------------------|2-------2-------2---2---2---2--|
E|-------------------------------|3-------3-------3---3---3---3--|
  me                                  I've    been waiting
e|------- ------- ------- -------|------- ----3-- ----3-- ----3--|
B|-------------------------------|------------3-------3-------3--|
G|----------------4---2----------|------------4-------4-------4--|
D|0-----------4-----------4------|-------------------------------|
A|-------------------------------|-------------------------------|
E|-------------------------------|-------------------------------|



  Bm                              G
e|2------ 2------ 2---2-- 2------|3------ 3------ 3---3-- 3------|
B|3-------3-------3---3---3------|3-------3-------3---3---3------|
G|4-------4-------4---4---4------|0-------0-------0---0---0------|
D|4-------4-------4---4---4------|0-------0-------0---0---0------|
A|2-------2-------2---2---2------|2-------2-------2---2---2------|
E|-------------------------------|3-------3-------3---3---3------|
  here for    you                     wond'rin'   what       you're
e|------- ----2-- ----2-- ----2--|------- ----3-- ----3-- ----3--|
B|------------3-------3-------3--|------------3-------3-------3--|
G|------------4-------4-------4--|------------4-------4-------4--|
D|-------------------------------|-------------------------------|
A|-------------------------------|-------------------------------|
E|-------------------------------|-------------------------------|



  Bm                              Em
e|2------ 2------ 2---2-- 2---0--|0------ 0------ 0---0-- 0---0--|
B|3-------3-------3---3---3---0--|0-------0-------0---0---0---0--|
G|4-------4-------4---4---4---0--|0-------0-------0---0---0---0--|
D|4-------4-------4---4---4------|2-------2-------2---2---2---2--|
A|2-------2-------2---2---2------|2-------2-------2---2---2---2--|
E|-------------------------------|0-------0-------0---0---0---0--|
  gonna      do                           Should you need      a
e|------- ----2-- ----2-- ----0--|------- ----0-- ----0-- ----0--|
B|------------3-------3-------0--|------------0-------0-------0--|
G|------------4-------4-------0--|------------0-------0-------0--|
D|-------------------------------|-------------------------------|
A|-------------------------------|-------------------------------|
E|-------------------------------|-------------------------------|



                                  A
e|0------ 0------ 0---0-- 0---0--|0------ ------- ------- -------|
B|0-------0-------0---0---0---0--|2------------------------------|
G|0-------0-------0---0---0---0--|2------------------------------|
D|2-------2-------2---2---2------|2------------------------------|
A|2-------2-------2---2---2------|0------------------------------|
E|0-------0-------0---0---0------|-------------------------------|
  love    that's true        it's me
e|------- ----0-- ----0-- ----0--|0------ ------- ------- -------|
B|------------0-------0-------0--|2------------------------------|
G|------------0-------0-------0--|2------------------------------|
D|-------------------------------|-------------------------------|
A|-------------------------------|-------------------------------|
E|-------------------------------|-------------------------------|



                                  D
e|------- ------- ------- -------|2------ 2------ 2---2-- 2---2--|
B|-------------------------------|3-------3-------3---3---3---3--|
G|-------------------------------|2-------2-------2---2---2---2--|
D|-------------------------------|0-------0-------0---0---0---0--|
A|-------------------------------|-------------------------------|
E|-------------------------------|-------------------------------|
                                  Please                 stop your
e|------- ------- ------- -------|------- ------- ------- -------|
B|-------------------------------|-------------------------------|
G|-------------------------------|----------------4---2----------|
D|-------------------------------|0-----------4-----------4---2--|
A|-------------------------------|-------------------------------|
E|-------------------------------|-------------------------------|



  G                           D
e|3------ 3------ 3---3-- 3---2--|2------ 2------ 2---2-- 2---3--|
B|3-------3-------3---3---3---3--|3-------3-------3---3---3---3--|
G|0-------0-------0---0---0---2--|2-------2-------2---2---2---0--|
D|0-------0-------0---0---0---0--|0-------0-------0---0---0---0--|
A|2-------2-------2---2---2------|-------------------------------|
E|3-------3-------3---3---3------|-------------------------------|
  lying                           You've                   got me
e|------- ------- ------- -------|------- ------- ------- -------|
B|-------------------------------|-------------------------------|
G|-------------------------------|----------------4---2----------|
D|--------2---0---2---4-------0--|------------4-----------4---2--|
A|-------------------------------|-------------------------------|
E|-------------------------------|-------------------------------|



  G                               Bm
e|3------ 3------ 3---3-- 3---3--|2------ 2------ 2---2-- 2---2--|
B|3-------3-------3---3---3---3--|3-------3-------3---3---3---3--|
G|0-------0-------0---0---0---0--|4-------4-------4---4---4---4--|
D|0-------0-------0---0---0---0--|4-------4-------4---4---4---4--|
A|2-------2-------2---2---2---2--|2-------2-------2---2---2---2--|
E|3-------3-------3---3---3---3--|-------------------------------|
  crying     girl    why should it be so     much              to
e|------- ------- ------- -------|------- ----2-- ----2-- ----2--|
B|-------------------------------|------------3-------3-------3--|
G|-------------------------------|------------4-------4-------4--|
D|--------2---0---2---4-------0--|-------------------------------|
A|-------------------------------|-------------------------------|
E|-------------------------------|-------------------------------|



  G  
e|3------ 3------ 3---3-- 3---3--|3------ 3------ 3---3-- 3---3--|
B|3-------3-------3---3---3---3--|3-------3-------3---3---3---3--|
G|0-------0-------0---0---0---0--|0-------0-------0---0---0---0--|
D|0-------0-------0---0---0---0--|0-------0-------0---0---0---0--|
A|2-------2-------2---2---2---2--|2-------2-------2---2---2---2--|
E|3-------3-------3---3---3---3--|3-------3-------3---3---3---3--|
  ask of      you       what you're doin'                     to
e|------- ----3-- ----3-- ----3--|------- ----3-- ----3-- -------|
B|------------3-------3-------3--|------------3-------3----------|
G|------------4-------4-------4--|------------4-------4----------|
D|-------------------------------|-------------------------------|
A|-------------------------------|-------------------------------|
E|-------------------------------|-------------------------------|



  D                               G
e|2------ 2------ 2---2-- 2------|3------ 3------ 3---3-- 3------|
B|3-------3-------3---3---3------|3-------3-------3---3---3------|
G|2-------2-------2---2---2------|0-------0-------0---0---0------|
D|0-------0-------0---0---0------|0-------0-------0---0---0------|
A|-------------------------------|2-------2-------2---2---2------|
E|-------------------------------|3-------3-------3---3---3------|
  me
e|------- ------- ------- -------|------- ------- ------- -------|
B|-------------------------------|-------------------------------|
G|----------------4---2----------|-------------------------------|
D|0----------4------------4---2--|--------2---0---2---4----------|
A|-------------------------------|-------------------------------|
E|-------------------------------|-------------------------------|




Solo

  D                               G7
e|5------ ------- ------- ----5--|-9---9\ 7------ ------- -------|
B|7---------------------------7--|10--10\-8----------------------|
G|-------------------------------|-------------------------------|
D|-------------------------------|-------------------------------|
A|-------------------------------|-------------------------------|
E|-------------------------------|-------------------------------|


  D                               G7
e|5------ ------- ------- ----5--|-9---9\ 7---7-- ------- -------|
B|7---------------------------7--|10--10\-8---8------------------|
G|-------------------------------|-------------------------------|
D|-------------------------------|-------------------------------|
A|-------------------------------|-------------------------------|
E|-------------------------------|-------------------------------|


  Bm                              G7
e|------- ------- ------- -------|----7-- ------- ------- 7------|
B|7------------------------------|------------8------------------|
G|----7-------------------7------|7------------------------------|
D|------------9------------------|-------------------------------|
A|-------------------------------|-------------------------------|
E|-------------------------------|-------------------------------|


                                  D
e|7------ ------- ------- -------|5------ ------- ------- -------|
B|----8--------------------------|7------------------------------|
G|------------7---------------7--|-------------------------------|
D|-------------------------------|-------------------------------|
A|-------------------------------|-------------------------------|
E|-------------------------------|-------------------------------|

e|------- ------- ------- -------|------- ------- ------- -------|
B|-------------------------------|-------------------------------|
G|-------------------------------|----------------4---2----------|
D|-------------------------------|0-----------4-----------4------|
A|-------------------------------|-------------------------------|
E|-------------------------------|-------------------------------|




  G                               Bm
e|3------ 3------ 3---3-- 3---3--|2------ 2------ 2---2-- 2------|
B|3-------3-------3---3---3---3--|3-------3-------3---3---3------|
G|0-------0-------0---0---0---0--|4-------4-------4---4---4------|
D|0-------0-------0---0---0---0--|4-------4-------4---4---4------|
A|2-------2-------2---2---2---2--|2-------2-------2---2---2------|
E|3-------3-------3---3---3---3--|-------------------------------|
  I've been       waiting         here for    you
e|------- ----3-- ----3-- ----3--|------- ----2-- ----2-- ----2--|
B|------------3-------3-------3--|------------3-------3-------3--|
G|------------4-------4-------4--|------------4-------4-------4--|
D|2------------------------------|-------------------------------|
A|-------------------------------|-------------------------------|
E|-------------------------------|-------------------------------|


  G                               Bm
e|3------ 3------ 3---3-- 3---3--|2------ 2------ 2---2-- 2---0--|
B|3-------3-------3---3---3---3--|3-------3-------3---3---3---0--|
G|0-------0-------0---0---0---0--|4-------4-------4---4---4---0--|
D|0-------0-------0---0---0---0--|4-------4-------4---4---4------|
A|2-------2-------2---2---2---2--|2-------2-------2---2---2------|
E|3-------3-------3---3---3---3--|-------------------------------|
     wondering    what     you're gonna       do
e|------- ----3-- ----3-- ----3--|------- ----2-- ----2-- ----0--|
B|------------3-------3-------3--|------------3-------3-------0--|
G|------------4-------4-------4--|------------4-------4-------0--|
D|-------------------------------|-------------------------------|
A|-------------------------------|-------------------------------|
E|-------------------------------|-------------------------------|


  Em
e|0------ 0------ 0---0-- 0---0--|0------ 0---0-- 0---0-- 0------|
B|0-------0-------0---0---0---0--|0-------0---0---0---0---0------|
G|0-------0-------0---0---0---0--|0-------0---0---0---0---0------|
D|2-------2-------2---2---2---2--|2-------2---2---2---2---2------|
A|2-------2-------2---2---2---2--|2-------2---2---2---2---2------|
E|0-------0-------0---0---0---0--|0-------0---0---0---0---0------|
          should you need     a   love that's true           it's
e|------- ----0-- ----0-- ----0--|------- ----0-- ----0-- ----0--|
B|------------0-------0-------0--|------------0-------0-------0--|
G|------------0-------0-------0--|------------0-------0-------0--|
D|-------------------------------|-------------------------------|
A|-------------------------------|-------------------------------|
E|-------------------------------|-------------------------------|


  A
e|0------ ------- ------- -------|------- ------- ------- -------|
B|2------------------------------|-------------------------------|
G|2------------------------------|-------------------------------|
D|2------------------------------|-------------------------------|
A|0------------------------------|-------------------------------|
E|-------------------------------|-------------------------------|
  me
e|0------ ------- ------- -------|------- ------- ------- -------|
B|2------------------------------|-------------------------------|
G|2------------------------------|-------------------------------|
D|-------------------------------|-------------------------------|
A|-------------------------------|-------------------------------|
E|-------------------------------|-------------------------------|

  D                           G
e|2------ 2------ 2---2-- 2---3--|3------ 3------ 3---3-- 3---3--|
B|3-------3-------3---3---3---3--|3-------3-------3---3---3---3--|
G|2-------2-------2---2---2---0--|0-------0-------0---0---0---0--|
D|0-------0-------0---0---0---0--|0-------0-------0---0---0---0--|
A|----------------------------2--|2-------2-------2---2---2---2--|
E|----------------------------3--|3-------3-------3---3---3---3--|
  Please                 stop your lying
e|------- ------- ------- -------|------- ------- ------- -------|
B|-------------------------------|-------------------------------|
G|----------------4---2----------|-------------------------------|
D|0----------4------------4---2--|--------2---0---2---4-------0--|
A|-------------------------------|-------------------------------|
E|-------------------------------|-------------------------------|



  D                               G
e|2------ 2------ 2---2-- 2---3--|3------ 3------ 3---3-- 3------|
B|3-------3-------3---3---3---3--|3-------3-------3---3---3------|
G|2-------2-------2---2---2---0--|0-------0-------0---0---0------|
D|0-------0-------0---0---0---0--|0-------0-------0---0---0------|
A|----------------------------2--|2-------2-------2---2---2------|
E|----------------------------3--|3-------3-------3---3---3------|
  you've                  got me  crying,     girl   why should it
e|------- ------- ------- -------|------- ------- ------- -------|
B|-------------------------------|-------------------------------|
G|----------------4---2----------|-------------------------------|
D|-----------4------------4---2--|--------2---0---2---4----------|
A|-------------------------------|-------------------------------|
E|-------------------------------|-------------------------------|


  Bm                              G
e|2------ 2------ 2---2-- 2------|3------ 3------ 3---3-- 3---3--|
B|3-------3-------3---3---3---3--|3-------3-------3---3---3---3--|
G|4-------4-------4---4---4---4--|0-------0-------0---0---0---0--|
D|4-------4-------4---4---4---4--|0-------0-------0---0---0---0--|
A|2-------2-------2---2---2---2--|2-------2-------2---2---2---2--|
E|-------------------------------|3-------3-------3---3---3---3--|
  be so       much             to ask of      you      what you're
e|------- ----2-- ----2-- ----2--|------- ----3-- ----3-- ----3--|
B|------------3-------3-------3--|------------3-------3-------3--|
G|------------4-------4-------4--|------------4-------4-------4--|
D|-------------------------------|-------------------------------|
A|-------------------------------|-------------------------------|
E|-------------------------------|-------------------------------|

                                  D                                       
e|3------ 3------ 3---3-- 3------|2------ 2---2-- 2---2-- 2------|
B|3-------3-------3---3---3------|3-------3---3---3---3---3------|
G|0-------0-------0---0---0------|2-------2---2---2---2---2------|
D|0-------0-------0---0---0------|0-------0---0---0---0---0------|
A|2-------2-------2---2---2------|-------------------------------|
E|3-------3-------3---3---3------|-------------------------------|
  doin'                       to  me                   what you're
e|------- ----3-- ----3-- -------|------- ------- ------- -------|
B|------------3-------3----------|-------------------------------|
G|------------4-------4----------|----------------4---2----------|
D|-------------------------------|0-----------4-----------4------|
A|-------------------------------|-------------------------------|
E|-------------------------------|-------------------------------|

  G                               D
e|3------ 3------ 3---3-- 3------|2------ 2---2-- 2---2-- 2------|
B|3-------3-------3---3---3------|3-------3---3---3---3---3------|
G|0-------0-------0---0---0------|2-------2---2---2---2---2------|
D|0-------0-------0---0---0------|0-------0---0---0---0---0------|
A|2-------2-------2---2---2------|-------------------------------|
E|3-------3-------3---3---3------|-------------------------------|
  doin'                       to  me                   what you're
e|------- ------- ------- -------|------- ------- ------- -------|
B|-------------------------------|-------------------------------|
G|-------------------------------|----------------4---2----------|
D|-------------------------------|0-----------4-----------4------|
A|-------------------------------|-------------------------------|
E|-------------------------------|-------------------------------|


  G                               D
e|3------ 3------ 3---3-- 3------|2------ 2------ 2---2-- 2------|
B|3-------3-------3---3---3------|3-------3-------3---3---3------|
G|0-------0-------0---0---0------|2-------2-------2---2---2------|
D|0-------0-------0---0---0------|0-------0-------0---0---0------|
A|2-------2-------2---2---2------|-------------------------------|
E|3-------3-------3---3---3------|-------------------------------|
  doin'                       to  me
e|------- ------- ------- -------|------- ------- ------- -------|
B|-------------------------------|-------------------------------|
G|-------------------------------|----------------4---2----------|
D|-------------------------------|0-----------4-----------4---2--|
A|-------------------------------|-------------------------------|
E|-------------------------------|-------------------------------|


                                  X       x   X   X   x x x
  G                               D
e|3------ 3------ 3---3-- 3------|2------ ------- ------- -------|
B|3-------3-------3---3---3------|3------------------------------|
G|0-------0-------0---0---0------|2------------------------------|
D|0-------0-------0---0---0------|0------------------------------|
A|2-------2-------2---2---2------|-------------------------------|
E|3-------3-------3---3---3------|-------------------------------|
                  
e|------- ------- ------- -------|------- ------- ------- -------|
B|-------------------------------|-------------------------------|
G|-------------------------------|-------------------------------|
D|--------2---0---2---4----------|0------------------------------|
A|-------------------------------|-------------------------------|
E|-------------------------------|-------------------------------|
  
                 

  X       x   X   X   x x x       X       x   X   X   x x x
e|------- ------- ------- -------|------- ------- ------- -------|
B|-------------------------------|-------------------------------|
G|-------------------------------|-------------------------------|
D|-------------------------------|-------------------------------|
A|-------------------------------|-------------------------------|
E|-------------------------------|-------------------------------|


  X       x   X   X   x x x       D
e|------- ------- ------- -------|2------ 2------ 2---2-- 2------|
B|-------------------------------|3-------3-------3---3---3------|
G|-------------------------------|2-------2-------2---2---2------|
D|-------------------------------|0-------0-------0---0---0------|
A|-------------------------------|-------------------------------|
E|-------------------------------|-------------------------------|

e|------- ------- ------- -------|------- ------- ------- -------|
B|-------------------------------|-------------------------------|
G|-------------------------------|----------------4---2----------|
D|-------------------------------|0-----------4-----------4---2--|
A|-------------------------------|-------------------------------|
E|-------------------------------|-------------------------------|


  G                               D
e|3------ 3------ 3---3-- 3------|2------ 2------ 2---2-- 2------|
B|3-------3-------3---3---3------|3-------3-------3---3---3------|
G|0-------0-------0---0---0------|2-------2-------2---2---2------|
D|0-------0-------0---0---0------|0-------0-------0---0---0------|
A|2-------2-------2---2---2------|-------------------------------|
E|3-------3-------3---3---3------|-------------------------------|

e|------- ------- ------- -------|------- ------- ------- -------|
B|-------------------------------|-------------------------------|
G|-------------------------------|----------------4---2----------|
D|--------2---0---2---4-------0--|------------4-----------4---2--|
A|-------------------------------|-------------------------------|
E|-------------------------------|-------------------------------|



  G                               D
e|3------ 3------ 3---3-- 3------|2------ 2------ 2---2-- 2------|
B|3-------3-------3---3---3------|3-------3-------3---3---3------|
G|0-------0-------0---0---0------|2-------2-------2---2---2------|
D|0-------0-------0---0---0------|0-------0-------0---0---0------|
A|2-------2-------2---2---2------|-------------------------------|
E|3-------3-------3---3---3------|-------------------------------|
  .............................Fade..............................

e|------- ------- ------- -------|------- ------- ------- -------|
B|-------------------------------|-------------------------------|
G|-------------------------------|----------------4---2----------|
D|--------2---0---2---4-------0--|------------4-----------4---2--|
A|-------------------------------|-------------------------------|
E|-------------------------------|-------------------------------|






        B  Bend
        R  Release
        /  slide up
        \  slide down
        H  hammer-on
        P  pull-off
        ~  vibrato
        +  harmonic
        x  Mute note
        . - play note like a dot in standard notation
        ^ - ties two notes together
        (. Pause



  --------------------------------------------------------------------

  THE BEATLES - EVERYBODY'S TRYING TO BE MY BABYE (Lennon & McCartney)
                from BEATLES FOR SALE album. (Released on December 4th  
                1964.)
               
  --------------------------------------------------------------------

  Tabbed by:PJVillanueva




  This is a Beatles cover of Carl Perkins.
  It was included in Beatles for Sale album
  It has two great rockabily guitar solos.
  George Harrison played with a pick but
  I have tabbed also a walking bass sequence
  with the same chords just for fun.
  I hope you like it.



  Chords:      E    022100
               E6   022120
               A    x02220
               B7   x21202



                         E           E E6 E
Well they took some honey from a tree


Dressed it up and they called it me




A
Everybody's trying to be my baby

E
Everybody's trying to be my baby

B7                    A              E
Everybody's trying to be my baby, now




     E              
Woked up last night, half past four


fifty women knocking on my door




A         
Everybody's trying to be my baby

E
Everybody's trying to be my baby

B7                    A             E  
Everybody's trying to be my baby, now




First solo




     E                 
Went out last night, I didn't stay late


'fore I got home I had nineteen dates




A
Everybody's trying to be my baby

E
Everybody's trying to be my baby

B7                    A              E
Everybody's trying to be my baby, now





Second solo




     E
Went out last night, I didn't stay late

 
'fore I got home I had nineteen dates





A
Everybody's trying to be my baby

E
Everybody's trying to be my baby

B7                    A            E
Everybody's trying to be my baby now





          E           
Well they took some honey from a tree


Dressed it up and they called it me




A
Everybody's trying to be my baby

E
Everybody's trying to be my baby

B7                    A             E
Everybody's trying to be my baby now







 Guitar fills


e|------ 0----- ------ ------|-----0 ------ ------ ------|
B|-------0-----------3-------|-----0------3------2------0|
G|--------------------------0H1-----------1------1------1|
D|---------------------------|---------------------------|
A|---------------------------|---------------------------|
E|---------------------------|---------------------------|





e|------ 0----- ------ ------|-----0 -----0 -----0 ------|
B|-------0-----------3-------|-----0------3------0-------|
G|--------------------------0H1--------------------------|
D|---------------------------|---------------------------|
A|---------------------------|---------------------------|
E|---------------------------|---------------------------|






 First solo
                                     
  
e|------ 7----- ------ ------|7----- -----7 ------ -----7|
B|-------0-------------------|0-----------0-------------0|
G|-------------------7-------|-----7-------------7-------|
D|-------------------6-------|-----6-------------6-------|
A|---------------------------|---------------------------|
E|---------------------------|---------------------------|



  
e|------ 7----- ------ ------|7----- -----7 ------ ------|
B|-------0-------------------|0-----------0--------------|
G|-------------------7-------|-----7-------------7-------|
D|-------------------6-------|-----6-------------6-------|
A|---------------------------|---------------------------|
E|---------------------------|---------------------------|



  
e|------ 12---- ------ ------|12---- ----12 ------ ------|
B|--------0------------------|-0----------0--------------|
G|------------------12-------|------------------12------7|
D|------------------11-------|------------------11-------|
A|---------------------------|---------------------------|
E|---------------------------|---------------------------|



  
e|------ 7----- ------ ------|7----- -----7 ------ ------|
B|-------0-------------------|0-----------0--------------|
G|-------------------7-------|---------------------------|
D|-------------------6-------|---------------------------|
A|---------------------------|---------------------------|
E|---------------------------|-------------------4--5--6-|




  
e|-----7 -----7 -----7 -----7|5----- 5----- 5----- 5-----|
B|-----7------7------7------7|8------8------7------8-----|
G|-----8------8------8------8|6------6------6------6-----|
D|-----7------7------7------7|5------5------5------5-----|
A|-----9------7------9------9|7------7------7------7-----|
E|7--------------------------|5--------------------------|



  
e|------ 0----- ------ ------|-----0 ------ ------ ------|
B|-------0-----------3-------|------------3------2------0|
G|-------1------------------0H1-----------1------1------1|
D|---------------------------|---------------------------|
A|---------------------------|---------------------------|
E|---------------------------|---------------------------|




  Second solo

  
e|------ ------ ------ ------|------ ------ ------ ------|
B|-------8-----------8-------|8-----------8------8-------|
G|-------7-----------7-------|7-----------7------7-------|
D|-------6-----------6-------|6-----------6------6-------|
A|-------7-----------7-------|7-----------7------7-------|
E|---------------------------|---------------------------|



e|------ ------ ------ ------|------ ------ ------ ------|
B|-------8-----------8-------|8-----------8------8-------|
G|-------7-----------7-------|7-----------7------7-------|
D|-------6-----------6-------|6-----------6------6-------|
A|-------7-----------7-------|7-----------7------7-------|
E|---------------------------|---------------------------|



e|------ 5----- ------ 5-----|5----- -----5 -----5 ------|
B|-------8-------------8-----|8-----------8------8-------|
G|-------6-------------6-----|6-----------6------6-------|
D|-------5-------------5-----|5-----------5------5-------|
A|-------7-------------7-----|7-----------7------7-------|
E|-------5-------------5-----|5-----------5------5-------|



  
e|------ ------ ------ ------|------ ------ ------ ------|
B|-------8-----------8-------|8-----------8--------------|
G|-------7-----------7-------|7-----------7--------------|
D|-------6-----------6-------|6-----------6--------------|
A|-------7-----------7-------|7-----------7--------------|
E|---------------------------|---------------------------|



  
e|------ 9----- -----9 ------|7--P-5 ------ -----5 ------|
B|-------7-----------7-------|5-----------8-B-9--5-------|
G|-------8-----------8-------|6-----------6--------------|
D|---------------------------|---------------------------|
A|---------------------------|---------------------------|
E|---------------------------|---------------------------|



  
e|------ 0----- ------ ------|-----0 -----0 ------ ------|
B|-------0-----------3-------|-----0------3--------------|
G|--------------------------0H1--------------------------|
D|---------------------------|---------------------------|
A|---------------------------|---------------------------|
E|---------------------------|---------------------------|



  
e|------ 15---- 15---- ----15|------ 15---- 15--12 ------|
B|-------15-----15---------15|-------15-----15-----15----|
G|-------13-----13---------13|-------13-----13-----------|
D|-------14-----14---------14|-------14-----14-----------|
A|---------------------------|---------------------------|
E|---------------------------|---------------------------|





e|------ 15---- ----15 ------|15---- 15---- 15--12 ------|
B|-------15---------15-------|15-----15-----15-----15----|
G|-------13---------13-------|13-----13-----13-----------|
D|-------14---------14-------|14-----14-----14-----------|
A|---------------------------|---------------------------|
E|---------------------------|---------------------------|



                    
e|------ 12---- ----12 ------|12---- ----12 ----12 ------|
B|-------12----------12------|12---------12-----12-------|
G|-------12-----------12-----|12---------12-----12-------|
D|-------11------------11----|11---------11-----11-------|
A|-------12-------------12---|12---------12-----12-------|
E|---------------------------|---------------------------|





e|------ 0----- ------ ------|-----0 ------ ------ ------|
B|-------0-----------3-------|------------3--------------|
G|--------------------------0H1--------------------------|
D|---------------------------|---------------------------|
A|---------------------------|----------------------0--1-|
E|---------------------------|-------------------4-------|



  
e|-----2 ------ -----2 ------|-----3 -----2 -----2 -----0|
B|-----0------0------0------0|-----0------0------0------0|
G|-----2------2-------------2|------------2------2-------|
D|---------------------------|---------------------------|
A|2--------------------------|---------------------------|
E|---------------------------|---------------------------|



  
e|------ 0----- ------ ------|-----0 ------ ------ ------|
B|-------0-----------3-------|-----0------3------2------0|
G|--------------------------0H1-----------1------1------1|
D|---------------------------|---------------------------|
A|---------------------------|---------------------------|
E|---------------------------|---------------------------|




 Ending
  
e|------ ------ ------ ------|------ ------ ------ o-----|
B|---------------------------|---------------------0-----|
G|-------7------6------6-----|5------4-------------1-----|
D|-------9------8------8-----|7------6-------------2-----|
A|---7-----------------------|--------------7------2-----|
E|---------------------------|---------------------0-----|



  
e|------ ------ ------ ------|------ ------ ------ 7-----|
B|------------------------3--|---------------------7-----|
G|-------0------0--2-/-4----4\2---0----------------7-----|
D|---------------------------|-------2----2--------6-----|
A|---------------------------|---------------------7-----|
E|---------------------------|---------------------------|






...................................................................




 


e|------ 0----- ------ ------|-----0 ------ ------ ------|
B|-------------------3-------|------------3--------------|
G|--------------------------0H1--------------------------|
D|-------2--------------2----|-------2-------------2-----|
A|---------------------------|---------------------------|
E|0--------------0-----------|0-------------0------------|



  
e|------ 0----- ------ ------|-----0 ------ ------ ------|
B|-------------------3-------|------------3------2------0|
G|--------------------------0H1--------------------------|
D|-------2-------------2-----|-------2-------------2-----|
A|---------------------------|---------------------------|
E|0-------------0------------|0-------------0------------|






e|------ 7----- ------ ----7-|------ -----7 ------ ------|
B|---------------------------|---------------------------|
G|------------------7--------|-----7------------7--------|
D|-------6-------------6-----|-------6-------------6-----|
A|7--------------------------|7--------------------------|
E|--------------7------------|--------------7------------|
  .................................................2 times


  
e|------ 12---- ------ ----12|------ ----12 ------ ------|
B|------------------12-------|---------------------------|
G|---------------------------|----12------------12-------|
D|-------11------------11----|-------11------------11----|
A|12-------------------------|12-------------------------|
E|--------------12-----------|--------------12-----------|



e|------ 7----- ------ ----7-|------ -----7 ------ ------|
B|---------------------------|---------------------------|
G|------------------7--------|-----7------------7--------|
D|-------6-------------6-----|-------6-------------6-----|
A|7--------------------------|7--------------------------|
E|--------------7------------|--------------7------------|



  
e|------ 2----- ------ ------|3-\-2- -----0 ------ ------|
B|-------------------0-------|-------------------2-------|
G|-------2-------------------|2-----------2--------2-----|
D|-------1-------------1-----|-------1-------------1-----|
A|2--------------------------|2--------------------------|
E|--------------2------------|--------------2------------|



  
e|0----- ------ ------ ------|
B|---------------7-----------|
G|1--------------6-----------|
D|---------------6-----------|
A|2--------------7-----------|
E|-------0-------------------|






        B  Bend
        R  Release
        /  Slide up
        \  Slide down
        H  Hammer-on
        P  Pull-off
        ~  Vibrato
        +  Harmonic
        x  Mute note
        .  Play note like a dot in standard notation
        ^  Ties two notes together
        (. Pause
comments
We did not receive enough feedback on this tab! Please rate:
1 2 3 4 5
I want to post or [tab]
guest
You may want to rate the tab now too:
select rating
Please do not post tabs as comments. Select "correction" instead!