Oops, an error
Loading. Please wait.

Cry Baby Cry Bass Tab

ver3
ver3

Whole song

Interactive

More versions @911Tabs.com
3,794 views 12 this week
2 commentsread comments
1 2 3 4 5
excellent!
x 6
add to favorites
launch autoscroll
font size
0
reset
Tab Pro tools
  • play this tab
  • loop segment
  • change instrument
  • show fretboard
  • metronome
×
Best way to learn
"Cry Baby Cry"
Autoscroll
+/-
esc
set tempo
stop
Contributor
WARNING: You are trying to view
                                    content from Ultimate-Guitar.com
                                    in an unauthorized application,
                                    which is prohibited.

                                    Please use an official Ultimate
                                    Guitar Tabs application for iPhone,
                                    iPad or Android to access legitimate
                                    chords, guitar, bass, and drum tabs
                                    from Ultimate-Guitar.com database.

                                    Type "ultimate guitar tabs" in Apple
                                    App Store's or Android Market's
                                    search to find the application.
CRY BABY CRY

Written by John Lennon

INTRO CHORUS

   4/4
G|---------------------------------|---------------------------------|
D|---------------------------------|---------------------------------|
A|---------------------------------|---------------------------------|
E|---------------------------------|---------------------------------|

                                    2/4
G|---------------------------------|-----------------|
D|---------------------------------|-----------------|
A|---------------------------------|-----------------|
E|---------------------------------|-----------------|

VERSE

   4/4
G|---------------------------------|---------------------------------|
D|---------------------------------|---------------------------------|
A|---------------------------------|---------------------------------|
E|---------------------------------|---------------------------------|

G|---------------------------------|---------------------------------|
D|---------------------------------|---------------------------------|
A|---------------------------------|---------------------------------|
E|---------------------------------|---------------------------------|

                                    2/4
G|---------------------------------|-----------------|
D|---------------------------------|-----------------|
A|---------------------------------|-----------------|
E|---------------------------------|-----------------|

  4/4
G|---------------------------------|---------------------------------|
D|---------------------------------|---------------------------------|
A|---------------------------------|---------------------------------|
E|---------------------------------|---------------------------------|

G|---------------------------------|---------------------------------|
D|---------------------------------|---------------------------------|
A|---------------------------------|---------------------------------|
E|---------------------------------|---------------------------------|

VERSE

G|---------------------------------|---------------------------------|
D|-----------5---------------5-----|-----------5---------------5-----|
A|-7---7-------7---6---6-------6---|-5---5-------5---4---4-------4---|
E|---------------------------------|---------------------------------|

G|---------------------------------|---------------------------------|
D|---------------------------------|-----------5---------------5-----|
A|-3-------1-----------2---2---5---|-7---7-------7---6---6-------6---|
E|---------------3-3-5-------------|---------------------------------|

                                    2/4
G|-------4-------------4-----------|-----------------|
D|-----------5-----------5---------|-----------------|
A|-5---5-------5---4---------4-4---|-3---3-1-1---1---|
E|---------------------------------|---------------3-|

  4/4
G|---------------------------------|---------------------------------|
D|-----------------------------2---|-3---2---3---4---5---2-----------|
A|---------2-----------2---3-------|-------------------------5-2-----|
E|-3---5-------3---5---------------|-----------------------------3---|

G|-----------4-----2---2-----------|---------------------------------|
D|-2---2-----------------------5---|-3---2---3---4---5-2-------------|
A|---------------------------------|---------------------5-2---------|
E|---------------------------------|-------------------------3-------|

VERSE

G|---------------------------------|---------------------------------|
D|---------------------------------|---------------------------------|
A|-7---------------6---------------|-5---------------4---------------|
E|---------------------------------|---------------------------------|

G|---------------------------------|---------------------------------|
D|---------------------------------|---------------------------------|
A|-3---3---1---1-----------2---5---|-7---------------6---------------|
E|-----------------3---5-----------|---------------------------------|

                                    2/4
G|---------------------------------|-----------------|
D|---------------------------------|-----------------|
A|-5---5---5---5---4---4---4---4---|-3---3---1-------|
E|---------------------------------|-------------5---|

  4/4
G|---------------------------------|---------------------------------|
D|-----------------------------2---|-3---2---3---4---5---2-----------|
A|---------2-----------2---3-------|-------------------------5---2---|
E|-3---5-------3---5---------------|---------------------------------|

G|-----------4-----2---2-----------|---------------------------------|
D|-2---2-------2---------------5---|-3---2---3---4---5-2-------------|
A|---------------------------------|---------------------5---2-------|
E|---------------------------------|-----------------------------3---|

VERSE

G|---------9\--------------9\------|---------9\----------------------|
D|---------------------------------|---------------------------------|
A|-7---7-----------6---6-----------|-5---5-----------4---4---4-------|
E|---------------------------------|---------------------------------|

G|---------------------------------|---------9\--------------9\------|
D|---------------------------------|---------------------------------|
A|-3---3---1---1-----------2---5---|-7---------------6---6-----------|
E|-----------------3---5-----------|---------------------------------|

                                    2/4
G|---------9\------6---6\----------|-----------------|
D|---------------------------------|-----------------|
A|-5---5---------------------------|-3---3-----------|
E|---------------------------------|---------0---3---|

  4/4
G|---------------------------------|---------------------------------|
D|-----------------------------2---|-3---2---3---4---5---5-2---------|
A|---------2-----------2---3-------|---------------------------5-2---|
E|-3---5-------3---5---------------|---------------------------------|

G|-----------4\----2---2-----------|
D|-2---2-------------------5---5---|
A|---------------------------------|
E|---------------------------------|

                                    2/4
G|---------------------------------|-----------------|
D|-3---3-2-3---4---5-2-------------|-----------------|
A|---------------------5---2-------|-----------------|
E|-----------------------------3---|-5---5---5-------|

OUTRO

  4/4
G|---------------------------------|---------4-------2---2-----------|
D|-3---2---3---4---5---2-----------|-2---2-------2-----------5---5---|
A|-------------------------5-2-----|---------------------------------|
E|-----------------------------3---|---------------------------------|

                                    2/4
G|---------------------------------|-----------------|
D|-3---2---3---4-5---2-------------|-----------------|
A|---------------------5---2-------|---------2---3---|
E|-----------------------------3---|-5---5-----------|

  4/4
G|---------------------------------|---------4-------2---2-----------|
D|-3---3---2---3-5---2-------------|-2---2-------2-----------5---5---|
A|---------------------5---2-------|---------------------------------|
E|-----------------------------3---|---------------------------------|

G|---------------------------------|
D|-3---2---3---5---2---------------|
A|---------------------------------|
E|---------------------------------|

(Can You Take Me Back)

G|-10----------------------8-------|-10----------------------8-------|
D|-----------------10--------------|-----------------10--------------|
A|---------------------------------|---------------------------------|
E|---------------------------------|---------------------------------|

G|-10----------------------8-------|-10----------------------8-------|
D|-----------------10--------------|-----------------10--------------|
A|---------------------------------|---------------------------------|
E|---------------------------------|---------------------------------|

G|-10----------------------8-------|-10----------------------8-------|
D|-----------------10--------------|-----------------10--------------|
A|---------------------------------|---------------------------------|
E|---------------------------------|---------------------------------|

G|-10------------------------------|-10------------------------------|
D|-----------------10--------------|-----------------10--------------|
A|---------------------------------|---------------------------------|
E|---------------------------------|---------------------------------|

G|-10------------------------------|-10------------------------------|
D|-----------------10--------------|-----------------10--------------|
A|---------------------------------|---------------------------------|
E|---------------------------------|---------------------------------|

G|-10------------------------------|-10------------------------------|
D|-----------------10--------------|-----------------10--------------|
A|---------------------------------|---------------------------------|
E|---------------------------------|---------------------------------|

G|-10------------------------------|-10----------------------8-------|
D|-----------------10--------------|-----------------10--------------|
A|---------------------------------|---------------------------------|
E|---------------------------------|---------------------------------|

G|-10------------------------------|-10------------------------------|
D|-----------------10--------------|-----------------10--------------|
A|---------------------------------|---------------------------------|
E|---------------------------------|---------------------------------|

G|-10------------------------------|-10------------------------------|
D|-----------------10--------------|-----------------10--------------|
A|---------------------------------|---------------------------------|
E|---------------------------------|---------------------------------|
                                                             FADE OUT
comments
print report bad tab
2 comments total.
+1 reply
sheepgotnolove wrote on August 16 2015, 08:35 pm

Good job. Only missed a fill.

1st Verse, there's eighth note fills:
Verse 4/4
G|---------------------------------|-------------12---12---12---12---|
D|---------------------------------|---------------------------------|
A|---------------------------------|---------------------------------|
E|---------------------------------|---------------------------------|

G|-12---12---12---12---------------|---------------------------------|
D|---------------------------------|---------------------------------|
A|---------------------------------|---------------------------------|
E|---------------------------------|---------------------------------|

2/4
G|-------------12---12---12---12---|-12---12---12---12---|
D|---------------------------------|---------------------|
A|---------------------------------|---------------------|
E|---------------------------------|---------------------|

That's it.

0 reply
bass69 wrote on August 16 2015, 11:40 pm

yep dude, thanks for the correction

I want to post or [tab]
guest
You may want to rate the tab now too:
select rating
Please do not post tabs as comments. Select "correction" instead!