Oops, an error
Loading. Please wait.

Help Tab

ver1
ver1

Album

Whole song

More versions @911Tabs.com
335,811 views 490 this week
6 commentsread comments
1 2 3 4 5
excellent!
x 15
Autoscroll
+/-
esc
set tempo
stop
Contributor
WARNING: You are trying to view
                                    content from Ultimate-Guitar.com
                                    in an unauthorized application,
                                    which is prohibited.

                                    Please use an official Ultimate
                                    Guitar Tabs application for iPhone,
                                    iPad or Android to access legitimate
                                    chords, guitar, bass, and drum tabs
                                    from Ultimate-Guitar.com database.

                                    Type "ultimate guitar tabs" in Apple
                                    App Store's or Android Market's
                                    search to find the application.
Help!
Album

1) Help!
2) The Night Before
3) You've got to hide your love away
4) I Need You
5) Another Girl
6) You're going to lose that girl
7) Ticket to ride
8) Act Naturally
9) It's only love
10) You like me too much
11) Tell me what you see
12) I've just seen a face
13) Yesterday
14) Dizzy Miss Lizzy

==================================================================================
Help!
                              (Lennon/McCartney)
                                  The Beatles
                                  Help! (1965)


Bm                Bm/A
Help! I need somebody 
G                 G/F#
Help! Not just anybody
E
Help! You know I need someone,
A
Help!


A                            C#m               F#m
When I was younger, so much younger than today,
                          D       G   A
I never needed anybody's help in any way.
                                C#m                 F#m
But now those days are gone I'm not so self-assured,
                                        D    G       A
Now I find I've changed my mind, I've opened up the door.


 Bm                                 Bm/A    G                            G/F#  
Help me if you can I'm feeling down, and I do appreciate you being 'round.
 E                                                  A
Help me get my feet back on the ground, won't you please please help me.


                              C#m                   F#m
And now my life has changed in oh so many ways,
                           D     G       A
My independence seemed to vanish in the haze.
                         C#m                 F#m
But every now and then I feel so insecure,  
                                        D    G     A
I know that I just need you like I've never done before.


 Bm                                 Bm/A    G                            G/F#
Help me if you can I'm feeling down, and I do appreciate you being 'round.
 E                                                 A
Help me get my feet back on the ground, won't you please please help me.


A                            C#m               F#m
When I was younger, so much younger than today,
                          D       G   A
I never needed anybody's help in any way.
                                C#m                 F#m
But now those days are gone I'm not so self-assured,
                                        D    G       A
Now I find I've changed my mind, I've opened up the door.


 Bm                                 Bm/A    G                            G/F#  
Help me if you can I'm feeling down, and I do appreciate you being 'round.
 E                                                  A               F#m
Help me get my feet back on the ground, won't you please please help me.
              A    A6
Help me, help me, ooo.

  A6
  -2-
  -2-
  -2-
  -2-
  -0-
  ---

transcribed by Chris Sears
cts@mail.utexas.edu




                               Help
							Lennon/McCartney

Em      C      A7      G


G                            Bm                   Em
When I was younger, so much younger than today,

                          C      F    G
I never needed anybody's help in any way.

                                Bm                    Em
But now those days are gone I'm not so self-assured,

                                      C      F       G
Now I find I've changed my mind, I've opened up the door.

 Am                                        F
Help me if you can I'm feeling down, and I do appreciate you being 'round.

 D7                                                 G
Help me get my feet back on the ground, won't you please please help me.

                               Bm                   Em
And now my life has changed in oh so many ways,

                           C     F       G
My independence seemed to vanish in the haze.

                          Bm                 Em
But every now and then I feel so insecure,  

                                      C      F      G
I know that I just need you like I've never done before.

 Am                                        F
Help me if you can I'm feeling down, and I do appreciate you being 'round.

 D7                                                 G
Help me get my feet back on the ground, won't you please please help me.

G                            Bm                   Em
When I was younger, so much younger than today,

                          C      F    G
I never needed anybody's help in any way.

                                Bm                    Em
But now those days are gone I'm not so self-assured,

                                      C      F       G
Now I find I've changed my mind, I've opened up the door.

 Am                                        F
Help me if you can I'm feeling down, and I do appreciate you being 'round.

 D7                                                 G                Em
Help me get my feet back on the ground, won't you please please help me.

               G   Em
Help me, help me,  oo.







=============================================================================


   
                          The Night Before
	

by Lennon/McCartney
from Help!

Intro:

|D      |       |F      |       |G7     |       |A7     |       |


D               C           
We said our goodbyes___________
G               A                
            The night before
D                C           
Love was in your eyes___________
G               A                
            The night before

Bm          Gm6
Now today I find
Bm                    Gm6
You have changed your mind
D                    G7               D     F     G
Treat me like you did the night before

D                 C           
Were you telling lies?___________
G               A                
            The night before
D           C           
Was I so unwise___________
G               A                
            The night before

Bm                  Gm6
When I held you near
Bm             Gm6
You were so sincere
D                    G7               D     F     G
Treat me like you did the night before  Yeah

Am                    D7
Last night is the night I will re-
G      C/G   G
member you by
Bm                    E7
When I think of things we did  It
A7
makes me wanna cry

D               C           
We said our goodbyes___________
G               A                
            The night before
D                C           
Love was in your eyes___________
G               A                
            The night before

Bm          Gm6
Now today I find
Bm                    Gm6
You have changed your mind
D                    G7               D     F     G
Treat me like you did the night before            Yes

Solo:
  
  D                            C
-|----------------------------|------------------------------
-|----------------------------|------------------------------
-|--------5b7r5---------------|------------------------------
-|-----------------7----------|-------------5b7r5---3--------
-|----------------------------|------------------------------
-|----------------------------|------------------------------
  G                            A
-|----------------------------|------------------------------
-|----------------------------|------------------------------
-|---------5---7b9r7----5-----|------------------------------
-|-----7----------------------|-------------3b5r3------------
-|----------------------------|---------------------5--------
-|----------------------------|------------------------------
  D                            C
-|----------------------------|------------------------------
-|----------------------------|------------------------------
-|--------5b7r5---------------|------------------------------
-|-----------------7----------|-------------5b7r5---3--------
-|----------------------------|------------------------------
-|----------------------------|------------------------------
  G                            A
-|----------------------------|------------------------------
-|----------------------------|------------------------------
-|---------5---7b9r7----5-----|------------------------------
-|-----7----------------------|-------------3b5r3------------
-|----------------------------|---------------------5--------
-|----------------------------|------------------------------



Am                    D7
Last night is the night I will re-
G      C/G   G
member you by
Bm              E7
When I think of things we did  It
A7
makes me wanna cry

D                 C           
Were you telling lies___________

G               A                
            The night before
D           C           
Was I so unwise___________
G               A                
            The night before

Bm                  Gm6
When I held you near
Bm                 Gm6
You were so sincere
D                    G7               D     
Treat me like you did the night before      
F                   
Like the night before
 
End lick:

  D7                           D
-|----------------------------|------------------------------                            
-|----------------------------|------------------------------
-|-----5b7r5------------------|------------------------------
-|--------------7----3b5r3----|------------------------------
-|----------------------------|-5----------------------------
-|----------------------------|------------------------------

========================================================================

Hide Your Love Away


H[D]ere I st[A]and h[C]ead [G]in h[D]and,
T[G]urn my face to the w[C]all.[G]
[D]If she's g[A]one I c[C]an't [G]go [D]on,
F[G]eeling two feet s[C]mall.[G]    [A]

Ev[D]erywhe[A]re p[C]eop[G]le st[D]are,
E[G]ach and every d[C]ay.[G]
[D]I can s[A]ee them l[C]augh [G]at [D]me,
A[G]nd I hear them s[C]ay,[G]    [A]

     H[D]ey, you've got to h[G]ide your love a[A]way!
     H[D]ey, you've got to h[G]ide your love a[A]way!

H[D]ow can [A]I [C]eve[G]n t[D]ry?
[G]I can never w[C]in.[G]
H[D]earing th[A]em, s[C]eein[G]g t[D]hem,
I[G]n the state I'm [C]in,[G]    [A]
[D]How could s[A]he s[C]ay t[G]o m[D]e, "L[G]ove will find a w[C]ay"?[G]
G[D]ather 'r[A]ound a[C]ll y[G]ou clo[D]wns,
L[G]et me hear you s[C]ay,[G]    [A]

     H[D]ey, you've got to h[G]ide your love a[A]way!
     H[D]ey, you've got to h[G]ide your love a[A]way!
#
# Submitted to the ftp.nevada.edu:/pub/guitar archives# by Steve Putz  
===========================================================================

I Need You


MUSIC BY: The Beatles (From the Help! album) 
TABBED BY: The Beatles Central Team (jpgr_beatles@yahoo.com)
             

Intro:

A      Aadd9      Asus4     A


Verse 1:

A                 D             A       
You don't realize   how much I need
Aadd9             Asus4   A
you
A                     D          A   
Love you all the time and never leave 
A7                Asus4   A
you


Chorus:

       F#m                C#m
Please come on back to me
     F#m             Bm 
I'm lonely as can be   
   A       Aadd9      A
I need you             


Verse 2:

A                    D            A        
Said you had a thing   or two to tell 
Aadd9             Asus4   A
me
A                 D             A   
How was I to know   you would upset 
A7                Asus4   A
me


Chorus:

   F#m           C#m
I didn't realize
      F#m                  Bm 
As I looked into your eyes   
     A      Aadd9      A
You told me               


Bridge:

A              D
   Oh yes you told me
     E                           A
You don't want my lovin' anymore
A                  D
   That's when it hurt me
     E                    B7                   E
And feeling like this, I just can't go on any more 


Verse 3:

A                D           A       
Please remember how I feel about 
Aadd9             Asus4   A
you
A                 D            A   
I could never really live without 
A7                Asus4   A
you


Chorus:

    F#m                 C#m
So come on back and see
      F#m                Bm 
Just what you mean to me  
   A       Aadd9      A
I need you   


Bridge:

A              D
   Oh yes you told me
     E                           A
You don't want my lovin' anymore
A                  D
   That's when it hurt me
     E                    B7                   E
And feeling like this, I just can't go on any more   


Verse 3:

A                D           A       
Please remember how I feel about 
Aadd9             Asus4   A
you
A                 D            A   
I could never really live without 
A7                Asus4   A
you

Chorus:

    F#m                 C#m
So come on back and see
      F#m                Bm 
Just what you mean to me  
   A       Aadd9      A
I need you   


Coda:

A              F#m
        I need    you
               D
        I need    you
A  Aadd9        Asus4    A

===========================================================================


                       "Another Girl"
          (by Paul McCartney) 1965 from the album HELP!
 [Tabbed by Andrew: ab2183@aol.com-Requests,comments,corrections]

VERSE 1:
N.C.        A  D         A  D          A
For I have got  another girl  another girl
                  G               A            D    A
You're making me say that I've got nobody but you
             G                   A                 D
But as from today, well, I've got somebody that's new
                                               E
I ain't no fool and I don't take what I don't want

VERSE 2:
             A D          A   D         A
For I have got   another girl  another girl
                    G                A               D     A
She's sweeter than all the girls and  I met quite a few
           G                A                D
Nobody in all the world can  do what she can do
                                                  E
And so I'm telling you, "This time you'd better stop"

CHORUS:
           A   D        A        D
For I have got  another girl
         C             G                C      G
Another girl who will love me till the end
                   C              G            A7
Through thick and thin she will always be my friend

VERSE 3:
A                G                 A               D   A
 I don't want to say that I've been  unhappy with you
                G                  A                 D
But, as from today, well, I've seen somebody that's new
                                               E
I ain't no fool and I don't take what I don't want

REPEAT CHORUS

REPEAT VERSE 3

OUTRO:
            A D         A  D
For I have got another girl
         A   D         A
Another girl, another girl...


CHORDS USED:

N.C.-No Chord played
A-X02220
D-XX0232
E-022100
C-X32010
G-320003
A7-X02020


=========================================================================

	You're Going to Lose that Girl
			-Lennon/McCartney
Intro
	     E		     C#m7
You're gonna lose that girl.
             F#m7		  B7
You're gonna lose       that      girl.

Verse
E                     G#m7
If you don't take her out tonight
            F#m7            B7
She's gonna change her mind
E                   G#m7
And I will take her out tonight
           F#m7          B7
and I will treat her kind

Chorus
B7           E
You're gonna lose that girl
C#m7                   F#m7    B7
You're gonna lose      that    girl

Repeat verse w/ new lyrics, same chords

If you don't treat her right my friend
you're gonna find her gone
Cause I will treat her right and then
you'll be the lonely one.

Chorus

Bridge

B7           F#m7         D
You're gonna lose 
G                    C                     G
I'll make a point of takin' her away from you
Yeah
                       C               F
The way you treat her, what else can I do?

Solo
E            G#m7
Repeat bridge
Repeat first verse
Repeat Chorus

Outro

F#m7              D         A       E
You're gonna      lose      that    girl


===========================================================================



         Ticket To Ride
         (Lennon/McCartney)

Intro (play twice... let all notes ring):

-|-----0-----------0-----0-----------0--------
-|--------2-----0-----------2-----0-----------
-|--2--------2--------2--------2--------------
-|--------------------------------------------
-|--------------------------------------------
-|--------------------------------------------

Verse:

    A               
I think I'm gonna be sad   I think it's today, yeah

                                         Bm   E
The girl that's driving me mad is going away

 F#m                   D    F#m                   Gmaj7
She's got a ticket to ride  she's got a ticket to ride

F#m                    E                   A
She's got a ticket to ride  and she don't care.

Then second verse...
Then ...
Middle:

   D
I don't know why she's riding so high

                                                    E
She ought to think twice   she ought to do right by me

   D
Before she gets to saying goodbye

                                                    E
She ought to think twice   she ought to do right by me


Little solo:

-|----------------------10------b(14)12--10--12----
-|--b(12)10--8-----/12------12---------------------
-|--------------9----------------------------------
-|-------------------------------------------------
-|-------------------------------------------------
-|-------------------------------------------------

Then another verse, then another middle, then another verse, then

Ending:
                A
My baby don't care...
======================================================================
	

Act Naturally
	(Morrison/Russell)
	As performed by The Beatles


Intro:
             D                               G
e|-------------------------------------------3----3--3-------------------
B|--------------3---------1-----7---------7--3h5--5--5p3--3--------------
G|--0--------------0--h2-----------7--h9------------------4--0-----------
D|-----4--2--0---------------0-------------------------------------------
A|------------------------------------------------------------------7\5--
D|--------------------------------------------------------------/9-------


Verse:
  G                           C
They're gonna put me in the movies
  G                                  D
They're gonna make a big star out of me
  G                                              C
They'll make a film about a man that's sad and lonely
   
  D                        G
And all I gotta do is Act Naturally.


Middle:
        D                      G
Well I bet you I'm gonna be a big star
         D                           G
I might win an Oscar  You can never tell
      D                         G
The movies gonna make me a big star
     A                       D
'Cos I can play the part so well.


Verse:
We'll make a film about a man that's sad and lonely
And begging down upon his bended knee
I'll play the part  But I won't need rehearsin' 
Cos all I gotta do is Act Naturally.


Guitar Solo (play this twice):
             D                         G
e|-----------------------------------------------------------------------
B|-----------------------------------------------------------------------
G|-----------------------------------------------------------------------
D|--------------0------------0---------5--5------------------------------
A|---------------------3------------3--------b(7)5-----------------------
D|--5--4--2--0-----/7-----0-----/7------------------7b(9)--5-------------


Well I bet you I'm gonna be a big star
I might win an Oscar  You can never tell
The movies gonna make me a big star
'Cos I can play the part so well.

Well I hope you come and see me in the movies
Then I know that you will plainly see
The biggest fool that ever hit the big time
And all I gotta do is Act Naturally.

Ending:
             D                          G
e|-----------------------------------------------------------------------
B|-----------------------------------------------------------------------
G|-----------------------------------------------------------------------
D|--------------0------------4-------4--5--5-----------------------------
A|---------------------3--------5/7-----------b(7)5----------------------
D|--5--4--2--0-----/7-----0--------------------------7b(9)--5------------








Assorted guitar licks:


Example licks for verse:
   They're gonna put me in the movies
e|-----3----3------------------------------------------------------------
B|-----0----0----------------------1---------------1---------------------
G|-----0----0----------------------0---------0-----0---------0-----------
D|-------------------0----------------0--h2-----------0--h2--------------
A|----------------------0---2---3---------------3------------------------
D|--5-------------5------------------------------------------------------

   They're gonna make a big star out of me
e|----------3---------3--------------------------------------------------
B|----------0---------0--------------------------------------------------
G|----------0---------0--------------------0---------0-------------------
D|--------------------------------------------0--h2-----2--0-------------
A|------------------------------------------------------------3--2--0----
D|--5--------------------5---5----4--2--0--------------------------------

   They'll make a film about a man that's sad and lonely
e|--------------3--------3----------3-----------------------------------------
B|--------------0--------0----------0-----------------------------------------
G|--------------0--------0----------0-----------------0-------0--0--0-------0-
D|-------------------------------------------------------0h2-----------0h2----
A|-----------------------------------------0---2---3--------------------------
D|----------5-------------------5---------------------------------------------

   And all I gotta do is Act Naturally
e|------------2---------2------------------------------------------------
B|------------3---------3-----------------5--3---------------------------
G|------------2---------2------------2/4--------4--0---------------------
D|------0----------------------------------------------------------------
A|-----------------------------------------------------------------------
D|-----------------------------------------------------------------------


Example licks for middle part:
   Well I bet you I'm gonna be a big star                      I might 
e|-----------------------------------------------------------------------
B|-------------3---3-----------------------------------------------------
G|-------------2---2------------------0-------0--0--0--0-------0---------
D|-------------0---0---------------------0h2--------------0h2------------
A|--------------------------2--4--5--------------------------------------
D|---------0-------------0-----------------------------------------------

..win an Oscar  You can never tell (repeat above)

  

 The movies gonna make me a big star                       'Cos I
e|-----------------------------------------------------------------------
B|-----------------------------------------------------------------------
G|-----------------------------------------------------------------------
D|--------------------------------5-----5-----5-----5-----6-------7------
A|-----------------------------------------------------------------------
D|--------------------0--2--4--5-----5-----5-----5-----6-----7-----------

   can play the part so well.
e|-----------------------------------------------------------------------
B|-----------------------------------------------------------------------
G|-----------------------------------------------------------------------
D|---------------------------12------10-----9-----7----------------------
A|-----------------------------------------------------------------------
D|-----------------------12------10------9-----7-------------------------


One other famous lick:
   Then I know that you will plainly see
e|-----------------------------------------------------------------------
B|-----------------------------------------------------------------------
G|-----------------------------------------------------------------------
D|---------------------------------------------------0-------------------
A|--------------------------------------------0--h2-----2--p0------------
D|-----------------------5----4--2----0--3h4-------------------4--5------




   It's only love       (Lennon/McCartney)

   G+:  xx1003


  C           Am

|-------------0
|-1---0-------1
|-------2-0---2    repeat    
|-------------2
|-------------0
|--------------   



   C     Em        Bb     F      G   G7  G+       G
   I get high when I see you go by,         my oh my

 (emphasize the following notes while playing the chords, or pick them):

|-------------------------------------------------------
|--1------0---------------------------------------------
|-------------------3------2------0---------------------
|-------------------------------------3---1----------0--
|-------------------------------------------------------
|-------------------------------------------------------
  
     
      C      Em      Bb    F          G   G7  G+       G                        
    When you sigh my my inside just flies,      butterflies
 
      F          G              C      Am 
    Why am I so shy when I'm beside you ?


                Bb               G
     It's only love and that is all

                   C              Am    (as in intro)
     Why should i feel the way i do?

                Bb               G                F           G
     It's only love and that is all, but it's so hard, lovin you

    Is it right that you and i should fight every night
    Just the sight of you makes nighttime bright, very bright
    Haven't I the right to make it up, girl?

    It's only love and that is all,
    Why should i feel the way i do?
    It's only love and that is all, but it's so hard, lovin you
             F               G          C     Am    C    Am 
    Yes it's so hard, lovin you, lovin you.

===============================================================


You Like Me Too Much
MUSIC BY: The Beatles (From the Help! album) 
TABBED BY: The Beatles Central Team (jpgr_beatles@yahoo.com)


Intro:

G              Bb      D7      G

Verse 1:

G                              Am                   C             G
Though you're gone away this morning you'll be back again tonight
          Am                                  C                     G
telling me there'll be no next time if I just don't treat you right
       Bm7                                   D7
You'll never leave me and you know it's true
           G              C               D7
Cause you like me too much and I like you


Verse 2:

G                               Am           C                G
You've tried before to leave me but you haven't got the nerve 
            Am                               C              G
To walk out and leave me lonely which is all that I deserve
       Bm7                                   D7
You'll never leave me and you know it's true
           G              C               D7
Cause you like me too much and I like you


Bridge:

G/F    G/B      Em7       A7
I               really do
              Bm               A
And it's nice when you believe me
Em7  A7         D7
If  you  leave  me


Verse 3:

Am                                  C                  G
I will follow you and bring you back  where you belong
         Am                               C                G
Cause I couldn't really stand it  I admit that I was wrong
   Bm7                                       D7
I wouldn't let you leave me cause  it's true
           G              C               D7
Cause you like me too much and I like you


Solo:

   D7                                G
E|---------7-------6---5-------3---|--------------------------------
B|---------------------------------|--------------------------------
G|---------7-------6---5-------4---|--------------------------------
D|---------------------------------|--------------------------------
A|---------------------------------|--------------------------------
E|---------------------------------|--------------------------------
   ^       ^       ^       ^         ^       ^       ^       ^                   

                                  
E|---------7-------6---5-------3---|--------------------------------
B|---------------------------------|--------------------------------
G|---------7-------6---5-------4---|--------------------------------
D|---------------------------------|--------------------------------
A|---------------------------------|--------------------------------
E|---------------------------------|--------------------------------
   ^       ^       ^       ^         ^       ^       ^       ^   

                                     C
E|---------------------------------|--------------------------------
B|---------1-------3---4-------5---|--------------------------------
G|---------------------------------|--------------------------------
D|---------2-------3---4-------5---|--------------------------------
A|---------------------------------|--------------------------------
E|---------------------------------|--------------------------------
   ^       ^       ^       ^         ^       ^       ^       ^       

                                     G
E|---------7-------6---5-------3---|--------------------------------
B|---------------------------------|--------------------------------
G|---------7-------6---5-------4---|--------------------------------
D|---------------------------------|--------------------------------
A|---------------------------------|--------------------------------
E|---------------------------------|--------------------------------
   ^       ^       ^       ^         ^       ^       ^       ^    

                                     D7
E|---------7-------8---9-------10--|--------------------------------
B|---------------------------------|--------------------------------
G|---------7-------9---10------11--|--------------------------------
D|---------------------------------|--------------------------------
A|---------------------------------|--------------------------------
E|---------------------------------|--------------------------------
   ^       ^       ^       ^         ^       ^       ^       ^      


E|---------10------8---7-------5---|--------------------------------
B|---------------------------------|--------------------------------
G|---------11------9---7-------5---|--------------------------------
D|---------------------------------|--------------------------------
A|---------------------------------|--------------------------------
E|---------------------------------|--------------------------------
   ^       ^       ^       ^         ^       ^       ^       ^     

Verse 4:
  
         Am                               C                G
Cause I couldn't really stand it  I admit that I was wrong
   Bm7                                       D7
I wouldn't let you leave me cause  it's true
           G              C               D7
Cause you like me too much and I like you


Coda:
     
           G              C               D7
Cause you like me too much and I like you

G            Bb      D7       G


============================================================================











Tell Me What You See
MUSIC BY: The Beatles (From the Help! album) 
TABBED BY: The Beatles Central Team (jpgr_beatles@yahoo.com)


Intro:

G           

Verse 1:

G         C       D           G
If you let me take your heart   
 
            C       G
I will prove to you

G         C     D      G   
We will never be apart   
 
C          D       G
If I'm part of you


Chorus:

C                G
Open up your eyes now
C                    G
Tell me what you see
C                G                
It is no surprise now
C           D      G
What you see is me


Bridge:

G7add9
Tell   me   what   you

C              G         D7        G     
see


Verse 2:

G            C          D       G
Big and black the clouds may be 
 
              C     G
Time will pass away

G         C          D      G   
If you put your trust in me 
 

C               D         G
I'll make bright your day


Chorus:

C                  G
Look into the skies now
C                    G
Tell me what you see
C                G                
Don't you realize now
C           D      G
What you see is me


Bridge:

G7add9
Tell   me   what   you

C              G         D7        G     
see

Verse 3:

G        C      D          G
Listen to me one more time 
 
         C            G
How can I get through

G            C      D         G   
Can't you try to see that I'm  
 
C            D       G
Tryin' to get to you


Chorus:

C                G
Open up your eyes now
C                    G
Tell me what you see
C                G                
It is no surprise now
C           D      G
What you see is me


Bridge:

G7add9
mm   mm   mm   mm

C              G         
============================================================================

	I've Just Seen A Face
	 (Lennon/McCartney)

Note:	Play with capo on 2nd fret, bringing song up to the key of A.

First verse:
 G                                                                    Em
I've just seen a face I can't for get the time or place where we just met
                                                                  C
She's just the girl for me and I want all the world to see we've met
         D     G
Na na na na na na


Second verse:
Had it been another day I might have looked the other way and
I'd have never been aware but as it is I'll dream of her tonight
Da da da da da da 

Chorus:
   D                C                    G   C           G
Falling yes I am falling and she keeps calling me back again

Third verse:
I have never known the likes of this I've been alone and I have 
Missed things and kept out of sight but as it is I'll dream of her tonight
Da da da da da da 

Repeat chorus.

Guitar solo played to verse chords.

Repeat chorus.

Repeat first verse.

Repeat chorus 3 times to end.


Intro, guitar #1 part is on 1st & 3rd strings, guitar #2 part on 
4th, 5th, and 6th strings:

E --------2---2---2---5---5---5----9----9----9----14----14----14-
B ---------------------------------------------------------------
G ------2---2---2---6---6---6---11---11---11---14----14----14----
D ----------------------------------------------4--------2-------
A ---------------------------------------------------------------
E --5-4-2--------------------------------------------------------

E -----10----10----10----12----12----12----14----14----14----14----14----14-
B --------------------------------------------------------------------------
G --11----11----11----12----12----12----14----14----14----14----14----14----
D --------------------------------------------------------------------------
A ---5-----------------------------------------------------5--------4-------
E --------------------------------------------------------------------------

E -----13----13----13----11----11----11----------------------
B -----------------------------------------------------------
G --12----12----12----10----10----10-------------------------
D -----------------------------------------------------------
A ---2-------------------------------------------------------
E ---------------------5--------4-------5--------------------


I've Just Seen a Face}


{notes:  No capos are needed to play this song}

 [A]
I've just seen a face I can't forget the time or place where we just
[F#m]
met she's just the girl for me and I want all the world to see we've
[D]         [E]       [A]
met mmm mmm mmm mm mm mmm

 [A]
Had it been another day I might have looked the other way and
[F#m]
I'd have never been aware but as it is I'll dream of her
[D]          [E]       [A]
tonight da da da da-da da

{Chorus}
[E]                [D]
Falling yes I am falling and she keeps
[A]      [D]     [A]
Calling me back again


I have never known the like of this I've been alone and I have
missed things and kept out of sight but other girls were never quite
like
this da da da da-da da

{Chorus}

{One verse guitar solo}

{Chorus}

{Repeat first verse}

{Chorus}

{Repeat Chorus}

{Repeat Chorus with this change}

.....
[A]              [D]       [E]        [A]
Calling me back again

==================================================================================


	YESTERDAY
	by John Lennon/Paul McCartney

	tablature by Jonathan Byrd

I have listed the basic chord progression above the tablature.
Sometimes the melody is part of the chord, and sometimes an extension
of the chord.  I did not indicate which notes should be sustained.  To
show the timing, I placed a "v" over each beat.  I typically play the
intro, two verses, the bridge, another verse, and the coda.

[INTRO]

     FM7   G7     Bb FM7
     v  v  v  v   v  v    v   v 
e |-------------|---------------
B |-------------|----1--1-------
G |-----2--0----|-3--2--2-------
D |--3-----3--0-|-3--3--3-------
A |--3-----2----|-1--3--3-------
E |--1-----3----|---------------


[VERSE]

      FM7                Em7      A7         Dm          Dm/C
   /  v    v   v   v     v   v    v    v     v   v   v   v
e ||------------------|----------------0-1-|-0-------------|
B ||------------------|--------0--2--3-----|-----3-3---3---|
G ||--0---------------|------2----0--------|---2-------2---|
D ||----3--3---------3|------0-------------|-0-------0-----|
A ||-------3-----0-3--|----2------0--------|-------------3-|
E ||--1--------1------|--0-----------------|---------------|
   \

    BbM7       C7         FM7            Dm   G7     Bb FM7
    v    v     v     v     v  v   v  v   v v  v  v   v  v  v  v \
e |----------------------|-------------|-----------|------------||
B |------3--3--1---------|-1--1-1------|-----------|----1-1-----||
G |------2--------3--2-0-|-3--2------0-|---2--0----|-3--2-2-----||
D |---3------------------|-3--3------2-|-3----3--0-|-3--3-3-----||
A |-1----------3---------|-3--3--------|-5----2----|-1--3-3-----||
E |----------------------|-------------|------3----|------------||
                                                                /









[BRIDGE]

     Em7   A7     Dm  C7  BbM7    C7          FM7
     v  v  v  v   v   v   v v     v  v   v v   v  v  v  v
e |-------------|-----0---1-0---|-0----------|------------|
B |-------------|-3-----1-3---3-|------3-1-3-|-1----------|
G |--2-----2----|---2-----2-----|----3-------|-2----------|
D |--0-----5----|-0-------------|---2--------|-3----------|
A |--2-----0----|-----3---1-----|-3----------|-3----------|
E |--0----------|---------------|------------|------------|


     Em7   A7     Dm  C7  BbM7    C7          FM7
     v  v  v  v   v   v   v v     v  v   v v   v  v  v  v
e |-------------|-----0---1-0---|-0----------|-1----------|
B |-------------|-3-----1-3---3-|------3-1-3-|-1--1-------|
G |--2-----2----|---2-----2-----|----3-------|-2-----3--2-|
D |---0-----5---|-0-------------|---2--------|-3----------|
A |-----2--0--4-|-----3---1-----|-3----------|-3----------|
E |--0----------|---------------|------------|------------|


[VERSE]

     FM7                Em7      A7         Dm          Dm/C
     v    v   v   v     v   v    v    v     v   v   v   v
e |------------------|----------------0-1-|-0-------------|
B |------------------|--------0--2--3-----|-----3-3---3---|
G |--0---------------|------2----0--------|---2-------2---|
D |----3--3---------3|------0-------------|-0-------0-----|
A |-------3-----0-3--|----2------0--------|-------------3-|
E |--1--------1------|--0-----------------|---------------|


    BbM7       C7         FM7            Dm   G7     Bb FM7      
    v    v     v     v     v  v   v  v   v v  v  v   v  v  v  v   
e |----------------------|-------------|-----------|------------|
B |------3--3--1---------|-1--1-1------|-----------|----1-1-----|
G |------2-------3-2--0--|-3--2------0-|---2--0----|-3--2-2-----|
D |---3------------------|-3--3------2-|-3----3--0-|-3--3-3-----|
A |-1----------3---------|-3--3--------|-5----2----|-1--3-3-----|
E |----------------------|-------------|------3----|------------|


[CODA]

    Dm   G7    Bb  F    
    v v  v  v   v  v  v v   
e |-----------|----1--1---|
B |-----------|----1--1---|
G |---2--0----|-3--2--2---|
D |-3----3--0-|-3--3--3---|
A |-5----2----|-1--3--3---|
E |------3----|----1--1---|

--
jonathan byrd
                        Yesterday  -  The Beatles
                    ----------------------------------
                              from the album 'Help'
 
                              tabbed by Howard Wright
                              H.Wright@astro.cf.ac.uk

You need to tune all strings down one tone for this - so when
you play a G shape it actually comes out in the key of F.
It's important to do this - you can't just play the thing in F
using normal tuning - you need some bass notes which you can
only get by tuning down a tone and playing as if in G.

(I'll write all the chord names as if in standard tuning)
Intro:
-------

      G(no 3rd)

-----3-3-3---3-3-3------3-3-3---3-3-3----------------------------------------
-----3-3-3---3-3-3------3-3-3---3-3-3---------------------------------------
-----0-0-0---0-0-0------0-0-0---0-0-0----------------------------------------
-----0-0-0---0-0-0------0-0-0---0-0-0----------------------------------------
-------------------------------------------------------------------------
---3------------------3----------------------------------------------------


Verse 1:
---------

      G(no 3rd)        F#7         B7                Em

-----3-3-3---3-3-3-------2-2-2--------2-2-2------------0-0-0---------------
-----3-3-3---3-3-3-------2-2-2--------4-4-4------------0-0-0---------------
-----0-0-0---0-0-0-------3-3-3--------2-2-2------------0-0-0---------------
-----0-0-0---0-0-0-------2-2-2--------4-4-4---------2--------------------
-------------------------4-4-4----2-------------------------------------------
---3-------3----------2----------------------------------------------------

    Yesterday             all my  troubles seemed so far away


       Em/D   C           D7                 G(no 3rd)

----0----0-----0-0-0---------2-2-2--------------3-3-3--------------------------
----0----0-----1-1-1---------1-1-1--------------3-3-3--------------------------
----0----0-----0-0-0---------2-2-2--------------0-0-0--------------------------
--2----0-------2-2-2-----0----------------------0-0-0--------------------------
-------------3-----------------------------------------------------------------
---------------------------------------------3-----------3----2----------------


                  now it  looks as if they're here to stay      oh



   Em7        A7          C  G(no 3rd)

-----0-0-0------0-0-0----0--3--3----------------------------------------------
-----3-3-3------2-2-2----1--3--3----------------------------------------------
-----0-0-0------0-0-0----0--0--0----------------------------------------------
-----2-2-2------2-2-2----2--0--0----------------------------------------------
-----2-2-2---0-----------3----------------------------------------------------
--0-------------------------3--3----------------------------------------------

   I believe        in   yesterday

Verse 2:
---------

Suddenly
I'm not half the man I used to be
There's a shadow hanging over me
Oh yesterday came suddenly


Middle 8:
----------

   F#7sus4    B7           (Em)  (C)       Am            D7         G(no 3rd)

---------------2-2-2----0-----0------------0-0-0-------2-2-2-----3-3-3---3-3-3-
----2-2-2------4-4-4----0-----1------------1-1-1-------1-1-1-----3-3-3---3-3-3-
----4-4-4------2-2-2----0-----0------------2-2-2-------2-2-2-----0-0-0---0-0-0-
----2-2-2------4-4-4----2--0--2------------2-2-2----0------------0-0-0---0-0-0-
----4-4-4---2-----------------3--2------0--------------------------------------
-2-------------------------------------------------------------3---------------

 Why       she         had to go I don't know she wouldn't say






------------------2-2-2----0-------0--------------0-0-0-----2-2-2---------
-----2-2-2--------4-4-4----0-------1--------------1-1-1-----1-1-1---------
-----4-4-4--------2-2-2----0-------0--------------2-2-2-----2-2-2---------
-----2-2-2--------4-4-4----2---0---2--------------2-2-2--0----------------
-----4-4-4-----2-------------------3-----2-----0--------------------------
--2------------------------------------------------------------------3----

   I           said       something wrong now I long for yes - ter - day


Verse 3:
---------

Yesterday
Love was such an easy game to play
Now I need a place to hide away
Oh I believe in yesterday


Repeat Middle 8

Repeat Verse 

End with :


   Em7        A7          C  G(no 3rd)

-----0-0-0------0-0-0----0--3--3----------------------------------------------
-----3-3-3------2-2-2----1--3--3----------------------------------------------
-----0-0-0------0-0-0----0--0--0----------------------------------------------
-----2-2-2------2-2-2----2--0--0----------------------------------------------
-----2-2-2---0-----------3----------------------------------------------------
--0-------------------------3--3----------------------------------------------


   mmm - mmm - mmm - mmm -mm m mmmmm

                                 Yesterday
                       by John Lennon & Paul McCarteny
                           tabed by Steve Wellman

   F                 A7                          Dm
e|-----------------|-------------------0----1--|-0---------------|
b|-----------------|-----0---2---3-------------|----3--3---------|
g|--0--------------|--2------------------------|-----------------|
d|------3---3------|---------------------------|-----------------|
a|-----------------|---------------------------|-----------------|
E|-----------------|---------------------------|-----------------|
   Yes-ter-day,     all my trou-bles seemed so  far a-way

   Bb     C                        F                   Dm     G
e|-------------------------------|-------------------|----------------|
b|--3--3---1---------------------|-------------------|----------------|
g|--------------3-----2-------0--|--3---2---2-----0--|----2---0-------|
d|-------------------------------|-------------------|-3----------0---|
a|-------------------------------|-------------------|----------------|
E|-------------------------------|-------------------|----------------|
   Now it looks as though they're  here to stay,  Oh   I be-lieve in

   Bb      F                    A7                       Dm
e|-------------|---------------|-------------------0--1-|--0---------|
b|-------------|---------------|------0---2---3---------|------3--3--|
g|------2---2--|--0------------|--2---------------------|------------|
d|--3----------|------3--3-----|------------------------|------------|
a|-------------|---------------|------------------------|------------|
E|-------------|---------------|------------------------|------------|
   yes-ter-day.  Sud-den-ly,     I'm not half the man I   used to be.

  

 Bb         C7                F                Dm      G
e|----------------------------|----------------|------------------|
b|---3-----3--1---------------|----------------|------------------|
g|----------------3---2---0---|-3--2--2-----0--|------2----0------|
d|----------------------------|----------------|--3-----------0---|
a|----------------------------|----------------|------------------|
E|----------------------------|----------------|------------------|
   There's a shad-ow hang-ing   o-ver me,  Oh    yes-ter-day came

   Bb       F     A7          Dm     Bb            C7
e|-------------|------------|-----0--1--0-------|---0-----------------|
b|-------------|------------|--3------------3---|--------3----1----3--|
g|------2---2--|---2---2----|-------------------|---------------------|
d|--3----------|------------|-------------------|---------------------|
a|-------------|------------|-------------------|---------------------|
E|-------------|------------|-------------------|---------------------|
   sud-den-ly.    Why she     had to go I don't   know, she would-n't

   F        A7        Dm           Bb           C 
e|--------|---------|--------0-----1----0----|--0-------------0--|
b|--------|---------|--3-------------------3-|-------3---1-------|
g|--2-----|-2---2---|------------------------|-------------------|
d|--------|---------|------------------------|-------------------|
a|--------|---------|------------------------|-------------------|
E|--------|---------|------------------------|-------------------|
   say.     I said    some-thing wrong now I   long for yes-ter-

   F                            A7                       Dm
e|-1------------|--------------|-------------------0--1-|---0-----------|
b|-----1--------|--------------|-------0---2---3--------|-------3---3---|
g|--------3--2--|--0-----------|--2---------------------|---------------|
d|--------------|------3---3---|------------------------|---------------|
a|--------------|--------------|------------------------|---------------|
E|--------------|--------------|------------------------|---------------|
   day.________   Yes-ter-day,   love was such an eas-y   game to play.

   
Bb    C7                 F                Dm      G        Bb       F
e|-----------------------|------------------|---------------|--------------|
b|--3--3--1--------------|------------------|---------------|--------------|
g|------------3---2---0--|--3---2--2-----0--|---2----0------|------2---2---|
d|-----------------------|------------------|-3----------0--|--3-----------|
a|-----------------------|------------------|---------------|--------------|
E|-----------------------|------------------|---------------|--------------|
   Now I need a place to   hide a-way,  Oh    I be-lieve in   yes-ter-day.



Now repeat from "Why she had to go..." and then play this:

  Dm     G       Bb     F
e|-------------|------------|
b|-------------|------------|
g|----2--0-----|-----2--2---|
d|-3--------0--|--3---------|
a|-------------|------------|
E|-------------|------------|
   Mm mm mm mm   mm mm mm 

==========================================================================

Dizzy Miss Lizzy
MUSIC BY: The Beatles (From the Help! album) 
TABBED BY: The Beatles Central Team (jpgr_beatles@yahoo.com)
      
       
Intro: (Lead Guitar plays variations on this lick throughout the song)

   F                                
E|------------------------------------|
B|-12b(14)(14)(14)-(14)r12-10-12b(14)-|
G|------------------------------------|
D|------------------------------------|
A|------------------------------------|
E|------------------------------------|
   ^       ^       ^       ^       
(The following rhythm pattern is the same pattern for the whole song.
 We will call it Rythym 1.)
   A                                        
E|---------------------------------|--------------------------------
B|---------------------------------|--------------------------------
G|---------------------------------|--------------------------------
D|---------------------------------|--------------------------------
A|-----------------7---7---9---7---|-----------------7---7---9---7--
E|-5---5---8---9-------------------|-5---5---8---9------------------
   ^       ^       ^       ^         ^       ^       ^       ^ 
  
E|---------------------------------|--------------------------------
B|---------------------------------|--------------------------------
G|---------------------------------|--------------------------------
D|---------------------------------|--------------------------------
A|-----------------7---7---9---7---|-----------------7---7---9---7--
E|-5---5---8---9-------------------|-5---5---8---9------------------
   ^       ^       ^       ^         ^       ^       ^       ^
   D
E|---------------------------------|--------------------------------
B|---------------------------------|--------------------------------
G|---------------------------------|--------------------------------
D|-----------------7---7---9---7---|-----------------7---7---9---7--
A|-5---5---8---9-------------------|-5---5---8---9------------------
E|---------------------------------|--------------------------------
   ^       ^       ^       ^         ^       ^       ^       ^
   A
E|---------------------------------|--------------------------------
B|---------------------------------|--------------------------------
G|---------------------------------|--------------------------------
D|---------------------------------|--------------------------------
A|-----------------7---7---9---7---|-----------------7---7---9---7--
E|-5---5---8---9-------------------|-5---5---8---9------------------
   ^       ^       ^       ^         ^       ^       ^       ^





   E7                                D
E|---------------------------------|--------------------------------
B|---------------------------------|--------------------------------
G|---------------------------------|--------------------------------
D|-----------------9---9---11--9---|-----------------7---7---9---7--
A|-7---7---10--11------------------|-5---5---8---9------------------
E|---------------------------------|--------------------------------
   ^       ^       ^       ^         ^       ^       ^       ^
   A                                 E7
                                     You make me dizzy Miss
E|---------------------------------|--------------------------------
B|---------------------------------|--------------------------------
G|---------------------------------|--------------------------------
D|---------------------------------|-----------------9---9---11--9--
A|-----------------7---7---9---7---|-7---7---10--11-----------------
E|-5---5---8---9-------------------|--------------------------------
   ^       ^       ^       ^         ^       ^       ^       ^

Verse 1:(With Rhythm 1)

   A    
  Lizzy    The way you rock and roll 
 
           You make me dizzy Miss                                   
   D
  Lizzy    When we do the stroll
   A                     E7
           Come on Miss Lizzy
   D                        A
  Love me 'fore I grow too old
        E7                 
           Come on give me 
   A        
  fever    Put your little hand in mine   
          
           
You make me dizzy Miss 
   D
  Lizzy    Oh! Girl you look so fine
   A                            E7
           Just a rockin and a rollin
   D                           A
  Girl I said I wish you were mine
   E7
  Ahhh


Instrumental:(With Rhythm 1)

A
D            A
E7    D      A     E7
                   You make me dizzy Miss





Verse 2:(With Rhythm 1)

   A    
  Lizzy    When you call my name
 
           Ooooh ba-                                  
   D
  by       Say you're driving me insane
   A                                            E7
           Come on, come on, come on, come on, baby
   D                        A
  I want to be your lovin' man
        E7                 
           Ah
 

Instrumental:(With Rhythm 1)

A
D            A
E7    D      A     E7
                   Run and tell your ma-


Verse 3:(With Rhythm 1)

   A    
  ma       I want you to be my bride
 
           Run and tell your bro-                                
   D
  ther     Baby don't run and
   A                               E7
  hide     You make me dizzy Miss Lizzy
  
 D                        A
  Girl I want to marry you
        E7                 
           Come on give me 
   A        
  fever    Put your little hand in mine   
          
  girl     You make me dizzy Miss 
   D
  Lizzy    Girl you look so fine
   A                                    E7
           You're just a rockin and a rollin
   D                           A
  Ooh  I said I wish you were mine
   E7
  Ahhh

Instrumental:(With Rhythm 1)

A
D            A
E7    D      A     E7
                   You make me dizzy Miss

Verse 4:(With Rhythm 1)

   A    
  Lizzy    The way you rock and roll 
 
           You make me dizzy Miss                                   
   D
  Lizzy    When we do the stroll
   A                     E7
           Come on Miss Lizzy
   D                        A
  Love me 'fore I grow too old
        E7                 
           Come on give me 
   A        
  fever    Put your little hand in mine   
          
           You make me dizzy Miss 
   D
  Lizzy    Oh! Girl you look so fine
   A                            E7
           Just a rockin and a rollin
   D                           A
  Girl I said I wish you were mine

End with this chord:
   A6                                
E|-2-------------------------------|
B|-2-------------------------------|
G|-2-------------------------------|
D|-2-------------------------------|
A|-0-------------------------------|
E|---------------------------------|
6 comments total. Showing first comments.
+1 reply
stuartbartley wrote on May 9 2007, 09:15 am

the D in the verse should be a Bm7 not that it matters much theyr practically the same chord(x24232 instead of xx0232). u can see it in the video

http://youtube.com/watch?v=l8UOHpMGG0Y

geat tabs tho basically 100% correct!

0 reply
stuartbartley wrote on May 9 2007, 09:15 am

oh and sorry i meant on the song help if ur wondering where!

0 reply
Who66 wrote on November 27 2007, 01:56 am

its only love-capo five to get that ringing sound (12 string)
YGTHYLA is in G
dizzy miss lizzy walking line probably
in first position.
not bad compilation of other peoples work.

I want to post or [tab]
guest
You may want to rate the tab now too:
select rating
Please do not post tabs as comments. Select "correction" instead!