Oops, an error
Loading. Please wait.

Help Tab

ver2
ver2

Album

Whole song

More versions @911Tabs.com
58,971 views 118 this week
3 commentsread comments
1 2 3 4 5
excellent!
x 5
Autoscroll
+/-
esc
set tempo
stop
Contributor
WARNING: You are trying to view
                                    content from Ultimate-Guitar.com
                                    in an unauthorized application,
                                    which is prohibited.

                                    Please use an official Ultimate
                                    Guitar Tabs application for iPhone,
                                    iPad or Android to access legitimate
                                    chords, guitar, bass, and drum tabs
                                    from Ultimate-Guitar.com database.

                                    Type "ultimate guitar tabs" in Apple
                                    App Store's or Android Market's
                                    search to find the application.
                       HELP ALBUM


         1  HELP
         2  THE NIGHT BEFORE
         3  YOU'VE GOT TO HIDE YOUR LOVE AWAY
         4  I NEED YOU
         5  ANOTHER GIRL
         6  YOU'RE GOING TO LOSE THAT GIRL
         7  TICKET TO RIDE
         8  ACT NATURALLY
         9  IT'S ONLY LOVE
        10  YOU LIKE ME TOO MUCH
        11  TELL ME WHAT YOU SEE
        12  I'VE JUST SEEN A FACE
        13  YESTERDAY
        14  DIZZY MISS LIZZY

   
 --------------------------------------------------------

  THE BEATLES - HELP (Lennon & McCartney) from HELP album.
                Released on August 6th, 1965.

  --------------------------------------------------------

  Tabbed by:PJVillanueva


  Help, I need somebody,
  Help, not just anybody,
  Help, you know I need someone, help.

  When I was younger, so much younger than today,
  I never needed anybody's help in any way.
  But now these days are gone, I'm not so self assured,
  Now I find I've changed my mind and opened up the doors.

  Help me if you can, I'm feeling down
  And I do appreciate you being round.
  Help me, get my feet back on the ground,
  Won't you please, please help me?

  And now my life has changed in oh so many ways,
  My independence seems to vanish in the haze.
  But every now and then I feel so insecure,
  I know that I just need you like I've never done before.

  Help me if you can, I'm feeling down
  And I do appreciate you being round.
  Help me, get my feet back on the ground,
  Won't you please, please help me.

  When I was younger, so much younger than today,
  I never needed anybody's help in any way.
  But now these days are gone, I'm not so self assured,
  Now I find I've changed my mind and opened up the doors.

  Help me if you can, I'm feeling down
  And I do appreciate you being round.
  Help me, get my feet back on the ground,
  Won't you please, please help me, help me, help me, oooommmm.


  Bm
e|2------ 2------ 2---2-- 2------|2------ 2------ 2---2-- 2------|
B|3-------3-------3---3---3------|3-------3-------3---3---3------|
G|4-------4-------4---4---4------|4-------4-------4---4---4------|
D|4-------4-------4---4---4------|4-------4-------4---4---4------|
A|2-------2-------2---2---2------|2-------2-------2---2---2------|
E|-------------------------------|-------------------------------|

e|------- ------- ------- -------|------- ------- ------- -------|
B|-------------------------------|-------------------------------|
G|-------------------------------|-------------------------------|
D|-------------------------------|-------------------------------|
A|-------------------------------|2---------------0--------------|
E|-------------------------------|-------------------------------|
                              I   need    somebody
 (Help!)


  G
e|3------ 3------ 3---3-- 3---3--|3------ 3---3-- 3---3-- 3---3--|
B|3-------3-------3---3---3---3--|3-------3---3---3---3---3---3--|
G|0-------0-------0---0---0---0--|0-------0---0---0---0---0---0--|
D|0-------0-------0---0---0---0--|0-------0---0---0---0---0---0--|
A|2-------2-------2---2---2---2--|2-------2---2---2---2---2---2--|
E|3-------3-------3---3---3---3--|3-------3---3---3---3---3---3--|

e|------- ------- ------- -------|------- ------- ------- -------|
B|-------------------------------|-------------------------------|
G|-------------------------------|-------------------------------|
D|-------------------------------|-------------------------------|
A|-------------------------------|-------------------------------|
E|3------------------------------|3---------------2--------------|
                      not     just
                                  anybody
 (Help!)


  E
e|0------ 0------ ----0-- ----0--|0------ 0------ ----0-- 0------|
B|0-------0-----------0-------0--|0-------0-----------0---0------|
G|1-------1-----------1-------1--|1-------1-----------1---1------|
D|2-------2-----------2-------2--|2-------2-----------2---2------|
A|2-------2-----------2-------2--|2-------2-----------2---2------|
E|0-------0-----------0-------0--|0-------0-----------0---0------|

e|------- ------- ------- -------|------- ------- ------- -------|
B|-------------------------------|-------------------------------|
G|-------------------------------|-------------------------------|
D|-------------------------------|-------------------------------|
A|-------------------------------|-------------------------------|
E|0------------------------------|-------------------------------|
                      you know    need    someone
                              I
 (Help!)


  A
e|0------ ------- ------- -------|------- ------- ------- -------|
B|2------------------------------|-------------------------------|
G|2------------------------------|-------------------------------|
D|2------------------------------|-------------------------------|
A|0------------------------------|-------------------------------|
E|-------------------------------|-------------------------------|

e|------- ------- ------- -------|------- ------- ------- -------|
B|------------0---------------0--|------------0---------------0--|
G|--------0---------------0------|--------0---------------0------|
D|----5---------------4----------|----4---------------2----------|
A|7---------------6--------------|5---------------4--------------|
E|-------------------------------|-------------------------------|
  Help!
 (Help!)


  00:10
  A
e|0------ 0------ ----0-- -------|0------ 0---0-- ----0-- ----0--|
B|2-------2-----------2----------|2-------2---2-------2-------2--|
G|2-------2-----------2----------|2-------2---2-------2-------2--|
D|2-------2-----------2----------|2-------2---2-------2-------2--|
A|0-------0-----------0----------|0-------0---0-------0-------0--|
E|-------------------------------|-------------------------------|
          When I      was         younger,    so      much
 (When                                    when            was
                                              I


  Dbm
e|4------ 4------ ----4-- ----4--|4------ ----4-- ----4-- ----2--|
B|5-------5-----------5-------5--|5-----------5-------5-------2--|
G|6-------6-----------6-------6--|6-----------6-------6-------2--|
D|6-------6-----------6-------6--|6-----------6-------6-------4--|
A|4-------4-----------4-------4--|4-----------4-------4-------4--|
E|-------------------------------|----------------------------2--|
  younger     than    today
  young                                   I       never

  F#m
e|2------ 2------ ----2-- ----2--|2------ ----2-- ----2-- -------|
B|2-------2-----------2-------2--|2-----------2-------2----------|
G|2-------2-----------2-------2--|2-----------2-------2----------|
D|4-------4-----------4-------4--|4-----------4-------4----------|
A|4-------4-----------4-------4--|4-----------4-------4----------|
E|2-------2-----------2-------2--|2-----------2-------2----------|
      I   never   needed          anybody's
  need

  D               G           A
e|2------ ------- 3---3-- ----0--|----0-- 0------ 0------ 0------|
B|3---------------3---3-------2--|----2---2-------2-------2------|
G|2---------------0---0-------2--|----2---2-------2-------2------|
D|0---------------0---0-------2--|----2---2-------2-------2------|
A|----------------2---2-------0--|----0---0-------0-------0------|
E|----------------3---3----------|-------------------------------|
  help    in      any         way
  help    in      any         way)


  00:21

e|0------ 0------ ----0-- -------|0------ 0---0-- 0---0-- 0---0--|
B|2-------2-----------2----------|2-------2---2---2---2---2---2--|
G|2-------2-----------2----------|2-------2---2---2---2---2---2--|
D|2-------2-----------2----------|2-------2---2---2---2---2---2--|
A|0-------0-----------0----------|0-------0---0---0---0---0---0--|
E|-------------------------------|-------------------------------|
          But     now     these   days    have gone   I'm
 (Now                                     these   days    have
                                                              gone


  Dbm
e|4------ 4------ ----4-- ----4--|4------ ----4-- ----4-- ----2--|
B|5-------5-----------5-------5--|5-----------5-------5-------2--|
G|6-------6-----------6-------6--|6-----------6-------6-------2--|
D|6-------6-----------6-------6--|6-----------6-------6-------4--|
A|4-------4-----------4-------4--|4-----------4-------4-------4--|
E|-------------------------------|----------------------------2--|
  not     so      self    assured
                                          And     now I

  F#m
e|2------ 2------ ----2-- ----2--|2------ ----2-- 2---2-- 2------|
B|2-------2-----------2-------2--|2-----------2---2---2---2------|
G|2-------2-----------2-------2--|2-----------2---2---2---2------|
D|4-------4-----------4-------4--|4-----------4---4---4---4------|
A|4-------4-----------4-------4--|4-----------4---4---4---4------|
E|2-------2-----------2-------2--|2-----------2---2---2---2------|
          Now I   find       I've changed mind                And
                                      my
  find                                                        And


                                      x   x   x   x   x   x   x
  D               G               A
e|2------ 2------ 3---3-- ----0--|0---0-- 0------ 0------ 0------|
B|3-------3-------3---3-------2--|2---2---2-------2-------2------|
G|2-------2-------0---0-------2--|2---2---2-------2-------2------|
D|0-------0-------0---0-------2--|2---2---2-------2-------2------|
A|----------------2---2-------0--|----0---0-------0-------0------|
E|----------------3---3----------|-------------------------------|
  opened          up      the doors
  opened          up      the doors)

  00:30
  Bm
e|2------ 2------ 2---2-- 2------|2------ 2------ 2---2-- 2---2--|
B|3-------3-------3---3---3------|3-------3-------3---3---3---3--|
G|4-------4-------4---4---4------|4-------4-------4---4---4---4--|
D|4-------4-------4---4---4------|4-------4-------4---4---4---4--|
A|2-------2-------2---2---2------|2-------2-------2---2---2---2--|
E|-------------------------------|-------------------------------|
  Help    me If       you     can,        I'm     feeling

e|2------ 2------ 2---2-- 2---2--|2------ 2------ 2---2-- 2------|
B|3-------3-------3---3---3---3--|3-------3-------3---3---3------|
G|4-------4-------4---4---4---4--|4-------4-------4---4---4------|
D|4-------4-------4---4---4---4--|4-------4-------4---4---4------|
A|2-------2-------2---2---2---2--|2-------2-------2---2---2------|
E|-------------------------------|-------------------------------|

e|------- ------- ------- -------|------- ------- ------- -------|
B|-------------------------------|-------------------------------|
G|-------------------------------|-------------------------------|
D|-------------------------------|-------------------------------|
A|-------------------------------|2---------------0--------------|
E|-------------------------------|-------------------------------|
  down                                            And I       do


  G
e|3------ 3------ 3---3-- 3------|3------ 3------ 3---3-- 3---3--|
B|3-------3-------3---3---3------|3-------3-------3---3---3---3--|
G|0-------0-------0---0---0------|0-------0-------0---0---0---0--|
D|0-------0-------0---0---0------|0-------0-------0---0---0---0--|
A|2-------2-------2---2---2------|2-------2-------2---2---2---2--|
E|3-------3-------3---3---3------|3-------3-------3---3---3---3--|

e|------- ------- ------- -------|------- ------- ------- -------|
B|-------------------------------|-------------------------------|
G|-------------------------------|-------------------------------|
D|-------------------------------|-------------------------------|
A|-------------------------------|-------------------------------|
E|3------------------------------|-------------------------------|
          appreciate                      you     being

e|3------ 3------ 3---3-- 3---3--|3---3-- 3------ 3------ 3------|
B|3-------3-------3---3---3---3--|3---3---3-------3-------3------|
G|0-------0-------0---0---0---0--|0---0---0-------0-------0------|
D|0-------0-------0---0---0---0--|0---0---0-------0-------0------|
A|2-------2-------2---2---2---2--|2---2---2-------2-------2------|
E|3-------3-------3---3---3---3--|3---3---3-------3-------3------|

e|------- ------- ------- -------|------- ------- ------- -------|
B|-------------------------------|-------------------------------|
G|-------------------------------|-------------------------------|
D|-------------------------------|-------------------------------|
A|-------------------------------|-------------------------------|
E|-------------------------------|3---------------2--------------|
  round

  00:40
  E
e|0------ 0---0-- 0---0-- 0------|0------ 0------ 0---0-- 0---0--|
B|0-------0---0---0---0---0------|0-------0-------0---0---0---0--|
G|1-------1---1---1---1---1------|1-------1-------1---1---1---1--|
D|2-------2---2---2---2---2------|2-------2-------2---2---2---2--|
A|2-------2---2---2---2---2------|2-------2-------2---2---2---2--|
E|0-------0---0---0---0---0------|0-------0-------0---0---0---0--|

e|------- ------- ------- -------|------- ------- ------- -------|
B|-------------------------------|-------------------------------|
G|-------------------------------|-------------------------------|
D|-------------------------------|-------------------------------|
A|-------------------------------|-------------------------------|
E|0------------------------------|-------------------------------|
  Help    me  get     my      feet        back    on      the ground
 (Help    me  get     my      feet        back    on      the ground

e|0------ 0------ 0---0-- 0---0--|0------ 0------ 0---0-- 0------|
B|0-------0-------0---0---0---0--|0-------0-------0---0---0------|
G|1-------1-------1---1---1---1--|1-------1-------1---1---1------|
D|2-------2-------2---2---2---2--|2-------2-------2---2---2------|
A|2-------2-------2---2---2---2--|2-------2-------2---2---2------|
E|0-------0-------0---0---0---0--|0-------0-------0---0---0------|
                                                  Won't   you
                                                  Won't   you

  A
e|0------ ------- ------- -------|------- ------- ------- -------|
B|2------------------------------|-------------------------------|
G|2------------------------------|-------------------------------|
D|2------------------------------|-------------------------------|
A|0------------------------------|-------------------------------|
E|-------------------------------|-------------------------------|

e|------- ------- ------- -------|------- ------- ------- -------|
B|------------0---------------0--|------------0---------------0--|
G|--------0---------------0------|--------0---------------0------|
D|----5---------------4----------|----4---------------2----------|
A|7---------------6--------------|5---------------4--------------|
E|-------------------------------|-------------------------------|
  please,                         please,         help        me?
  please,                         please,         help        me?)


  A               Asus2           A           Asus2   A       Asus2
e|0------ 0------ 0---0-- -------|0------ ----0-- ----0-- ----0--|
B|2-------2-------0---0----------|2-----------0-------2-------0--|
G|2-------2-------2---2----------|2-----------2-------2-------2--|
D|2-------2-------2---2----------|2-----------2-------2-------2--|
A|0-------0-------0---0----------|0-----------0-------0-------0--|
E|-------------------------------|-------------------------------|


  00:51
  A
e|0------ 0------ ----0-- -------|0------ ----0-- ----0-- -------|
B|2-------2-----------2----------|2-----------2-------2----------|
G|2-------2-----------2----------|2-----------2-------2----------|
D|2-------2-----------2----------|2-----------2-------2----------|
A|0-------0-----------0----------|0-----------0-------0----------|
E|-------------------------------|-------------------------------|
          And     now     my      life    has changed     in  oh
 (Now                                     my      life    has


  Dbm
e|4------ 4------ ----4-- ----4--|4------ ----4-- ----4-- ----2--|
B|5-------5-----------5-------5--|5-----------5-------5-------2--|
G|6-------6-----------6-------6--|6-----------6-------6-------2--|
D|6-------6-----------6-------6--|6-----------6-------6-------4--|
A|4-------4-----------4-------4--|4-----------4-------4-------4--|
E|-------------------------------|----------------------------2--|
          so      many        ways
  changed                                 my      inde...........

  F#m
e|2------ 2------ ----2-- ----2--|2------ 2---2-- ----2-- -------|
B|2-------2-----------2-------2--|2-------2---2-------2----------|
G|2-------2-----------2-------2--|2-------2---2-------2----------|
D|4-------4-----------4-------4--|4-------4---4-------4----------|
A|4-------4-----------4-------4--|4-------4---4-------4----------|
E|2-------2-----------2-------2--|2-------2---2-------2----------|
          My      independence                    seems   to
  pend .................................. dence   seems   to

  D               G                   A
e|2------ ----2-- 3------ 3------|----0-- 0------ 0------ 0------|
B|3-----------3---3-------3------|----2---2-------2-------2------|
G|2-----------2---0-------0------|----2---2-------2-------2------|
D|0-----------0---0-------0------|----2---2-------2-------2------|
A|----------------2-------2------|----0---0-------0-------0------|
E|----------------3-------3------|-------------------------------|
  vanish          in      the haze
  vanish          in      the haze)


  01:01

e|0------ 0------ ----0-- -------|0------ ----0-- ----0-- ---0---|
B|2-------2-----------2----------|2-----------2-------2------2---|
G|2-------2-----------2----------|2-----------2-------2------2---|
D|2-------2-----------2----------|2-----------2-------2------2---|
A|0-------0-----------0----------|0-----------0-------0------0---|
E|-------------------------------|-------------------------------|
          But every               now     and then    I
  (But                                            now     and

  Dbm
e|4------ 4------ ----4-- -------|4------ ----4-- ----4-- -------|
B|5-------5-----------5----------|5-----------5-------5-------0--|
G|6-------6-----------6----------|6-----------6-------6-------0--|
D|6-------6-----------6----------|6-----------6-------6-------0--|
A|4-------4-----------4----------|4-----------4-------4----------|
E|-------------------------------|-------------------------------|
  feel    so      insecure
  then                                    I       know
                                                      that


  F#m
e|2------ 2------ ----2-- ----2--|2------ ----2-- ----2-- 2------|
B|2-------2-----------2-------2--|2-----------2-------2---2------|
G|2-------2-----------2-------2--|2-----------2-------2---2------|
D|4-------4-----------4-------4--|4-----------4-------4---4------|
A|4-------4-----------4-------4--|4-----------4-------4---4------|
E|2-------2-----------2-------2--|2-----------2-------2---2------|
      I   know    I           just    you like                I've
              that                need
  I                                                           I've

  D           G                       A
e|2---2-- ----3-- ------- 3------|----0-- 0------ 0------ 0------|
B|3---3-------3-----------3------|----2---2-------2-------2------|
G|2---2-------0-----------0------|----2---2-------2-------2------|
D|0---0-------0-----------0------|----2---2-------2-------2------|
A|------------2-----------2------|----0---0-------0-------0------|
E|------------3-----------3------|-------------------------------|
  never       done        before
  never       done        before)

  01:11
  Bm
e|2------ 2------ 2---2-- 2------|2------ 2------ 2---2-- 2---2--|
B|3-------3-------3---3---3------|3-------3-------3---3---3---3--|
G|4-------4-------4---4---4------|4-------4-------4---4---4---4--|
D|4-------4-------4---4---4------|4-------4-------4---4---4---4--|
A|2-------2-------2---2---2------|2-------2-------2---2---2---2--|
E|-------------------------------|-------------------------------|
  Help    me  If      you     can,        I'm     feeling

e|2------ 2------ 2---2-- 2---2--|2------ 2------ 2---2-- 2------|
B|3-------3-------3---3---3---3--|3-------3-------3---3---3------|
G|4-------4-------4---4---4---4--|4-------4-------4---4---4------|
D|4-------4-------4---4---4---4--|4-------4-------4---4---4------|
A|2-------2-------2---2---2---2--|2-------2-------2---2---2------|
E|-------------------------------|-------------------------------|

e|------- ------- ------- -------|------- ------- ------- -------|
B|-------------------------------|-------------------------------|
G|-------------------------------|-------------------------------|
D|-------------------------------|-------------------------------|
A|-------------------------------|2---------------0--------------|
E|-------------------------------|-------------------------------|
  down                                            And I       do


  G
e|3------ 3------ 3---3-- 3------|3------ 3------ 3---3-- 3------|
B|3-------3-------3---3---3------|3-------3-------3---3---3------|
G|0-------0-------0---0---0------|0-------0-------0---0---0------|
D|0-------0-------0---0---0------|0-------0-------0---0---0------|
A|2-------2-------2---2---2------|2-------2-------2---2---2------|
E|3-------3-------3---3---3------|3-------3-------3---3---3------|

e|------- ------- ------- -------|------- ------- ------- -------|
B|-------------------------------|-------------------------------|
G|-------------------------------|-------------------------------|
D|-------------------------------|-------------------------------|
A|-------------------------------|-------------------------------|
E|3------------------------------|-------------------------------|
          appreciate                      you     being

e|3------ 3------ 3---3-- 3---3--|3------ 3------ 3---3-- 3---3--|
B|3-------3-------3---3---3---3--|3-------3-------3---3---3---3--|
G|0-------0-------0---0---0---0--|0-------0-------0---0---0---0--|
D|0-------0-------0---0---0---0--|0-------0-------0---0---0---0--|
A|2-------2-------2---2---2---2--|2-------2-------2---2---2---2--|
E|3-------3-------3---3---3---3--|3-------3-------3---3---3---3--|

e|------- ------- ------- -------|------- ------- ------- -------|
B|-------------------------------|-------------------------------|
G|-------------------------------|-------------------------------|
D|-------------------------------|-------------------------------|
A|-------------------------------|-------------------------------|
E|-------------------------------|3---------------2--------------|
  round

  01:21
  E
e|0------ 0------ 0---0-- 0------|0------ 0------ 0---0-- 0------|
B|0-------0-------0---0---0------|0-------0-------0---0---0------|
G|1-------1-------1---1---1------|1-------1-------1---1---1------|
D|2-------2-------2---2---2------|2-------2-------2---2---2------|
A|2-------2-------2---2---2------|2-------2-------2---2---2------|
E|0-------0-------0---0---0------|0-------0-------0---0---0------|

e|------- ------- ------- -------|------- ------- ------- -------|
B|-------------------------------|-------------------------------|
G|-------------------------------|-------------------------------|
D|-------------------------------|-------------------------------|
A|-------------------------------|-------------------------------|
E|0------------------------------|-------------------------------|
  Help    me get      my      feet        back    on      the ground
  Help    me get      my      feet        back    on      the ground

e|0------ 0------ 0---0-- 0------|0------ 0------ 0---0-- 0------|
B|0-------0-------0---0---0------|0-------0-------0---0---0------|
G|1-------1-------1---1---1------|1-------1-------1---1---1------|
D|2-------2-------2---2---2------|2-------2-------2---2---2------|
A|2-------2-------2---2---2------|2-------2-------2---2---2------|
E|0-------0-------0---0---0------|0-------0-------0---0---0------|
                                                  Won't   you
                                                  Won't   you

  A
e|0------ ------- ------- -------|------- ------- ------- -------|
B|2------------------------------|-------------------------------|
G|2------------------------------|-------------------------------|
D|2------------------------------|-------------------------------|
A|0------------------------------|-------------------------------|
E|-------------------------------|-------------------------------|

e|------- ------- ------- -------|------- ------- ------- -------|
B|------------0---------------0--|------------0---------------0--|
G|--------0---------------0------|--------0---------------0------|
D|----5---------------4----------|----4---------------2----------|
A|7---------------6--------------|5---------------4--------------|
E|-------------------------------|-------------------------------|
  please,                         please,         help        me?
  please,                         please,         help        me?)


  A                   Asus2       A       Asus2       A       Asus2
e|0------ 0------ ----0-- ----0--|0------ 0---0-- ----0-- ----0--|
B|2-------2-----------0-------0--|2-------0---0-------2-------0--|
G|2-------2-----------2-------2--|2-------2---2-------2-------2--|
D|2-------2-----------2-------2--|2-------2---2-------2-------2--|
A|0-------0-----------0-------0--|0-------0---0-------0-------0--|
E|-------------------------------|-------------------------------|


  01:31
  A
e|0------ 0------ ----0-- -------|0------ ----0-- ----0-- -------|
B|2-------2-----------2----------|2-----------2-------2----------|
G|2-------2-----------2----------|2-----------2-------2----------|
D|2-------2-----------2----------|2-----------2-------2----------|
A|0-------0-----------0----------|0-----------0-------0----------|
E|-------------------------------|-------------------------------|

e|5------ ------- ------- -------|------- ------- ------- -------|
B|5------------------------------|-------------------------------|
G|6------------------------------|-------------------------------|
D|7------------------------------|-------------------------------|
A|7------------------------------|-------------------------------|
E|5------------------------------|-------------------------------|
          When        was         younger,    so      much
              I

  Dbm
e|4------ ----4-- ----4-- -------|------- ----4-- ----4-- -------|
B|5-----------5-------5----------|------------5-------5----------|
G|6-----------6-------6----------|------------6-------6----------|
D|6-----------6-------6----------|------------6-------6----------|
A|4-----------4-------4----------|------------4-------4----------|
E|-------------------------------|-------------------------------|

e|4------ ------- ------- -------|------- ------- ------- -------|
B|5------------------------------|-------------------------------|
G|6------------------------------|-------------------------------|
D|6------------------------------|-------------------------------|
A|4------------------------------|-------------------------------|
E|-------------------------------|-------------------------------|
  younger     than    today


  F#m
e|2------ ----2-- ----2-- 2---2--|2---2-- 2---2-- ----2-- -------|
B|2-----------2-------2---2---2--|2---2---2---2-------2----------|
G|2-----------2-------2---2---2--|2---2---2---2-------2----------|
D|4-----------4-------4---4---4--|4---4---4---4-------4----------|
A|4-----------4-------4---4---4--|4---4---4---4-------4----------|
E|2-----------2-------2---2---2--|2---2---2---2-------2----------|

e|2------ ------- ------- -------|------- ------- ------- -------|
B|2------------------------------|-------------------------------|
G|2------------------------------|-------------------------------|
D|4------------------------------|-------------------------------|
A|4------------------------------|-------------------------------|
E|2------------------------------|-------------------------------|
      I   never   needed          anybody's                   help

  D               G       A
e|2------ ------- 3------ 0------|----0-- 0------ 0------ 0------|
B|3---------------3-------2------|----2---2-------2-------2------|
G|2---------------0-------2------|----2---2-------2-------2------|
D|0---------------0-------2------|----2---2-------2-------2------|
A|----------------2-------0------|----0---0-------0-------0------|
E|----------------3--------------|-------------------------------|

e|2------ ------- 3------ 5------|------- ------- ------- -------|
B|3---------------3-------5------|-------------------------------|
G|2---------------4-------6------|-------------------------------|
D|5---------------5-------7------|-------------------------------|
A|5---------------5-------7------|-------------------------------|
E|----------------3-------5------|-------------------------------|
          in      any         way


  01:41

e|0------ ----0-- ----0-- -------|0------ ----0-- ----0-- -------|
B|2-----------2-------2----------|2-----------2-------2----------|
G|2-----------2-------2----------|2-----------2-------2----------|
D|2-----------2-------2----------|2-----------2-------2----------|
A|0-----------0-------0----------|0-----------0-------0----------|
E|-------------------------------|-------------------------------|

e|5------ ------- ------- -------|------- ------- ------- -------|
B|5------------------------------|-------------------------------|
G|6------------------------------|-------------------------------|
D|7------------------------------|-------------------------------|
A|7------------------------------|-------------------------------|
E|5------------------------------|-------------------------------|
          But     now     these   days    have        I'm
                                              gone
  (Now                                    these   days    have
                                                              gone

  Dbm
e|4------ ----4-- ----4-- -------|4------ ----4-- ----4-- -------|
B|5-----------5-------5----------|5-----------5-------5----------|
G|6-----------6-------6----------|6-----------6-------6----------|
D|6-----------6-------6----------|6-----------6-------6----------|
A|4-----------4-------4----------|4-----------4-------4----------|
E|-------------------------------|-------------------------------|

e|4------ ------- ------- -------|------- ------- ------- -------|
B|5------------------------------|-------------------------------|
G|6------------------------------|-------------------------------|
D|6------------------------------|-------------------------------|
A|4------------------------------|-------------------------------|
E|-------------------------------|-------------------------------|
  not     so      self    assured
                                          And     now I

  F#m
e|2------ ----2-- ----2-- -------|2------ ----2-- ----2-- -------|
B|2-----------2-------2----------|2-----------2-------2----------|
G|2-----------2-------2----------|2-----------2-------2----------|
D|4-----------4-------4----------|4-----------4-------4----------|
A|4-----------4-------4----------|4-----------4-------4----------|
E|2-----------2-------2----------|2-----------2-------2----------|

e|2------ ------- ------- -------|------- ------- ------- -------|
B|2------------------------------|-------------------------------|
G|2------------------------------|-------------------------------|
D|4------------------------------|-------------------------------|
A|4------------------------------|-------------------------------|
E|2------------------------------|-------------------------------|
          Now I   find       I've changed my  mind            I've
  find                                                        I've

  D               G                   A
e|2------ ------- 3---3-- -------|0---0-- 0------ 0------ 0------|
B|3---------------3---3----------|2---2---2-------2-------2------|
G|2---------------0---0----------|2---2---2-------2-------2------|
D|0---------------0---0----------|2---2---2-------2-------2------|
A|----------------2---2----------|0---0---0-------0-------0------|
E|----------------3---3----------|-------------------------------|

e|2------ ------- 3------ -------|5------ ------- ------- -------|
B|3---------------3--------------|5------------------------------|
G|2---------------4--------------|6------------------------------|
D|5---------------5--------------|7------------------------------|
A|5---------------5--------------|7------------------------------|
E|----------------3--------------|5------------------------------|
  opened          up      the doors
  opened          up      the doors)


  01:51
  Bm
e|2------ 2------ 2---2-- 2------|2------ 2------ 2---2-- 2---2--|
B|3-------3-------3---3---3------|3-------3-------3---3---3---3--|
G|4-------4-------4---4---4------|4-------4-------4---4---4---4--|
D|4-------4-------4---4---4------|4-------4-------4---4---4---4--|
A|2-------2-------2---2---2------|2-------2-------2---2---2---2--|
E|-------------------------------|-------------------------------|
  Help    me If       you     can,        I'm     feeling

e|2------ 2------ 2---2-- 2---2--|2------ 2------ 2---2-- 2------|
B|3-------3-------3---3---3---3--|3-------3-------3---3---3------|
G|4-------4-------4---4---4---4--|4-------4-------4---4---4------|
D|4-------4-------4---4---4---4--|4-------4-------4---4---4------|
A|2-------2-------2---2---2---2--|2-------2-------2---2---2------|
E|-------------------------------|-------------------------------|

e|------- ------- ------- -------|------- ------- ------- -------|
B|-------------------------------|-------------------------------|
G|-------------------------------|-------------------------------|
D|-------------------------------|-------------------------------|
A|-------------------------------|2---------------0--------------|
E|-------------------------------|-------------------------------|
  down                                            And I       do

  G
e|3------ 3------ 3---3-- 3------|3------ 3---3-- 3---3-- 3---3--|
B|3-------3-------3---3---3------|3-------3---3---3---3---3---3--|
G|0-------0-------0---0---0------|0-------0---0---0---0---0---0--|
D|0-------0-------0---0---0------|0-------0---0---0---0---0---0--|
A|2-------2-------2---2---2------|2-------2---2---2---2---2---2--|
E|3-------3-------3---3---3------|3-------3---3---3---3---3---3--|

e|------- ------- ------- -------|------- ------- ------- -------|
B|-------------------------------|-------------------------------|
G|-------------------------------|-------------------------------|
D|-------------------------------|-------------------------------|
A|-------------------------------|-------------------------------|
E|3------------------------------|-------------------------------|
          appreciate                      you     being


e|3------ 3------ 3---3-- 3---3--|3------ 3------ 3---3-- 3---3--|
B|3-------3-------3---3---3---3--|3-------3-------3---3---3---3--|
G|0-------0-------0---0---0---0--|0-------0-------0---0---0---0--|
D|0-------0-------0---0---0---0--|0-------0-------0---0---0---0--|
A|2-------2-------2---2---2---2--|2-------2-------2---2---2---2--|
E|3-------3-------3---3---3---3--|3-------3-------3---3---3---3--|

e|------- ------- ------- -------|------- ------- ------- -------|
B|-------------------------------|-------------------------------|
G|-------------------------------|-------------------------------|
D|-------------------------------|-------------------------------|
A|-------------------------------|-------------------------------|
E|-------------------------------|3---------------2--------------|
  round


  02:01
  E
e|0------ 0------ 0---0-- 0------|0------ 0------ 0---0-- ----0--|
B|0-------0-------0---0---0------|0-------0-------0---0-------0--|
G|1-------1-------1---1---1------|1-------1-------1---1-------1--|
D|2-------2-------2---2---2------|2-------2-------2---2-------2--|
A|2-------2-------2---2---2------|2-------2-------2---2-------2--|
E|0-------0-------0---0---0------|0-------0-------0---0-------0--|

e|------- ------- ------- -------|------- ------- ------- -------|
B|-------------------------------|-------------------------------|
G|-------------------------------|-------------------------------|
D|-------------------------------|-------------------------------|
A|-------------------------------|-------------------------------|
E|0------------------------------|-------------------------------|
  Help    me get      my      feet        back    on      the ground
  Help    me get      my      feet        back    on      the ground


e|0------ 0------ 0---0-- 0------|0---0-- ----0-- ----0-- 0------|
B|0-------0-------0---0---0------|0---0-------0-------0---0------|
G|1-------1-------1---1---1------|1---1-------1-------1---1------|
D|2-------2-------2---2---2------|2---2-------2-------2---2------|
A|2-------2-------2---2---2------|2---2-------2-------2---2------|
E|0-------0-------0---0---0------|0---0-------0-------0---0------|
                                                  Won't   you
                                                  Won't   you


  A
e|0------ ------- ------- -------|------- ------- ------- -------|
B|2------------------------------|-------------------------------|
G|2------------------------------|-------------------------------|
D|2------------------------------|-------------------------------|
A|0------------------------------|-------------------------------|
E|-------------------------------|-------------------------------|

e|------- ------- ------- -------|------- ------- ------- -------|
B|------------0---------------0--|------------0---------------0--|
G|--------0---------------0------|--------0---------------0------|
D|----5---------------4----------|----4---------------2----------|
A|7---------------6--------------|5---------------4--------------|
E|-------------------------------|-------------------------------|
  please,                         please,         help
  please,                         please,         help


e|2------ 2------ 2---2-- 2------|2------ 2---2-- 2---2-- 2------|
B|2-------2-------2---2---2------|2-------2---2---2---2---2------|
G|2-------2-------2---2---2------|2-------2---2---2---2---2------|
D|4-------4-------4---4---4------|4-------4---4---4---4---4------|
A|4-------4-------4---4---4------|4-------4---4---4---4---4------|
E|2-------2-------2---2---2------|2-------2---2---2---2---2------|
  me?                             me
                  Help!                          help!

e|0------ ------- ------- -------|------- ------- ------- -------|
B|2------------------------------|-------------------------------|
G|2------------------------------|-------------------------------|
D|2------------------------------|-------------------------------|
A|0------------------------------|-------------------------------|
E|-------------------------------|-------------------------------|
  Me                          Oooooooooooooooooooommmmmmmmmmmmmmm
  Me                          Oooooooooooooooooooommmmmmmmmmmmmmm)



        B  Bend
        R  Release
        /  slide up
        \  slide down
        H  hammer-on
        P  pull-off
        ~  vibrato
        +  harmonic
        x  Mute note
        . - play note like a dot in standard notation
        ^ - ties two notes together
        (. Pause

    -----------------------------------------------------------

    THE BEATLES - THE NIGHT BEFORE (Lennon/McCartney) Fron HELP
                  album. Released on August, 6th, 1965.

    -----------------------------------------------------------

    Tabbed by:PJVillanueva

    In his book "Revolution In The Head", Ian Macdonald calls this
    song "fair mainstream pop". I think it is just wonderful pop.
    He thinks that Paul's voice sounds "tired". I think this is
    Macca's best singing. The lyrics may be "weak", but so, what?
    This is just fine MUSIC, way above any other band at the time.
    Listen to the second part of the verses -"Now today I find you
    have changed your mind", etc.- Bm to Gm (vi, submediant to iv,
    subdominant) repeated. It's a great chord change and an awful
    little piece of melody. (The whole song is a rave).
    The transitions between verses (pentatonic as the intro and
    the ending, though just a soft one measure brush) work as ideal
    hooks too and the bridges, with maracas on fours, two "latin"
    sounding high toms' eighths on second beats and accented snare
    on fourth beats and also some playful melodic intervals, which
    dramatically top on the dominant (V) fuel the verses perfectly.
    The guitar solo is performed by George and Paul, doubling him
    on the higher octave, on their Epiphone Casinos and John plays
    his new Hohner Pianet electric piano and a rhythm guitar track
    that no one seems to talk about, but it is there, hardly heard
    because it's almost buried in the mix.

    We said our goodbyes (ah, the night before).
    Love was in your eyes (ah, the night before).
    Now today I find you have changed your mind.
    Treat me like you did the night before.

    Were you telling lies? (ah, the night before)
    Was I so unwise? (ah, the night before)
    When I held you near you were so sincere.
    Treat me like you did the night before.

    Last night is a night I will remember you by.
    When I think of things we did it makes me wanna cry.

    We said our goodbye (ah, the night before.)
    Love was in your eyes (ah, the night before).
    Now today I find you have changed your mind.
    Treat me like you did the night before.

                     SOLO

    When I held you near you were so sincere.
    Treat me like you did the night before.

    Last night is a night I will remember you by.
    When I think of things we did it makes me wanna cry.

    Were you telling lies? (ah, the night before)
    Was I so unwise? (ah, the night before)
    When I held you near you were so sincere.
    Treat me like you did the night before,
    Like the night before.


  e|------- ------- ------- -------|------- ------- ------- -------|
  B|-------------------------------|-------------------------------|
  G|-------------------------------|----------------------------2--|
  D|-------------------------------|----------------------------4--|
  A|-------------------------------|-------------------------------|
  E|-------------------------------|-------------------------------|


            D
  e|------- 2------ ----2-- -------|2------ ----2-- ----2-- -------|
  B|--------3-----------3----------|3-----------3-------3----------|
  G|--------2-----------2----------|2-----------2-------2----------|
  D|--------0-----------0----------|0-----------0-------0----------|
  A|-------------------------------|-------------------------------|
  E|-------------------------------|-------------------------------|
            D7
  e|------- ------- ------- -------|------- ------- ------- -------|
  B|--------7-----------7----------|7-----------7-------7---7---7--|
  G|--------5-----------5----------|5-----------5-------5---5---5--|
  D|------------7-----------7------|7-----------7-------7---7---7--|
  A|-------------------------------|-------------------------------|
  E|-------------------------------|-------------------------------|


            F
  e|------- 1---1-- ----1-- -------|1---1-- ----1-- ----1-- 1------|
  B|--------1---1-------1----------|1---1-------1-------1---1------|
  G|--------2---2-------2----------|2---2-------2-------2---2------|
  D|--------3---3-------3----------|3---3-------3-------3---3------|
  A|--------3---3-------3----------|3---3-------3-------3---3------|
  E|--------1---1-------1----------|1---1-------1-------1---1------|
            F7
  e|------- ------- ------- -------|------- ------- ------- -------|
  B|--------6-----------6----------|6-----------6-------6---6---6--|
  G|--------8-----------8----------|8-----------8-------8---8---8--|
  D|------------7------------------|----7-------7-------7---7---7--|
  A|-------------------------------|-------------------------------|
  E|-------------------------------|-------------------------------|

  e|------- ------- ------- -------|------- ----7-/ 8------ 7------|
  B|-------------------------------|-------------------------------|
  G|-------------------------------|------------4-/-5-------4------|
  D|-------------------------------|-------------------------------|
  A|-------------------------------|-------------------------------|
  E|-------------------------------|-------------------------------|


            G7
  e|------- 3---3-- 3------ -------|3------ ----3-- ----3-- 3------|
  B|--------6---6---6--------------|6-----------6-------6---6------|
  G|--------4---4---4--------------|4-----------4-------4---4------|
  D|--------5---5---5--------------|5-----------5-------5---5------|
  A|--------x---x---x--------------|x-----------x-------x---x------|
  E|--------3---3---3--------------|3-----------3-------3---3------|

  e|------- ------- ------- -------|------- ------- ------- -------|
  B|--------8-----------8----------|8-----------8-------8---8---8--|
  G|-------10----------10----------10----------10------10--10--10--|
  D|--------9-----------9----------|9-----------9-------9---9---9--|
  A|-----------10--------------10--|-------10----------------------|
  E|-------------------------------|-------------------------------|

                            x   x   X       x   X   x   x   X   x
    A7
  e|------- 5------ 5---5-- ----5--|5------ 5------ 5---5-- -------|
  B|--------8-------8---8-------8--|8-------8-------8---8----------|
  G|--------6-------6---6-------6--|6-------6-------6---6----------|
  D|--------7-------7---7-------7--|7-------7-------7---7----------|
  A|--------x-------x---x-------x--|x-------x-------x---x----------|
  E|--------5-------5---5-------5--|5-------5-------5---5----------|

  e|------- ------- ------- -------|------- ------- ------- -------|
  B|10------10----------10---------|10------10---------10------10--|
  G|12------12----------12---------|12------12---------12------12--|
  D|11------11----------11---------|11------11---------11------11--|
  A|---------------12----------12--|---------------12--------------|
  E|-------------------------------|-------------------------------|

    00:11
    D                               C
  e|2------ 2------ ------- ----2--|0------ 0---0-- 0---0-- ----0--|
  B|3-------3-------------------3--|1-------1---1---1---1-------1--|
  G|2-------2-------------------2--|0-------0---0---0---0-------0--|
  D|0-------0-------------------0--|2-------2---2---2---2-------2--|
  A|-------------------------------|3-------3---3---3---3-------3--|
  E|-------------------------------|-------------------------------|

  e|5------ 5------ ----5-- ----5--|3------ 3---3-- 3---3-- ----3--|
  B|7-------7-----------7-------7--|5-------5---5---5---5-------5--|
  G|7-------7-----------7-------7--|5-------5---5---5---5-------5--|
  D|-------------------------------|-------------------------------|
  A|-------------------------------|-------------------------------|
  E|-------------------------------|-------------------------------|
    We      said            goodbyes
                our


    G                               A
  e|3------ 3------ ----3-- ----3--|5------ 5------ 5------ -------|
  B|3-------3-----------3-------3--|5-------5-------5--------------|
  G|4-------4-----------4-------4--|6-------6-------6--------------|
  D|5-------5-----------5-------5--|7-------7-------7--------------|
  A|5-------5-----------5-------5--|7-------7-------7--------------|
  E|3-------3-----------3-------3--|5-------5-------5--------------|

  e|------- ------- ------- -------|------- ------- ------- -------|
  B|3-------3---3---3---3-------3--|5-------5---5---5---5-------5--|
  G|4-------4---4---4---4-------4--|6-------6---6---6---6-------6--|
  D|5-------5---5---5---5-------5--|7-------7---7---7---7-------7--|
  A|-------------------------------|-------------------------------|
  E|-------------------------------|-------------------------------|

   (Aaaaaaaaaaaaaaaaaahhhh  the     night   before)


    D                               C
  e|2------ 2------ ----2-- ----2--|0------ 0---0-- 0---0-- ----0--|
  B|3-------3-----------3-------3--|1-------1---1---1---1-------1--|
  G|2-------2-----------2-------2--|0-------0---0---0---0-------0--|
  D|0-------0-----------0-------0--|2-------2---2---2---2-------2--|
  A|-------------------------------|3-------3---3---3---3-------3--|
  E|-------------------------------|-------------------------------|

  e|5------ 5------ ----5-- ----5--|3------ 3---3-- 3---3-- ----3--|
  B|7-------7-----------7-------7--|5-------5---5---5---5-------5--|
  G|7-------7-----------7-------7--|5-------5---5---5---5-------5--|
  D|-------------------------------|-------------------------------|
  A|-------------------------------|-------------------------------|
  E|-------------------------------|-------------------------------|
    Love    was in          your    eyes

    G                               A
  e|3------ 3------ ----3-- ----3--|5------ 5------ ----5-- ----5--|
  B|3-------3-----------3-------3--|5-------5-----------5-------5--|
  G|4-------4-----------4-------4--|6-------6-----------6-------6--|
  D|5-------5-----------5-------5--|7-------7-----------7-------7--|
  A|5-------5-----------5-------5--|7-------7-----------7-------7--|
  E|3-------3-----------3-------3--|5-------5-----------5-------5--|

  e|------- ------- ------- -------|------- ------- ------- -------|
  B|3-------3-------3---3-------3--|5-------5-------5---5-------5--|
  G|4-------4-------4---4-------4--|6-------6-------6---6-------6--|
  D|5-------5-------5---5-------5--|7-------7-------7---7-------7--|
  A|-------------------------------|-------------------------------|
  E|-------------------------------|-------------------------------|

   (Aaaaaaaaaaaaaaaaaahhhh  the     night   before)


    Bm                              Gm
  e|2------ 2---2-- ----2-- 2------|3------ 3---3-- ----3-- 3------|
  B|3-------3---3-------3---3------|3-------3---3-------3---3------|
  G|4-------4---4-------4---4------|3-------3---3-------3---3------|
  D|4-------4---4-------4---4------|5-------5---5-------5---5------|
  A|2-------2---2-------2---2------|5-------5---5-------5---5------|
  E|-------------------------------|3-------3---3-------3---3------|

  e|------- ------- ------- -------|------- ------- ------- -------|
  B|3-------3---3-------3----------|3-------3---3-------3----------|
  G|4-------4---4-------4----------|3-------3---3-------3----------|
  D|4-------4---4-------4----------|5-------5---5-------5----------|
  A|-------------------------------|-------------------------------|
  E|-------------------------------|-------------------------------|
    Now     today           I       find
   (Aaaaaaaaaaaaaaaaaaaaaaaaaaaaaaaaaaaaaaaaaaaaaaaaaaaaaaaaaaaaaaa


    Bm                              Gm
  e|2------ 2---2-- 2------ 2---2--|3------ 3------ ----3-- -------|
  B|3-------3---3---3-------3---3--|3-------3-----------3----------|
  G|4-------4---4---4-------4---4--|3-------3-----------3----------|
  D|4-------4---4---4-------4---4--|5-------5-----------5----------|
  A|2-------2---2---2-------2---2--|5-------5-----------5----------|
  E|-------------------------------|3-------3-----------3----------|
                                    Gm6     Gm
  e|------- ------- ------- -------|------- ------- ------- -------|
  B|--------3-----------3-------3--|5-------3-------3---3-------3--|
  G|--------4-----------4-------4--|3-------3-------3---3-------3--|
  D|--------4-----------4-------4--|5-------5-------5---5-------5--|
  A|-------------------------------|-------------------------------|
  E|-------------------------------|-------------------------------|
    you have    changed     your
                                mind.
    aaaaaaaaaaaaaaaaaaaaaaaaaaaaaaaaaaaaaaaaaaaaaaaaaaaaaahhhh)

    D                                       G
  e|2------ 2------ ----2-- 2------|------- 3------ ----3-- -------|
  B|3-------3-----------3---3------|--------3-----------3----------|
  G|2-------2-----------2---2------|--------4-----------4----------|
  D|0-------0-----------0---0------|--------5-----------5----------|
  A|-------------------------------|--------5-----------5----------|
  E|-------------------------------|--------3-----------3----------|

  e|------- 5------ ----5-- ----5--|------- ------- ------- -------|
  B|--------7-----------7-------7--|--------3-----------3-------3--|
  G|--------7-----------7-------7--|--------4-----------4-------4--|
  D|-------------------------------|--------5-----------5-------5--|
  A|-------------------------------|-------------------------------|
  E|-------------------------------|-------------------------------|
    Treat   me  like        you did         the night       before.

    D                               F                       G
  e|2------ 2---2-- 2---2-- -------|1------ 1---1-- ------/ 3------|
  B|3-------3---3---3---3----------|1-------1---1---------/-3------|
  G|2-------2---2---2---2----------|2-------2---2---------/-4------|
  D|0-------0---0---0---0----------|3-------3---3---------/-5------|
  A|-------------------------------|3-------3---3---------/-5------|
  E|-------------------------------|1-------1---1---------/-1------|

  e|------- 5---5-- 5---5-- ----5--|------- ------- ------- -------|
  B|--------7---7---7---7-------7--|1-------1---1-----------3------|
  G|--------7---7---7---7-------7--|2-------2---2-----------4------|
  D|-------------------------------|3-------3---3-----------5------|
  A|-------------------------------|-------------------------------|
  E|-------------------------------|-------------------------------|

    00:34
    Were you telling lies? (ah, the night before)
    Was I so unwise? (ah, the night before)
    When I held you near you were so sincere.
    Treat me like you did the night before.


    00:54

  e|------- 2---2-- ------- -------|2------ ----2-- ------- -------|
  B|--------3---3------------------|3-----------3------------------|
  G|--------2---2------------------|2-----------2------------------|
  D|--------0---0------------------|0-----------0------------------|
  A|-------------------------------|-------------------------------|
  E|-------------------------------|-------------------------------|

  e|------- 5------ ----5-- -------|5------ ----5-- ----5-- 5------|
  B|--------7-----------7----------|7-----------7-------7---7------|
  G|--------7-----------7-------7--|7-----------7-------7---7------|
  D|-------------------------------|-------------------------------|
  A|-------------------------------|-------------------------------|
  E|-------------------------------|-------------------------------|

    00:56
    Am                              D
  e|0------ 0------ 0------ 0------|2------ 2---2-- ----2-- 2------|
  B|1-------1-------1-------1------|3-------3---3-------3---3------|
  G|2-------2-------2-------2------|2-------2---2-------2---2------|
  D|2-------2-------2-------2------|0-------0---0-------0---0------|
  A|0-------0-------0-------0------|-------------------------------|
  E|-------------------------------|-------------------------------|
                                            D7
  e|------- ------- ------- -------|------- ------- ------- -------|
  B|5-------5-----------5-------5--|--------3-----------3---3---3--|
  G|5-------5-----------5-------5--|--------5-----------5---5---5--|
  D|7-------7-----------7-------7--|--------4-----------4---4---4--|
  A|-------------------------------|--------5-----------5---5---5--|
  E|-------------------------------|-------------------------------|
    Last    night   is  a       night   I       will        remember

    G
  e|3------ 3---3-- ------- 3------|3------ 3---3-- ------- 3------|
  B|3-------3---3-----------5------|3-------3---3-----------3------|
  G|4-------4---4-----------5------|4-------4---4-----------4------|
  D|5-------5---5-----------5------|5-------5---5-----------5------|
  A|5-------5---5-----------3------|5-------5---5-----------5------|
  E|3-------3---3------------------|3-------3---3-----------3------|

  e|------- ------- ------- -------|------- ------- ------- -------|
  B|--------3-----------5----------|3-----------3-----------3------|
  G|--------4-----------5----------|4-------4-----------4----------|
  D|--------5-----------5----------|5-------5-----------5----------|
  A|-------------------------------|-------------------------------|
  E|-------------------------------|-------------------------------|
                            you by.

    Bm                              E
  e|2------ 2------ ----2-- 2------|0------ 0------ 0---0-- 0------|
  B|3-------3-----------3---3------|0-------0-------0---0---0------|
  G|4-------4-----------4---4------|1-------1-------1---1---1------|
  D|4-------4-----------4---4------|2-------2-------2---2---2------|
  A|2-------2-----------2---2------|2-------2-------2---2---2------|
  E|-------------------------------|0-------0-------0---0---0------|

  e|------- ------- ------- -------|------- 7---7-- ----7-- ----7--|
  B|--------7-----------7----------|9-------9---9-------9-------9--|
  G|--------7-----------7----------|9-------9---9-------9-------9--|
  D|--------9-----------9----------|9------------------------------|
  A|-------------------------------|-------------------------------|
  E|-------------------------------|-------------------------------|
    When        think   of      things      we  did             it
        I


    A
  e|0------ 0------ 0---0-- 0---0--|0------ 0------ 0---0-- 0------|
  B|2-------2-------2---2---2---2--|2-------2-------2---2---2------|
  G|2-------2-------2---2---2---2--|2-------2-------2---2---2------|
  D|2-------2-------2---2---2---2--|2-------2-------2---2---2------|
  A|0-------0-------0---0---0---0--|0-------0-------0---0---0------|
  E|-------------------------------|-------------------------------|
            A7
  e|------- ------- ------- -------|------- ------- ------- -------|
  B|--------8-------8---8----------|8-------8-------8---8---8---8--|
  G|--------6-------6---6----------|6-------6-------6---6---6---6--|
  D|--------7-------7---7----------|7-------7-------7---7---7---7--|
  A|-------------------------------|-------------------------------|
  E|-------------------------------|-------------------------------|
    makes   me      wanna       cry.

    01:07
    We said our goodbye (ah, the night before.)
    Love was in your eyes (ah, the night before).
    Now today I find you have changed your mind.
    Treat me like you did the night before.

    01:27

  e|2------ 2---2-- ----2-- 2------|1------ 1---1-- ------/ 3------|
  B|3-------3---3-------3---3------|1-------1---1---------/-3------|
  G|2-------2---2-------2---2------|2-------2---2---------/-4------|
  D|0-------0---0-------0---0------|3-------3---3---------/-5------|
  A|-------------------------------|3-------3---3---------/-5------|
  E|-------------------------------|1-------1---1---------/-1------|

  e|------- 5------ ----5-- -------|------- ------- ------- -------|
  B|--------7-----------7----------|1-------1---1-----------3------|
  G|--------7-----------7----------|2-------2---2-----------4------|
  D|-------------------------------|3-------3---3-----------5------|
  A|-------------------------------|-------------------------------|
  E|-------------------------------|-------------------------------|
                                                        Yes!

    SOLO
    01:30
    D                               C
  e|------- ------- ------- -------|------- ------- ------- -------|
  B|-------------------------------|-------------------------------|
  G|---------B-----R---------------|-------------------------------|
  D|--------101212--10------7------|--------(5B)6-R-5-------3------|
  A|-------------------------------|-------------------------------|
  E|-------------------------------|-------------------------------|

  e|------- -B-----R------- -------|------- ------- ------- -------|
  B|--------131515--13------10-----|-------------------------------|
  G|-------------------------------|------(12B)13-R-12------10-----|
  D|-------------------------------|-------------------------------|
  A|-------------------------------|-------------------------------|
  E|-------------------------------|-------------------------------|


    G                               A
  e|------- ------- ------- -------|------- ------- ------- -------|
  B|-------------------------------|-------------------------------|
  G|--------5-H-7-B-9-R-7---5------|-------------------------------|
  D|----7--------------------------|--------(3B)4-R-3--------------|
  A|-------------------------------|------------------------5------|
  E|-------------------------------|-------------------------------|

  e|------- --H---- -B--R-- -------|------- ------- ------- -------|
  B|--------13--15--151715--13-----|-------------------------------|
  G|----14-------------------------|------(10B)11-R-10-------------|
  D|-------------------------------|------------------------12-----|
  A|-------------------------------|-------------------------------|
  E|-------------------------------|-------------------------------|


    D                               C
  e|------- ------- ------- -------|------- ------- ------- -------|
  B|-------------------------------|-------------------------------|
  G|---------B-----R---------------|-------------------------------|
  D|--------101212--10------7------|------------5B6R5-------3------|
  A|-------------------------------|-------------------------------|
  E|-------------------------------|-------------------------------|

  e|------- -B-----R------- -------|------- ------- ------- -------|
  B|--------131515--13------10-----|-------------------------------|
  G|-------------------------------|----------12B13R12------10-----|
  D|-------------------------------|-------------------------------|
  A|-------------------------------|-------------------------------|
  E|-------------------------------|-------------------------------|


    G                               A
  e|------- ------- ------- -------|------- ------- ------- -------|
  B|-------------------------------|-------------------------------|
  G|--------5-H-7---7B9R7---5------|-------------------------------|
  D|----7--------------------------|--------(3B)4-R-3--------------|
  A|-------------------------------|------------------------5------|
  E|-------------------------------|-------------------------------|

  e|------- --H---- -B--R-- -------|------- ------- ------- -------|
  B|--------13--15--151715--13-----|-------------------------------|
  G|----14-------------------------|------(10B)11-R-10-------------|
  D|-------------------------------|------------------------12-----|
  A|-------------------------------|-------------------------------|
  E|-------------------------------|-------------------------------|

    01:42
    When I held you near you were so sincere.
    Treat me like you did the night before, yeah!

    01:53

  e|0------ 0---0-- 0------ 0------|2------ 2---2-- ----2-- 2------|
  B|1-------1---1---1-------1------|3-------3---3-------3---3------|
  G|2-------2---2---2-------2------|2-------2---2-------2---2------|
  D|2-------2---2---2-------2------|0-------0---0-------0---0------|
  A|0-------0---0---0-------0------|-------------------------------|
  E|-------------------------------|-------------------------------|

  e|------- ------- ------- -------|------- ------- ------- -------|
  B|5-------5---5-------5-------5--|3---3---3-------3---3----------|
  G|5-------5---5-------5-------5--|5---5---5-------5---5----------|
  D|7-------7---7-------7-------7--|4---4---4-------4---4----------|
  A|-------------------------------|5---5---5-------5---5----------|
  E|-------------------------------|-------------------------------|
    Last    night   is  a       night   I       will        remember


  e|3------ 3---3-- ------- -------|3------ ----3-- 3------ 3------|
  B|3-------3---3------------------|3-----------3---3-------3------|
  G|4-------4---4------------------|4-----------4---4-------4------|
  D|5-------5---5------------------|5-----------5---5-------5------|
  A|5-------5---5------------------|5-----------5---5-------5------|
  E|3-------3---3------------------|3-----------3---3-------3------|

  e|------- ------- ------- -------|------- ------- ------- -------|
  B|3-------3-----------3----------|5-----------3-------3-------3--|
  G|4-------4-----------4----------|5-----------4-------4-------4--|
  D|5-------5-----------5----------|5-----------5-------5-------5--|
  A|-------------------------------|-------------------------------|
  E|-------------------------------|-------------------------------|
                            you by.


  e|2------ 2------ ------- -------|0------ 0------ ------- -------|
  B|3-------3----------------------|0-------0----------------------|
  G|4-------4----------------------|1-------1----------------------|
  D|4-------4----------------------|2-------2----------------------|
  A|2-------2----------------------|2-------2----------------------|
  E|-------------------------------|0-------0----------------------|

  e|------- ------- ------- -------|------- 7------ ----7-- ----8--|
  B|7-------7-----------7-------7--|9-------9-----------9-------9--|
  G|7-------7-----------7-------7--|9-------9-----------9-------9--|
  D|9-------9-----------9-------9--|9------------------------------|
  A|-------------------------------|-------------------------------|
  E|-------------------------------|-------------------------------|
    When        think   of      things      we  did             it
        I

                                    x       x       x x x x x   x

  e|0------ 0------ 0---0-- 0------|0---0-- 0------ 0---0-- 0---0--|
  B|2-------2-------2---2---2------|2---2---2-------2---2---2---2--|
  G|2-------2-------2---2---2------|2---2---2-------2---2---2---2--|
  D|2-------2-------2---2---2------|2---2---2-------2---2---2---2--|
  A|0-------0-------0---0---0------|0---0---0-------0---0---0---0--|
  E|-------------------------------|-------------------------------|

  e|------- ------- ------- -------|------- ------- ------- -------|
  B|8-------8-----------8----------|8---8-------8---8-------8---8--|
  G|6-------6-----------6----------|6---6-------6---6-------6---6--|
  D|7-------7-----------7----------|7---7-------7---7-------7---7--|
  A|-------------------------------|-------------------------------|
  E|-------------------------------|-------------------------------|
    makes   me      wanna       cry.

    02:04
    Were you telling lies? (ah, the night before)
    Was I so unwise? (ah, the night before)
    When I held you near you were so sincere.
    Treat me like you did the night before,


    02:24

  e|2------ 2---2-- 2------ -------|1------ ----1-- ------- 1------|
  B|3-------3---3---3--------------|1-----------1-----------1------|
  G|2-------2---2---2--------------|2-----------2-----------2------|
  D|0-------0---0---0--------------|3-----------3-----------3------|
  A|-------------------------------|3-----------3-----------3------|
  E|-------------------------------|1-----------1-----------1------|

  e|5------ 5------ ----5-- ----5--|------- ------- ------- -------|
  B|7-------7-----------7-------7--|--------1---1-------1---1---1--|
  G|7-------7-------7---7-------7--|--------2---2-------2---2---2--|
  D|-------------------------------|--------3---3-------3---3---3--|
  A|-------------------------------|-------------------------------|
  E|-------------------------------|-------------------------------|
                                            like    night
                                                the     before

                                   (.

  e|2------ 2---2-- ----2-- 2------|2------ ------- ------- -------|
  B|1-------1---1-------1---1------|1------------------------------|
  G|2-------2---2-------2---2------|2------------------------------|
  D|0-------0---0-------0---0------|0------------------------------|
  A|-------------------------------|-------------------------------|
  E|-------------------------------|-------------------------------|

  e|------- ------- ------- -------|------- ------- ------- -------|
  B|--------7-----------7---7------|7------------------------------|
  G|--------5-----------5---5------|5------------------------------|
  D|--------7-----------7---7------|7------------------------------|
  A|-------------------------------|-------------------------------|
  E|-------------------------------|-------------------------------|

  e|------- ------- ------- -------|------- ------- ------- -------|
  B|-------------------------------|-------------------------------|
  G|---------B-----R---------------|-------------------------------|
  D|--------101212--10--7----------|-------------------------------|
  A|------------------------10B11--|-------------------------------|
  E|-------------------------------|10-----------------------------|

  e|------- -B-----R------- -------|------- ------- ------- -------|
  B|--------131515--13--10---------|-------------------------------|
  G|------------------------12B13--|-------------------------------|
  D|-------------------------------|12-----------------------------|
  A|-------------------------------|-------------------------------|
  E|-------------------------------|-------------------------------|



        B  Bend
        R  Release
        /  Slide up
        \  Slide down
        H  Hammer-on
        P  Pull-off
        ~  Vibrato
        +  Harmonic
        x  Mute note
        .  Play note like a dot in standard notation
        ^  Ties two notes together
        (. Pause

 --------------------------------------------------------------------

 THE BEATLES - YOU'VE GOT TO HIDE YOUR LOVE AWAY (Lennon & McCartney)
               From HELP album. Released on August, 6th, 1965.

 --------------------------------------------------------------------

  Tabbed by PJVillanueva


  Here I stand head in hand
  Turn my face to the wall
  If she's gone I can't go on
  Feelin' two-foot small

  Everywhere people stare
  Each and every day
  I can see them laugh at me
  And I hear them say

  Hey you've got to hide your love away
  Hey you've got to hide your love away

  How could I even try
  I can never win
  Hearing them, seeing them
  In the state I'm in

  How could she say to me
  Love will find a way
  Gather round all you clowns
  Let me hear you say

  Hey you've got to hide your love away
  Hey you've got to hide your love away


  12/8


                            Verse 1

  G                                      Dsus4
e|3----333---- 3---3---3---|3----333---- 3----333----|
B|3----333-----3---3---3---|3----333-----3----333----|
G|0----000-----0---0---0---|0----000-----2----222----|
D|0----000-----0---0---0---|0----000-----0----000----|
A|2----222-----2---2---2---|2----222-----------------|
E|3----333-----3---3---3---|3----333-----------------|

  F9      C    G            C           Csus2 C
e|3---3---3--- 3----333----|3----333---- 3----333----|
B|1---1---1----3----333----|1----111-----1----111----|
G|2---2---0----0----000----|0----000-----0----000----|
D|3---3---2----0----000----|2----222-----0-2--222----|
A|-------------2----222----|3----333-----3----333----|
E|-------------3----333----|-------------------------|

  F9           C            G            Dsus4
e|3----333---- 3----333----|3----333---- 3----333----|
B|1----111-----1----111----|3----333-----3----333----|
G|2----222-----0----000----|0----000-----2----222----|
D|3----333-----2----222----|0----000-----0----000----|
A|-------------3----333----|2----222-----------------|
E|-------------------------|3----333-----------------|

  F9      C    G            C           Csus2 C
e|3---3---3--- 3----333----|3----333---- 3----333----|
B|1---1---1----3----333----|1----111-----1----111----|
G|2---2---0----0----000----|0----000-----0----000----|
D|3---3---2----0----000----|2----222-----0-2--222----|
A|-------------2----222----|3----333-----3----333----|
E|-------------3----333----|-------------------------|

  F9           C            D           Dsus4 D
e|3----333---- 3----333----|2----222---- 2----333----|
B|1----111-----1----111----|3----333-----3----333----|
G|2----222-----0----000----|2----222-----0-2--222----|
D|3----333-----2----222----|0----000-----0----000----|
A|-------------3----333----|-------------------------|
E|-------------------------|-------------------------|

  Verse 2


  G            Dsus4
e|3----333---- 3----333----|
B|3----333-----3----333----|
G|0----000-----2----222----|
D|0----000-----0----000----|
A|2----222-----------------|
E|3----333-----------------|

  F9      C    G            C           Csus2 C
e|3---3---3--- 3----333----|3----333---- 3----333----|
B|1---1---1----3----333----|1----111-----1----111----|
G|2---2---0----0----000----|0----000-----0----000----|
D|3---3---2----0----000----|2----222-----0-2--222----|
A|-------------2----222----|3----333-----3----333----|
E|-------------3----333----|-------------------------|

  F9           C            G            Dsus4
e|3----333---- 3----333----|3----333---- 3----333----|
B|1----111-----1----111----|3----333-----3----333----|
G|2----222-----0----000----|0----000-----2----222----|
D|3----333-----2----222----|0----000-----0----000----|
A|-------------3----333----|2----222-----------------|
E|-------------------------|3----333-----------------|

  F9      C    G            C           Csus2 C
e|3---3---3--- 3----333----|3----333---- 3----333----|
B|1---1---1----3----333----|1----111-----1----111----|
G|2---2---0----0----000----|0----000-----0----000----|
D|3---3---2----0----000----|2----222-----0-2--222----|
A|-------------2----222----|3----333-----3----333----|
E|-------------3----333----|-------------------------|

  F9           C            D            D7
e|3----333---- 3----333----|2----222---- 2----333----|
B|1----111-----1----111----|3----333-----3----333----|
G|2----222-----0----000----|2----222-----2----222----|
D|3----333-----2----222----|0------------------------|
A|-------------3----333----|-------------3-----------|
E|-------------------------|-------------------------|


  D
e|2----222---- 2---2---2---|
B|3----333-----3---3---3---|
G|2----222-----2---2---2---|
D|-------------0-----------|
A|2------------0-----------|
E|-------------------------|


  Chorus


  G                         C
e|3----333---- 3---3---3---|3----333---- 3---3---3---|
B|3----333-----3---3---3---|1----111-----1---1---1---|
G|0----000-----0---0---0---|0----000-----0---0---0---|
D|0----000-----0---0---0---|2----222-----2---2---2---|
A|2----222-----2---0---2---|3----333-----3---3---3---|
E|3------------3-----------|-------------------------|


  Dsus4        D            Dsus2          D
e|3----333---- 2----222----|0----000---- 0-2--222----|
B|3----333-----3----333----|3----333-----3----333----|
G|2----222-----2----222----|2----222-----2----222----|
D|0------------0-----------|0------------0-----------|
A|-------------------------|-------------------------|
E|-------------------------|-------------------------|

  G                         C
e|3----333---- 3---3---3---|3----333---- 3---3---3---|
B|3----333-----3---3---3---|1----111-----1---1---1---|
G|0----000-----0---0---0---|0----000-----0---0---0---|
D|0----000-----0---0---0---|2----222-----2---2---2---|
A|2----222-----2---0---2---|3----333-----3---3---3---|
E|3------------3-----------|-------------------------|


  Dsus4        D            Dsus2          D
e|3----333---- 2----222----|0----000---- 0-2--222----|
B|3----333-----3----333----|3----333-----3----333----|
G|2----222-----2----222----|2----222-----2----222----|
D|0------------0-----------|0------------0-----------|
A|-------------------------|-------------------------|
E|-------------------------|-------------------------|

  Verse 3


  G            Dsus4
e|3----333---- 3----333----|
B|3----333-----3----333----|
G|0----000-----2----222----|
D|0----000-----0----000----|
A|2----222-----------------|
E|3----333-----------------|

  F9      C    G            C           Csus2 C
e|3---3---3--- 3----333----|3----333---- 3----333----|
B|1---1---1----3----333----|1----111-----1----111----|
G|2---2---0----0----000----|0----000-----0----000----|
D|3---3---2----0----000----|2----222-----0-2--222----|
A|-------------2----222----|3----333-----3----333----|
E|-------------3----333----|-------------------------|

  F9           C            G            Dsus4
e|3----333---- 3----333----|3----333---- 3----333----|
B|1----111-----1----111----|3----333-----3----333----|
G|2----222-----0----000----|0----000-----2----222----|
D|3----333-----2----222----|0----000-----0----000----|
A|-------------3----333----|2----222-----------------|
E|-------------------------|3----333-----------------|

  F9      C    G            C           Csus2 C
e|3---3---3--- 3----333----|3----333---- 3----333----|
B|1---1---1----3----333----|1----111-----1----111----|
G|2---2---0----0----000----|0----000-----0----000----|
D|3---3---2----0----000----|2----222-----0-2--222----|
A|-------------2----222----|3----333-----3----333----|
E|-------------3----333----|-------------------------|

  F9           C            D           Dsus2 D
e|3----333---- 3----333----|2----222---- 2----333----|
B|1----111-----1----111----|3----333-----3----333----|
G|2----222-----0----000----|2----222-----0-2--222----|
D|3----333-----2----222----|0----000-----0----000----|
A|-------------3----333----|-------------------------|
E|-------------------------|-------------------------|

  Verse 4

  G            Dsus4
e|3----333---- 3----333----|
B|3----333-----3----333----|
G|0----000-----2----222----|
D|0----000-----0----000----|
A|2----222-----------------|
E|3----333-----------------|

  F9      C    G            C           Csus2 C
e|3---3---3--- 3----333----|3----333---- 3----333----|
B|1---1---1----3----333----|1----111-----1----111----|
G|2---2---0----0----000----|0----000-----0----000----|
D|3---3---2----0----000----|2----222-----0-2--222----|
A|-------------2----222----|3----333-----3----333----|
E|-------------3----333----|-------------------------|

  F9           C            G            Dsus4
e|3----333---- 3----333----|3----333---- 3----333----|
B|1----111-----1----111----|3----333-----3----333----|
G|2----222-----0----000----|0----000-----2----222----|
D|3----333-----2----222----|0----000-----0----000----|
A|-------------3----333----|2----222-----------------|
E|-------------------------|3----333-----------------|

  F9      C    G            C           Csus2 C
e|3---3---3--- 3----333----|3----333---- 3----333----|
B|1---1---1----3----333----|1----111-----1----111----|
G|2---2---0----0----000----|0----000-----0----000----|
D|3---3---2----0----000----|2----222-----0-2--222----|
A|-------------2----222----|3----333-----3----333----|
E|-------------3----333----|-------------------------|

  F9           C            D            D7
e|3----333---- 3----333----|2----222---- 2----333----|
B|1----111-----1----111----|3----333-----3----333----|
G|2----222-----0----000----|2----222-----2----222----|
D|3----333-----2----222----|0------------------------|
A|-------------3----333----|-------------3-----------|
E|-------------------------|-------------------------|


  D
e|2----222---- 2---2---2---|
B|3----333-----3---3---3---|
G|2----222-----2---2---2---|
D|-------------0-----------|
A|2------------0-----------|
E|-------------------------|


  Chorus


  G                         C
e|3----333---- 3---3---3---|3----333---- 3---3---3---|
B|3----333-----3---3---3---|1----111-----1---1---1---|
G|0----000-----0---0---0---|0----000-----0---0---0---|
D|0----000-----0---0---0---|2----222-----2---2---2---|
A|2----222-----2---0---2---|3----333-----3---3---3---|
E|3------------3-----------|-------------------------|


  Dsus4        D            Dsus2          D
e|3----333---- 2----222----|0----000---- 0-2--222----|
B|3----333-----3----333----|3----333-----3----333----|
G|2----222-----2----222----|2----222-----2----222----|
D|0------------0-----------|0------------0-----------|
A|-------------------------|-------------------------|
E|-------------------------|-------------------------|

  G                         C
e|3----333---- 3---3---3---|3----333---- 3---3---3---|
B|3----333-----3---3---3---|1----111-----1---1---1---|
G|0----000-----0---0---0---|0----000-----0---0---0---|
D|0----000-----0---0---0---|2----222-----2---2---2---|
A|2----222-----2---0---2---|3----333-----3---3---3---|
E|3------------3-----------|-------------------------|


  Dsus4        D            Dsus2          D
e|3----333---- 2----222----|0----000---- 0-2--222----|
B|3----333-----3----333----|3----333-----3----333----|
G|2----222-----2----222----|2----222-----2----222----|
D|0------------0-----------|0------------0-----------|
A|-------------------------|-------------------------|
E|-------------------------|-------------------------|


  Ending flute solo


  G            Dsus4
e|3----333---- 3----333----|
B|3----333-----3----333----|
G|0----000-----2----222----|
D|0----000-----0----000----|
A|2----222-----------------|
E|3----333-----------------|

e|------------ --------------|
B|------------------------4--|
G|0------------2-------------|
D|---------------------------|
A|---------------------------|
E|---------------------------|

  F9      C    G            C           Csus2 C
e|3---3---3--- 3----333----|3----333---- 3----333----|
B|1---1---1----3----333----|1----111-----1----111----|
G|2---2---0----0----000----|0----000-----0----000----|
D|3---3---2----0----000----|2----222-----0-2--222----|
A|-------------2----222----|3----333-----3----333----|
E|-------------3----333----|-------------------------|

e|------------ ------------|------------ ------------|
B|5------------------------|-------------------------|
G|-----------3/4-3-2-0-----|0------------2---0-------|
D|-------------------------|-------------------------|
A|-------------------------|-------------------------|
E|-------------------------|-------------------------|

  F9           C            G            Dsus4
e|3----333---- 3----333----|3----333---- 3----333----|
B|1----111-----1----111----|3----333-----3----333----|
G|2----222-----0----000----|0----000-----2----222----|
D|3----333-----2----222----|0----000-----0----000----|
A|-------------3----333----|2----222-----------------|
E|-------------------------|3----333-----------------|

e|------------ ------------|------------ --------------|
B|3---1--------------------|------------------------4--|
G|---------------3/4---2---|0------------2-------------|
D|-------------------------|---------------------------|
A|-------------------------|---------------------------|
E|-------------------------|---------------------------|

  F9      C    G            C           Csus2 C
e|3---3---3--- 3----333----|3----333---- 3----333----|
B|1---1---1----3----333----|1----111-----1----111----|
G|2---2---0----0----000----|0----000-----0----000----|
D|3---3---2----0----000----|2----222-----0-2--222----|
A|-------------2----222----|3----333-----3----333----|
E|-------------3----333----|-------------------------|

e|------------ ------------|------------ ------------|
B|5------------------------|-------------------------|
G|-------------2/4\2---0---|0------------2---0-------|
D|-------------------------|-------------------------|
A|-------------------------|-------------------------|
E|-------------------------|-------------------------|


                           (.
  F9           C            G
e|3----333---- 3---3---3---|3------------------------|
B|1----111-----1---1---1---|3------------------------|
G|2----222-----0---0---0---|0------------------------|
D|3----333-----2---2---2---|0------------------------|
A|-------------3---3---3---|2------------------------|
E|-------------------------|3------------------------|

e|------------ ------------|------------ ------------|
B|3------------------------|-------------------------|
G|----5------------4/5-4/5-|7------------------------|
D|-------------------------|-------------------------|
A|-------------------------|-------------------------|
E|-------------------------|-------------------------|




        B  Bend
        R  Release
        /  Slide up
        \  Slide down
        H  Hammer-on
        P  Pull-off
        ~  Vibrato
        +  Harmonic
        x  Mute note
        .  Play note like a dot in standard notation
        ^  Ties two notes together
        (. Pause


  ----------------------------------------------------------------

  THE BEATLES - I NEED YOU (Harrison) From HELP album. Released on
                August 6th 1965.

  ----------------------------------------------------------------

  Tabbed by:PJVillanueva

  You don't realize how much I need you.
  Love you all the time and never leave you

  Please come on back to me.
  I'm lonely as can be.
  I need you.

  Said you had a thing or two to tell me.
  How was I to know you would upset me.
  I didn't realize as I looked in your eyes.
  You told me.

  Oh, yes, you told me
  You don't want my lovin' anymore.
  That's when it hurt me and feeling like this,
  I just can't go on anymore.

  Please remember how I feel about you.
  I could never really live without you.

  So, come on back and see
  Just what you mean to me.
  I need you.

  But when you told me you don't want my lovin' anymore.
  That's when it hurt me and feeling like this,
  I just can't go on anymore.

  Please remember how I feel about you.
  I could never really live without you.

  So, come on back and see just what you mean to me.
  I need you.
  I need you.
  I need you.



  A
e|0------ 0---0-- ----0-- 0---0--|0---0-- 0------ 0------ 0------|
B|2-------2---2-------2---2---2--|2---2---2-------2-------2------|
G|2-------2---2-------2---2---2--|2---2---2-------2-------2------|
D|2-------2---2-------2---2---2--|2---2---2-------2-------2------|
A|0-------0---0-------0---0---0--|0---0---0-------0-------0------|
E|-------------------------------|-------------------------------|

e|5------ 5------ ------- -------|----5-- ------- 5------ -------|
B|5-------5----------------------|----5-----------5--------------|
G|6-------4----------------------|----7-----------6--------------|
D|-------------------------------|-------------------------------|

                                  D                           A
e|0------ 0---0-- ------- 0------|2------ 2---2-- ----2-- 2---0--|
B|2-------2---2-----------2------|3-------3---3-------3---3---2--|
G|2-------2---2-----------2------|2-------2---2-------2---2---2--|
D|2-------2---2-----------2------|----------------------------2--|
A|0-------0---0-----------0------|----------------------------0--|
E|-------------------------------|-------------------------------|
  You         don't realise               how  much   I       need
e|------- ------- ------- -------|------- ------- ------- ----5--|
B|-------------------------------|----------------------------5--|
G|-------------------------------|----------------------------6--|
D|-------------------------------|-------------------------------|

      Asus2                   Asus4   A
e|----0-- 0---0-- 0---0-- 0---0--|----0-- 0---0-- 0---0-- 0---0--|
B|----0---0---0---0---0---0---3--|----2---2---2---2---2---2---2--|
G|----2---2---2---2---2---2---2--|----2---2---2---2---2---2---2--|
D|----2---2---2---2---2---2---2--|----2---2---2---2---2---2---2--|
A|----0---0---0---0---0---0---0--|----0---0---0---0---0---0---0--|
E|-------------------------------|-------------------------------|
      you
e|----5-- ------- ------- ----5--|----5-- ------- ------- -------|
B|----5-----------------------5--|----5--------------------------|
G|----4-----------------------7--|----6--------------------------|
D|-------------------------------|-------------------------------|

                              D                               A
e|0---0-- 0---0-- 0---0-- 0---2--|----2-- 2---2-- 2---2-- 2---0--|
B|2---2---2---2---2---2---2---3--|----3---3---3---3---3---3---2--|
G|2---2---2---2---2---2---2---2--|----2---2---2---2---2---2---2--|
D|2---2---2---2---2---2---2---0--|----0---0---0---0---0---0---2--|
A|0---0---0---0---0---0---0------|----------------------------0--|
E|-------------------------------|-------------------------------|
  Love        you all     the time        and  never          leave
e|------- ------- ------- -------|------- ------- ------- ----5--|
B|-------------------------------|----------------------------5--|
G|-------------------------------|----------------------------6--|
D|-------------------------------|----------------------------7--|
A|-------------------------------|----------------------------7--|
E|-------------------------------|-------------------------------|

      A7                      Asus4   A
e|----0-- 0---0-- 0---0-- 0---0--|----0-- 0---0-- 0---0-- 0---0--|
B|----2---2---2---2---2---2---3--|----2---2---2---2---2---2---2--|
G|----0---0---0---0---0---0---2--|----2---2---2---2---2---2---2--|
D|----2---2---2---2---2---2---2--|----2---2---2---2---2---2---2--|
A|----0---0---0---0---0---0---0--|----0---0---0---0---0---0---0--|
E|-------------------------------|-------------------------------|
      you                                                 Please
e|----5-- ------- ------- ----5--|----5-- ------- ------- -------|
B|----5-----------------------5--|----5--------------------------|
G|----6-----------------------7--|----6--------------------------|
D|----5-----------------------5--|----5--------------------------|
A|----7-----------------------7--|----7--------------------------|
E|-------------------------------|-------------------------------|


  F#m                             C#m
e|2---2-- 2---2-- 2---2-- 2------|4---4-- 4---4-- 4---4-- 4------|
B|2---2---2---2---2---2---2------|5---5---5---5---5---5---5------|
G|2---2---2---2---2---2---2------|6---6---6---6---6---6---6------|
D|4---4---4---4---4---4---4------|6---6---6---6---6---6---6------|
A|4---4---4---4---4---4---4------|4---4---4---4---4---4---4------|
E|2---2---2---2---2---2---2------|-------------------------------|
  come on     back        to  me                          I'm
e|----2-- ------- ------- -------|4------ ----4-- ------- -------|
B|----2--------------------------|5-----------5------------------|
G|----2--------------------------|6-----------6------------------|
D|----4--------------------------|6-----------6------------------|
A|----4--------------------------|4-----------4------------------|
E|-------------------------------|-------------------------------|

  F#m                             Bm                          A
e|2------ 2------ 2---2-- 2------|2------ 2---2-- ----2-- 2---0--|
B|2-------2-------2---2---2------|3-------3---3-------3---3---2--|
G|2-------2-------2---2---2------|4-------4---4-------4---4---2--|
D|4-------4-------4---4---4------|4-------4---4-------4---4---2--|
A|4-------4-------4---4---4------|2-------2---2-------2---2---0--|
E|2-------2-------2---2---2------|-------------------------------|
  lonely      as          can  be                         I   need
e|2------ ------- ------- -------|2------ ------- ------- ----5--|
B|2------------------------------|3---------------------------5--|
G|2------------------------------|4---------------------------6--|
D|4------------------------------|4------------------------------|
A|4------------------------------|2------------------------------|
E|-------------------------------|-------------------------------|

      Asus2                   Asus4   A
e|----0-- 0---0-- 0---0-- 0---0--|----0-- 0---0-- 0---0-- 0---0--|
B|----0---0---0---0---0---0---3--|----2---2---2---2---2---2---2--|
G|----2---2---2---2---2---2---2--|----2---2---2---2---2---2---2--|
D|----2---2---2---2---2---2---2--|----2---2---2---2---2---2---2--|
A|----0---0---0---0---0---0---0--|----0---0---0---0---0---0---0--|
E|-------------------------------|-------------------------------|
      you
e|----5-- ------- ------- ----5--|----5-- ------- ------- -------|
B|----5-----------------------5--|----5--------------------------|
G|----4-----------------------7--|----6--------------------------|
D|----------------------------5--|----5--------------------------|
A|----------------------------7--|----7--------------------------|
E|-------------------------------|-------------------------------|

                                  D                           A
e|0------ 0---0-- 0---0-- 0---0--|2------ 2---2-- 2---2-- 2---0--|
B|2-------2---2---2---2---2---2--|3-------3---3---3---3---3---2--|
G|2-------2---2---2---2---2---2--|2-------2---2---2---2---2---2--|
D|2-------2---2---2---2---2---2--|0-------0---0---0---0---0---2--|
A|0-------0---0---0---0---0---0--|----------------------------0--|
E|-------------------------------|-------------------------------|
  Said        you had     a   thing   or      two     to      tell
e|------- ------- ------- -------|------- ------- ------- ----5--|
B|-------------------------------|----------------------------5--|
G|-------------------------------|----------------------------6--|
D|-------------------------------|-------------------------------|

      Asus2                   Asus4   A
e|----0-- 0---0-- 0---0-- 0---0--|----0-- ----0-- 0---0-- 0---0--|
B|----0---0---0---0---0---0---3--|----2-------2---2---2---2---2--|
G|----2---2---2---2---2---2---2--|----2-------2---2---2---2---2--|
D|----2---2---2---2---2---2---2--|----2-------2---2---2---2---2--|
A|----0---0---0---0---0---0---0--|----0-------0---0---0---0---0--|
E|-------------------------------|-------------------------------|
      me
e|----5-- ------- ------- ----5--|----5-- ------- ------- -------|
B|----5-----------------------5--|----5--------------------------|
G|----4-----------------------7--|----6--------------------------|
D|----------------------------5--|----5--------------------------|
A|----------------------------7--|----7--------------------------|
E|-------------------------------|-------------------------------|


  A                           D                               A
e|0------ 0------ 0---0-- 0---2--|----2-- 2---2-- 2---2-- 2---0--|
B|2-------2-------2---2---2---3--|----3---3---3---3---3---3---2--|
G|2-------2-------2---2---2---2--|----2---2---2---2---2---2---2--|
D|2-------2-------2---2---2---0--|----0---0---0---0---0---0---2--|
A|0-------0-------0---0---0------|----------------------------0--|
E|-------------------------------|-------------------------------|
  How         was I       to know         you would   upset
e|------- ------- ------- -------|------- ------- ------- ----5--|
B|-------------------------------|----------------------------5--|
G|-------------------------------|----------------------------6--|
D|-------------------------------|----------------------------7--|


      A7                      Asus4   A
e|----0-- 0---0-- 0---0-- 0---0--|----0-- 0---0-- 0---0-- 0------|
B|----2---2---2---2---2---2---3--|----2---2---2---2---2---2------|
G|----0---0---0---0---0---0---2--|----2---2---2---2---2---2------|
D|----2---2---2---2---2---2---2--|----2---2---2---2---2---2------|
A|----0---0---0---0---0---0---0--|----0---0---0---0---0---0------|
E|-------------------------------|-------------------------------|
      me?                                                 I
e|----5-- ------- ------- ----5--|----5-- ------- ------- -------|
B|----5-----------------------5--|----5--------------------------|
G|----6-----------------------7--|----6--------------------------|
D|----5-----------------------5--|----5--------------------------|
A|----------------------------7--|----7--------------------------|
E|-------------------------------|-------------------------------|


  F#m                             C#m
e|2---2-- 2---2-- 2---2-- 2------|4---4-- 4---4-- 4---4-- 4------|
B|2---2---2---2---2---2---2------|5---5---5---5---5---5---5------|
G|2---2---2---2---2---2---2------|6---6---6---6---6---6---6------|
D|4---4---4---4---4---4---4------|6---6---6---6---6---6---6------|
A|4---4---4---4---4---4---4------|4---4---4---4---4---4---4------|
E|2---2---2---2---2---2---2------|-------------------------------|
  didn't      re..............alise                       as
e|2------ ----2-- ------- -------|4------ ----4-- ------- -------|
B|2-----------2------------------|5-----------5------------------|
G|2-----------2------------------|6-----------6------------------|
D|4-----------4------------------|6-----------6------------------|

  F#m                             Bm                          A
e|2---2-- 2---2-- 2---2-- 2---2--|2---2-- 2------ 2---2-- 2---0--|
B|2---2---2---2---2---2---2---2--|3---3---3-------3---3---3---2--|
G|2---2---2---2---2---2---2---2--|4---4---4-------4---4---4---2--|
D|4---4---4---4---4---4---4---4--|4---4---4-------4---4---4---2--|
A|4---4---4---4---4---4---4---4--|2---2---2-------2---2---2---0--|
E|2---2---2---2---2---2---2---2--|-------------------------------|
  I looked   in   your eyes                               you told
e|2------ ----2-- ------- -------|2------ ----2-- ------- ----5--|
B|2-----------2------------------|3-----------3---------------5--|
G|2-----------2------------------|4-----------4---------------6--|
D|4-----------4------------------|4-----------4------------------|

      Asus2                   Asus4   A
e|----0-- 0---0-- 0---0-- 0---0--|----0-- 0---0-- ----0-- 0---0--|
B|----0---0---0---0---0---0---3--|----2---2---2-------2---2---2--|
G|----2---2---2---2---2---2---2--|----2---2---2-------2---2---2--|
D|----2---2---2---2---2---2---2--|----2---2---2-------2---2---2--|
A|----0---0---0---0---0---0---0--|----0---0---0-------0---0---0--|
E|-------------------------------|-------------------------------|
      me                                      Oh      yes,    you
e|----5-- ------- ------- ----5--|----5-- ------- ----5-- -------|
B|----5-----------------------5--|----5---------------6----------|
G|----4-----------------------7--|----6---------------6----------|
D|----------------------------5--|----5---------------7----------|
A|----------------------------7--|----7--------------------------|
E|-------------------------------|-------------------------------|


  D                               E
e|2---2-- 2---2-- 2---2-- 2---2--|0---0-- 0---0-- 0---0-- 0---0--|
B|3---3---3---3---3---3---3---3--|0---0---0---0---0---0---0---0--|
G|2---2---2---2---2---2---2---2--|1---1---1---1---1---1---1---1--|
D|0---0---0---0---0---0---0---0--|2---2---2---2---2---2---2---2--|
A|-------------------------------|2---2---2---2---2---2---2---2--|
E|-------------------------------|0---0---0---0---0---0---0---0--|
  told me                     you don't want  my  lovin'  anymore
e|------- ------- ------- -------|------- ------- ------- -------|
B|-------------------------------|0-----------0------------------|
G|-------------------------------|1-----------1------------------|
D|-------------------------------|2-----------2------------------|


  A
e|0-----0 0---0-- ----0-- 0------|0-----0 0---0-- 0---0-- 0------|
B|2-----2-2---2-------2---2------|2-----2-2---2---2---2---2------|
G|2-----2-2---2-------2---2------|2-----2-2---2---2---2---2------|
D|2-----2-2---2-------2---2------|2-----2-2---2---2---2---2------|
A|0-----0-0---0-------0---0------|0-----0-0---0---0---0---0------|
E|-------------------------------|-------------------------------|
                                              That's when     it
e|5------ ----5-- ------- 5------|------- ------- 5------ -------|
B|5-----------5-----------5------|----------------6--------------|
G|6-----------6-----------6------|----------------6--------------|
D|7-----------7-----------7------|----------------7--------------|

  D                               E
e|2---2-- 2---2-- 2---2-- 2---2--|0---0-- 0---0-- 0---0-- 0---0--|
B|3---3---3---3---3---3---3---3--|0---0---0---0---0---0---0---0--|
G|2---2---2---2---2---2---2---2--|1---1---1---1---1---1---1---1--|
D|0---0---0---0---0---0---0---0--|2---2---2---2---2---2---2---2--|
A|-------------------------------|2---2---2---2---2---2---2---2--|
E|-------------------------------|0---0---0---0---0---0---0---0--|
  hurt me                     and feeling    like this        I
e|5------ ------- ------- -------|------- ------- ------- -------|
B|7------------------------------|-------------------------------|
G|7------------------------------|-------------------------------|
D|7------------------------------|-------------------------------|

  Bm                              E
e|2------ 2---2-- 2---2-- 2---2--|0-----0 0---0-- ----0-- 0---0--|
B|3-------3---3---3---3---3---3--|0-----0-0---0-------0---0---0--|
G|4-------4---4---4---4---4---4--|1-----1-1---1-------1---1---1--|
D|4-------4---4---4---4---4---4--|2-----2-2---2-------2---2---2--|
A|2-------2---2---2---2---2---2--|2-----2-2---2-------2---2---2--|
E|-------------------------------|-------------------------------|
  just can't go   on    a....nymore
e|11----- ------- 7------ -------|4------ ------- ------- -------|
B|12--------------7--------------|5------------------------------|
G|11--------------8--------------|4------------------------------|
D|-------------------------------|-------------------------------|

e|0-----0 0---0-- 0---0-- 0---0--|
B|0-----0-0---0---0---0---0---0--|
G|1-----1-1---1---1---1---1---1--|
D|2-----2-2---2---2---2---2---2--|
A|2-----2-2---2---2---2---2---2--|
E|0-----0-0---0---0---0---0---0--|

e|0------ ------- ------- -------|
B|0------------------------------|
G|1------------------------------|
D|2------------------------------|

  A                               D                           A
e|0------ 0------ 0---0-- 0---0--|2------ 2---2-- 2---2-- 2---0--|
B|2-------2-------2---2---2---2--|3-------3---3---3---3---3---2--|
G|2-------2-------2---2---2---2--|2-------2---2---2---2---2---2--|
D|2-------2-------2---2---2---2--|0-------0---0---0---0---0---2--|
A|0-------0-------0---0---0---0--|----------------------------0--|
E|-------------------------------|-------------------------------|
  Please      remember        how         I   feel        about
e|------- ------- ------- -------|------- ------- ------- ----5--|
B|-------------------------------|----------------------------5--|
G|-------------------------------|----------------------------6--|
D|-------------------------------|-------------------------------|


      Asus2                   Asus4   A
e|----0-- 0---0-- 0---0-- 0---0--|----0-- 0---0-- 0---0-- 0---0--|
B|----0---0---0---0---0---0---3--|----2---2---2---2---2---2---2--|
G|----2---2---2---2---2---2---2--|----2---2---2---2---2---2---2--|
D|----2---2---2---2---2---2---2--|----2---2---2---2---2---2---2--|
A|----0---0---0---0---0---0---0--|----0---0---0---0---0---0---0--|
E|-------------------------------|-------------------------------|
      you
e|----5-- ------- ------- ----5--|----5-- ------- ------- -------|
B|----5-----------------------5--|----5--------------------------|
G|----4-----------------------7--|----6--------------------------|
D|----------------------------5--|----5--------------------------|
A|----------------------------7--|----7--------------------------|
E|-------------------------------|-------------------------------|


  A                               D                           A
e|0---0-- 0------ 0---0-- 0---0--|2---2-- 2---2-- 2---2-- 2---0--|
B|2---2---2-------2---2---2---2--|3---3---3---3---3---3---3---2--|
G|2---2---2-------2---2---2---2--|2---2---2---2---2---2---2---2--|
D|2---2---2-------2---2---2---2--|0---0---0---0---0---0---0---2--|
A|0---0---0-------0---0---0---0--|----------------------------0--|
E|-------------------------------|-------------------------------|
  I           could never re......ally       live    without
e|------- ------- ------- -------|------- ------- ------- ----5--|
B|-------------------------------|----------------------------5--|
G|-------------------------------|----------------------------6--|
D|-------------------------------|----------------------------7--|
A|-------------------------------|----------------------------7--|
E|-------------------------------|-------------------------------|


      A7                      Asus4   A
e|----0-- 0---0-- 0---0-- 0---0--|----0-- ----0-- 0---0-- 0---0--|
B|----2---2---2---2---2---2---3--|----2-------2---2---2---2---2--|
G|----0---0---0---0---0---0---2--|----2-------2---2---2---2---2--|
D|----2---2---2---2---2---2---2--|----2-------2---2---2---2---2--|
A|----0---0---0---0---0---0---0--|----0-------0---0---0---0---0--|
E|-------------------------------|-------------------------------|
      you                                                     So
e|----5-- ------- ------- ----5--|----5-- ------- ------- -------|
B|----5-----------------------5--|----5--------------------------|
G|----6-----------------------7--|----6--------------------------|
D|----5-----------------------5--|----5--------------------------|
A|----7-----------------------7--|----7--------------------------|
E|-------------------------------|-------------------------------|


  F#m                             C#m
e|2---2-- 2---2-- 2---2-- 2------|4---4-- 4---4-- 4---4-- 4------|
B|2---2---2---2---2---2---2------|5---5---5---5---5---5---5------|
G|2---2---2---2---2---2---2------|6---6---6---6---6---6---6------|
D|4---4---4---4---4---4---4------|6---6---6---6---6---6---6------|
A|4---4---4---4---4---4---4------|4---4---4---4---4---4---4------|
E|2---2---2---2---2---2---2------|-------------------------------|
  come on     back        and see                         just
e|----2-- ------- ------- -------|4------ ----4-- ------- -------|
B|----2--------------------------|5-----------5------------------|
G|----2--------------------------|6-----------6------------------|
D|----4--------------------------|6-----------6------------------|


  F#m                             Bm                          A
e|2------ 2---2-- 2---2-- 2---2--|2------ 2---2-- ----2-- 2---0--|
B|2-------2---2---2---2---2---2--|3-------3---3-------3---3---2--|
G|2-------2---2---2---2---2---2--|4-------4---4-------4---4---2--|
D|4-------4---4---4---4---4---4--|4-------4---4-------4---4---2--|
A|4-------4---4---4---4---4---4--|2-------2---2-------2---2---0--|
E|2-------2---2---2---2---2---2--|-------------------------------|
  what you    mean        to  me                          I  need
e|----2-- ------- ------- -------|7------ ----7-- ------- ----5--|
B|----2--------------------------|7-----------7---------------5--|
G|----2--------------------------|7-----------7---------------6--|
D|----4--------------------------|9-----------9------------------|


      Asus2                   Asus4   A
e|----0-- 0---0-- 0---0-- 0---0--|----0-- 0---0-- 0---0-- 0---0--|
B|----0---0---0---0---0---0---3--|----2---2---2---2---2---2---2--|
G|----2---2---2---2---2---2---2--|----2---2---2---2---2---2---2--|
D|----2---2---2---2---2---2---2--|----2---2---2---2---2---2---2--|
A|----0---0---0---0---0---0---0--|----0---0---0---0---0---0---0--|
E|-------------------------------|-------------------------------|
      you                                     But     when    you
e|----5-- ------- ------- ----5--|----5-- ------- ------- -------|
B|----5-----------------------5--|----5--------------------------|
G|----4-----------------------7--|----6--------------------------|
D|----------------------------5--|----5--------------------------|
A|----------------------------7--|----7--------------------------|
E|-------------------------------|-------------------------------|


  D                               E
e|2---2-- 2---2-- 2---2-- 2---2--|0---0-- 0---0-- 0---0-- 0---0--|
B|3---3---3---3---3---3---3---3--|0---0---0---0---0---0---0---0--|
G|2---2---2---2---2---2---2---2--|1---1---1---1---1---1---1---1--|
D|0---0---0---0---0---0---0---0--|2---2---2---2---2---2---2---2--|
A|-------------------------------|2---2---2---2---2---2---2---2--|
E|-------------------------------|0---0---0---0---0---0---0---0--|
  told me                     you don't want  my  lovin'  anymore
e|------- ------- 5------ -------|------- ------- ------- -------|
B|----------------7--------------|-------------------------------|
G|----------------7--------------|-------------------------------|
D|-------------------------------|-------------------------------|


  A
e|0-----0 0---0-- ----0-- 0---0--|0-----0 0---0-- 0---0-- 0---0--|
B|2-----2-2---2-------2---2---2--|2-----2-2---2---2---2---2---2--|
G|2-----2-2---2-------2---2---2--|2-----2-2---2---2---2---2---2--|
D|2-----2-2---2-------2---2---2--|2-----2-2---2---2---2---2---2--|
A|0-----0-0---0-------0---0---0--|0-----0-0---0---0---0---0---0--|
E|-------------------------------|-------------------------------|
                                              That's when     it
e|5------ ----5-- ------- -------|------- ------- ------- 5------|
B|5-----------5------------------|------------------------5------|
G|6-----------6------------------|------------------------6------|
D|7-----------7------------------|------------------------7------|


  D                               E
e|2---2-- 2---2-- 2---2-- 2------|0---0-- 0---0-- 0------ 0------|
B|3---3---3---3---3---3---3------|0---0---0---0---0-------0------|
G|2---2---2---2---2---2---2------|1---1---1---1---1-------1------|
D|0---0---0---0---0---0---0------|2---2---2---2---2-------2------|
A|-------------------------------|2---2---2---2---2-------2------|
E|-------------------------------|0---0---0---0---0-------0------|
  hurt me                     and feeling    like this        I
e|------- ------- ------- -------|------- ------- ------- -------|
B|-------------------------------|-------------------------------|
G|-------------------------------|-------------------------------|
D|-------------------------------|-------------------------------|


  Bm                              E
e|2------ 2---2-- 2------ 2------|0-----0 0---0-- ----0-- 0---0--|
B|3-------3---3---3-------3------|0-----0-0---0-------0---0---0--|
G|4-------4---4---4-------4------|1-----1-1---1-------1---1---1--|
D|4-------4---4---4-------4------|2-----2-2---2-------2---2---2--|
A|2-------2---2---2-------2------|2-----2-2---2-------2---2---2--|
E|-------------------------------|-------------------------------|
  just can't go   on    a....nymore
e|11----- ------- 7------ -------|4------ ------- ------- -------|
B|12--------------7--------------|5------------------------------|
G|11--------------8--------------|4------------------------------|
D|-------------------------------|-------------------------------|

e|0-----0 0---0-- 0---0-- 0---0--|
B|0-----0-0---0---0---0---0---0--|
G|1-----1-1---1---1---1---1---1--|
D|2-----2-2---2---2---2---2---2--|
A|2-----2-2---2---2---2---2---2--|
E|0-----0-0---0---0---0---0---0--|

e|0------ ------- ------- -------|
B|0------------------------------|
G|1------------------------------|
D|2------------------------------|

  A                               D                           A
e|0------ 0------ 0---0-- 0---0--|2---2-- 2---2-- ----2-- 2---0--|
B|2-------2-------2---2---2---2--|3---3---3---3-------3---3---2--|
G|2-------2-------2---2---2---2--|2---2---2---2-------2---2---2--|
D|2-------2-------2---2---2---2--|0---0---0---0-------0---0---2--|
A|0-------0-------0---0---0---0--|----------------------------0--|
E|-------------------------------|-------------------------------|
  Please      remember        how         I   feel        about
e|------- ------- ------- -------|------- ------- ------- ----5--|
B|-------------------------------|----------------------------5--|
G|-------------------------------|----------------------------6--|
D|-------------------------------|-------------------------------|


      Asus2                   Asus4   A
e|----0-- 0---0-- 0---0-- 0---0--|----0-- 0---0-- 0---0-- 0---0--|
B|----0---0---0---0---0---0---3--|----2---2---2---2---2---2---2--|
G|----2---2---2---2---2---2---2--|----2---2---2---2---2---2---2--|
D|----2---2---2---2---2---2---2--|----2---2---2---2---2---2---2--|
A|----0---0---0---0---0---0---0--|----0---0---0---0---0---0---0--|
E|-------------------------------|-------------------------------|
      you
e|----5-- ------- ------- ----5--|----5-- ------- ------- -------|
B|----5-----------------------5--|----5--------------------------|
G|----4-----------------------7--|----6--------------------------|
D|----------------------------5--|----5--------------------------|
A|----------------------------7--|----7--------------------------|
E|-------------------------------|-------------------------------|


                                  D                           A
e|0---0-- 0------ 0---0-- 0---0--|2---2-- 2---2-- ----2-- 2---0--|
B|2---2---2-------2---2---2---2--|3---3---3---3-------3---3---2--|
G|2---2---2-------2---2---2---2--|2---2---2---2-------2---2---2--|
D|2---2---2-------2---2---2---2--|0---0---0---0-------0---0---2--|
A|0---0---0-------0---0---0---0--|----------------------------0--|
E|-------------------------------|-------------------------------|
  I           could never re......ally       live    without
e|------- ------- ------- -------|------- ------- ------- ----5--|
B|-------------------------------|----------------------------5--|
G|-------------------------------|----------------------------6--|
D|-------------------------------|----------------------------7--|
A|-------------------------------|----------------------------7--|
E|-------------------------------|-------------------------------|


      A7                      Asus4   A
e|----0-- 0---0-- 0---0-- 0---0--|----0-- 0---0-- 0---0-- 0---0--|
B|----2---2---2---2---2---2---3--|----2---2---2---2---2---2---2--|
G|----0---0---0---0---0---0---2--|----2---2---2---2---2---2---2--|
D|----2---2---2---2---2---2---2--|----2---2---2---2---2---2---2--|
A|----0---0---0---0---0---0---0--|----0---0---0---0---0---0---0--|
E|-------------------------------|-------------------------------|
      you                                                     So
e|----5-- ------- ------- ----5--|----5-- ------- ------- -------|
B|----5-----------------------5--|----5--------------------------|
G|----6-----------------------7--|----6--------------------------|
D|----5-----------------------5--|----5--------------------------|
A|----7-----------------------7--|----7--------------------------|
E|-------------------------------|-------------------------------|

  F#m                             C#m
e|2---2-- 2---2-- 2---2-- 2------|4---4-- 4---4-- 4---4-- 4------|
B|2---2---2---2---2---2---2------|5---5---5---5---5---5---5------|
G|2---2---2---2---2---2---2------|6---6---6---6---6---6---6------|
D|4---4---4---4---4---4---4------|6---6---6---6---6---6---6------|
A|4---4---4---4---4---4---4------|4---4---4---4---4---4---4------|
E|2---2---2---2---2---2---2------|-------------------------------|
  come on     back        and see                         just
e|----2-- ------- ------- -------|4------ ----4-- ------- -------|
B|----2--------------------------|5-----------5------------------|
G|----2--------------------------|6-----------6------------------|
D|----4--------------------------|6-----------6------------------|

  F#m                             Bm                          A
e|2------ 2---2-- 2---2-- 2------|2------ 2------ 2---2-- 2---0--|
B|2-------2---2---2---2---2------|3-------3-------3---3---3---2--|
G|2-------2---2---2---2---2------|4-------4-------4---4---4---2--|
D|4-------4---4---4---4---4------|4-------4-------4---4---4---2--|
A|4-------4---4---4---4---4------|2-------2-------2---2---2---0--|
E|2-------2---2---2---2---2------|-------------------------------|
  what you    mean        to  me                          I  need

e|2------ ----2-- ------- -------|2------ ----2-- ------- ----5--|
B|2-----------2------------------|3-----------3---------------5--|
G|2-----------2------------------|4-----------4---------------6--|
D|4-----------4------------------|4-----------4------------------|


      Asus2                   Asus4   A
e|----0-- 0---0-- 0---0-- 0---0--|----0-- 0---0-- 0---0-- 0---0--|
B|----0---0---0---0---0---0---3--|----2---2---2---2---2---2---2--|
G|----2---2---2---2---2---2---2--|----2---2---2---2---2---2---2--|
D|----2---2---2---2---2---2---2--|----2---2---2---2---2---2---2--|
A|----0---0---0---0---0---0---0--|----0---0---0---0---0---0---0--|
E|-------------------------------|-------------------------------|
      you                                                 I  need
e|----5-- ------- ------- ----5--|----5-- ------- ------- -------|
B|----5-----------------------5--|----5--------------------------|
G|----4-----------------------7--|----6--------------------------|
D|----------------------------5--|----5--------------------------|
A|----------------------------7--|----7--------------------------|
E|-------------------------------|-------------------------------|


      F#m                                                     D
e|----2-- ----2-- 2---2-- 2---2--|----2-- 2------ 2---2-- 2---2--|
B|----2-------2---2---2---2---2--|----2---2-------2---2---2---3--|
G|----2-------2---2---2---2---2--|----2---2-------2---2---2---2--|
D|----4-------4---4---4---4---4--|----4---4-------4---4---4---0--|
A|----4-------4---4---4---4---4--|----4---4-------4---4---4------|
E|----2-------2---2---2---2---2--|----2---2-------2---2---2------|
      you                                                 I  need
e|2------ ----2-- ------- 2------|2------ ----2-- ------- 2------|
B|2-----------2-----------2------|2-----------2-----------2------|
G|2-----------2-----------2------|2-----------2-----------2------|
D|4-----------4-----------4------|4-----------4-----------4------|

                                                              A
e|----2-- 2---2-- 2---2-- 2---2--|----2-- 2---2-- 2---2-- 2---0--|
B|----3---3---3---3---3---3---3--|----3---3---3---3---3---3---2--|
G|----2---2---2---2---2---2---2--|----2---2---2---2---2---2---2--|
D|----0---0---0---0---0---0---0--|----0---0---0---0---0---0---2--|
A|-------------------------------|----------------------------0--|
E|-------------------------------|-------------------------------|
      you
e|5------ ----5-- ------- 5------|5------ ----5-- ------- -------|
B|7-----------7-----------7------|7-----------7------------------|
G|7-----------7-----------7------|7-----------7------------------|
D|7-----------7-----------7------|7-----------7------------------|

                                                  (.
              Asus2                   Asus4       A
e|----0-- ----0-- 0---0-- 0---0--|----0-- ------- 0------ -------|
B|----2-------0---0---0---0---0--|----3-----------2--------------|
G|----2-------2---2---2---2---2--|----2-----------2--------------|
D|----2-------2---2---2---2---2--|----2-----------2--------------|
A|----0-------0---0---0---0---0--|----0-----------0--------------|
E|-------------------------------|-------------------------------|

e|5------ ----5-- ----5-- -------|----5-- ------- 5------ -------|
B|5-----------5-------5----------|----5-----------5--------------|
G|6-----------4-------4----------|----7-----------6--------------|
D|-------------------------------|----5-----------5--------------|
A|-------------------------------|----7-----------7--------------|
E|-------------------------------|-------------------------------|


        B  Bend
        R  Release
        /  slide up
        \  slide down
        H  hammer-on
        P  pull-off
        ~  vibrato
        +  harmonic
        x  Mute note
        . - play note like a dot in standard notation
        ^ - ties two notes together
        (. Pause

  --------------------------------------------------------------

  THE BEATLES - ANOTHER GIRL (Lennon/McCartney) From HELP album.
                Released on August 6th 1965.


  --------------------------------------------------------------

  Tabbed by:PJVillanueva



  For I have got another girl, another girl.
  You're making me say that I've got nobody but you,
  But as from today, well, I've got somebody that's new.
  I ain't no fool and I don't take what I don't want,

  For I have got another girl, another girl.

  She's sweeter than all the girls and I met quite a few.
  Nobody in all the world can do what she can do.
  And so I'm telling you, "This time you'd better stop."

  For I have got another girl. Another girl.
  Who will love me till the end.
  Through thick and thin
  She will always be my friend.

  I don't want to say that I've been unhappy with you,
  But, as from today, well, I've seen somebody that's new.
  I ain't no fool and I don't take what I don't want,

  For I have got another girl. Another girl.
  Who will love me till the end.
  Through thick and thin
  She will always be my friend.

  I don't want to say that I've been unhappy with you,
  But, as from today, well, I've seen somebody that's new.
  I ain't no fool and I don't take what I don't want,

  For I have got another girl. Another girl.
  Another girl.


                                                         Am
  e|------ ------ ------ ------|------ ------ ------ ----0-|
  B|---------------------------|-------------------------1-|
  G|---------------------------|-------------------------2-|
  D|---------------------------|-------------------------2-|
  A|---------------------------|-------------------------0-|
  E|---------------------------|---------------------------|
                                       For    I   have  got


                                D
  e|0----- 0----- 0----- 0-----|2----- 2----- 2----- 2-----|
  B|1------1------1------1-----|3------3------3------3-----|
  G|2------2------2------2-----|2------2------2------2-----|
  D|2------2------2------2-----|0------0------0------0-----|
  A|0------0------0------0-----|---------------------------|
  E|---------------------------|---------------------------|
                                       another           girl
  e|------ 5----- ------ 5-----|------ 5----- ------ 5-----|
  B|-------5-------------5-----|-------7-------------7-----|
  G|-------5-------------5-----|-------7-------------7-----|
  D|-------7-------------7-----|-------7-------------7-----|
  A|-------7-------------7-----|-------5-------------5-----|
  E|-------5-------------5-----|---------------------------|

  e|------ ------ ------ ------|------ ------ ------ ------|
  B|---------------------------|---------------------------|
  G|-------5B6R5-----7B8R7-----|5------5B6----7------------|
  D|--------------7------------|---------------------------|
  A|---------------------------|---------------------------|
  E|---------------------------|---------------------------|

    Am                          D
  e|0----- 0----- 0----- 0---0-|2----- 2----- 2----- 2-----|
  B|1------1------1------1---1-|3------3------3------3-----|
  G|2------2------2------2---2-|2------2------2------2-----|
  D|2------2------2------2---2-|0------0------0------0-----|
  A|0------0------0------0---0-|---------------------------|
  E|---------------------------|---------------------------|
                                       another           girl
  e|------ 5----- ------ 5-----|------ 5----- ------ 5-----|
  B|-------5-------------5-----|-------7-------------7-----|
  G|-------5-------------5-----|-------7-------------7-----|
  D|-------7-------------7-----|-------7-------------7-----|
  A|-------7-------------7-----|-------5-------------5-----|
  E|-------5-------------5-----|---------------------------|

  e|------ ------ ------ ------|------ ------ ------ ------|
  B|---------------------------|---------------------------|
  G|-------5B7R5------7--------|5--------------------------|
  D|--------------7------------|---------------------------|
  A|---------------------------|---------------------------|
  E|---------------------------|---------------------------|


    00:06
    Am                              G
  e|0----- 0----- 0---0- 0-----|----3- 3----- 3----- 3-----|
  B|1------1------1---1--1-----|----3--3------3------3-----|
  G|2------2------2---2--2-----|----0--0------0------0-----|
  D|2------2------2---2--2-----|----0--0------0------0-----|
  A|0------0------0---0--0-----|----2--2------2------2-----|
  E|---------------------------|----3--3------3------3-----|
           You're        me     say    that          got
               making                      I've
  e|------ 5----- ------ 5-----|------ 3----- ------ 3-----|
  B|-------5-------------5-----|-------3-------------3-----|
  G|-------5-------------5-----|-------4-------------4-----|
  D|-------7-------------7-----|-------5-------------5-----|
  A|-------7-------------7-----|-------5-------------5-----|
  E|-------5-------------5-----|-------3-------------3-----|

    Am                              D
  e|0----- 0----- 0---0- 0-----|----2- 2----- 2----- 2-----|
  B|1------1------1---1--1-----|----3--3------3------3-----|
  G|2------2------2---2--2-----|----2--2------2------2-----|
  D|2------2------2---2--2-----|----0--0------0------0-----|
  A|0------0------0---0--0-----|---------------------------|
  E|---------------------------|---------------------------|
           nobody        but    you
  e|------ 5----- ------ 5-----|------ 5----- ------ 5-----|
  B|-------5-------------5-----|-------7-------------7-----|
  G|-------5-------------5-----|-------7-------------7-----|
  D|-------7-------------7-----|-------7-------------7-----|
  A|-------7-------------7-----|-------5-------------5-----|
  E|-------5-------------5-----|---------------------------|


    00:11
    Am                              G
  e|0----- 0----- 0---0- 0-----|----3- 3----- 3----- 3---3-|
  B|1------1------1---1--1-----|----3--3------3------3---3-|
  G|2------2------2---2--2-----|----0--0------0------0---0-|
  D|2------2------2---2--2-----|----0--0------0------0---0-|
  A|0------0------0---0--0-----|----2--2------2------2---2-|
  E|---------------------------|----3--3------3------3---3-|
           But        from   today,    well,         got
               as                          I've
  e|------ 5----- ------ 5-----|------ 3----- ------ 3-----|
  B|-------5-------------5-----|-------3-------------3-----|
  G|-------5-------------5-----|-------4-------------4-----|
  D|-------7-------------7-----|-------5-------------5-----|
  A|-------7-------------7-----|-------5-------------5-----|
  E|-------5-------------5-----|-------3-------------3-----|

    Am                              D
  e|0----- 0----- 0---0- 0-----|----2- 2----- 2----- 2---2-|
  B|1------1------1---1--1-----|----3--3------3------3---3-|
  G|2------2------2---2--2-----|----2--2------2------2---2-|
  D|2------2------2---2--2-----|----0--0------0------0---0-|
  A|0------0------0---0--0-----|---------------------------|
  E|---------------------------|---------------------------|
           somebody      that's new
  e|------ 5----- ------ 5-----|------ 5----- ------ 5-----|
  B|-------5-------------5-----|-------7-------------7-----|
  G|-------5-------------5-----|-------7-------------7-----|
  D|-------7-------------7-----|-------7-------------7-----|
  A|-------7-------------7-----|-------5-------------5-----|
  E|-------5-------------5-----|---------------------------|


    00:17

  e|2----- 2---2- 2---2- 2---2-|2----- 2----- 2---2- 2-----|
  B|3------3---3--3---3--3---3-|3------3------3---3--3-----|
  G|2------2---2--2---2--2---2-|2------2------2---2--2-----|
  D|0------0---0--0---0--0---0-|0------0------0---0--0-----|
  A|---------------------------|---------------------------|
  E|---------------------------|---------------------------|
           I   ain't  no     fool      and I         don't
  e|------ 5----- ------ 5-----|------ 5----- ------ 5-----|
  B|-------7-------------7-----|-------7-------------7-----|
  G|-------7-------------7-----|-------7-------------7-----|
  D|-------7-------------7-----|-------7-------------7-----|
  A|-------5-------------5-----|-------5-------------5-----|
  E|---------------------------|---------------------------|

                                E                        Am
  e|2----- 2----- 2---2- 2-----|0----- ------ ------ ----0-|
  B|3------3------3---3--3-----|0------------------------1-|
  G|2------2------2---2--2-----|1------------------------2-|
  D|0------0------0---0--0-----|2------------------------2-|
  A|---------------------------|2------------------------0-|
  E|---------------------------|0--------------------------|
    take   what          don't  want   for    I   have   got
               I
  e|------ 5----- ------ 5-----|------ ------ ------ ------|
  B|-------7-------------7-----|---------------------------|
  G|-------7-------------7-----|---------------------------|
  D|-------7-------------7-----|---------------------------|
  A|-------5------5------5-----|---------------------------|
  E|---------------------------|---------------------------|


    00:22
                                    D
  e|0----- 0----- 0---0- 0-----|----2- 2----- 2---2- 2-----|
  B|1------1------1---1--1-----|----3--3------3---3--3-----|
  G|2------2------2---2--2-----|----2--2------2---2--2-----|
  D|2------2------2---2--2-----|----0--0------0---0--0-----|
  A|0------0------0---0--0-----|---------------------------|
  E|---------------------------|---------------------------|
                                       another           girl
  e|------ 5----- ------ 5-----|------ 5----- ------ 5-----|
  B|-------5-------------5-----|-------7-------------7-----|
  G|-------5-------------5-----|-------7-------------7-----|
  D|-------7-------------7-----|-------7-------------7-----|
  A|-------7-------------7-----|-------5-------------5-----|
  E|-------5-------------5-----|---------------------------|

  e|------ 5----- ------ ------|------ ------ ------ ------|
  B|-----------7B87------------|---------------------------|
  G|7B9--------------7B8R7-----|5--------------------------|
  D|---------------------------|---------------------------|
  A|---------------------------|---------------------------|
  E|---------------------------|---------------------------|

    Am                          D
  e|0----- 0----- 0---0- 0-----|2----- 2----- 2---2- 2-----|
  B|1------1------1---1--1-----|3------3------3---3--3-----|
  G|2------2------2---2--2-----|2------2------2---2--2-----|
  D|2------2------2---2--2-----|0------0------0---0--0-----|
  A|0------0------0---0--0-----|---------------------------|
  E|---------------------------|---------------------------|
                                       another           girl
  e|------ 5----- ------ 5-----|------ 5----- ------ 5-----|
  B|-------5-------------5-----|-------7-------------7-----|
  G|-------5-------------5-----|-------7-------------7-----|
  D|-------7-------------7-----|-------7-------------7-----|
  A|-------7-------------7-----|-------5-------------5-----|
  E|-------5-------------5-----|---------------------------|

  e|----5- 5----- ------ ------|------ ------ ------ ------|
  B|---------------------------|---------------------------|
  G|------------------7--7B8R7-|5--------------------------|
  D|---------------------------|---------------------------|
  A|---------------------------|---------------------------|
  E|---------------------------|---------------------------|


    00:27
    Am                          G
  e|0----- 0----- 0---0- 0-----|3----- 3----- 3---3- 3-----|
  B|1------1------1---1--1-----|3------3------3---3--3-----|
  G|2------2------2---2--2-----|0------0------0---0--0-----|
  D|2------2------2---2--2-----|0------0------0---0--0-----|
  A|0------0------0---0--0-----|2------2------2---2--2-----|
  E|---------------------------|3------3------3---3--3-----|
           She's  sweeter    all       the girls     and
                         than
  e|------ 5----- ------ 5-----|------ 3----- ------ 3-----|
  B|-------5-------------5-----|-------3-------------3-----|
  G|-------5-------------5-----|-------4-------------4-----|
  D|-------7-------------7-----|-------5-------------5-----|
  A|-------7-------------7-----|-------5-------------5-----|
  E|-------5-------------5-----|-------3-------------3-----|

    Am                              D
  e|0----- 0----- 0---0- 0-----|----2- 2----- 2----- 2-----|
  B|1------1------1---1--1-----|----3--3------3------3-----|
  G|2------2------2---2--2-----|----2--2------2------2-----|
  D|2------2------2---2--2-----|----0--0------0------0-----|
  A|0------0------0---0--0-----|---------------------------|
  E|---------------------------|---------------------------|
           I   met    quite  few
                       a
  e|------ 5----- ------ 5-----|------ 5----- ------ 5-----|
  B|-------5-------------5-----|-------7-------------7-----|
  G|-------5-------------5-----|-------7-------------7-----|
  D|-------7-------------7-----|-------7-------------7-----|
  A|-------7-------------7-----|-------5-------------5-----|
  E|-------5-------------5-----|---------------------------|

  e|------ ------ ------ ------|------ ------ ------ ------|
  B|---------------------------|--------------7B8R7--------|
  G|---------------------------|---------------------7B8R7-|
  D|---------------------------|---------------------------|
  A|---------------------------|---------------------------|
  E|---------------------------|---------------------------|


    00:33
    Am                              G
  e|0----- 0---0- ----0- 0-----|----3- 3----- 3----- 3---3-|
  B|1------1---1------1--1-----|----3--3------3------3---3-|
  G|2------2---2------2--2-----|----0--0------0------0---0-|
  D|2------2---2------2--2-----|----0--0------0------0---0-|
  A|0------0---0------0--0-----|----2--2------2------2---2-|
  E|---------------------------|----3--3------3------3---3-|
           nobody        in  all       the world     can
  e|------ 5----- ------ 5-----|------ 5----- ------ 5-----|
  B|-------5-------------5-----|-------3-------------3-----|
  G|-------5-------------5-----|-------4-------------4-----|
  D|-------7-------------7-----|-------5-------------5-----|
  A|-------7-------------7-----|-------5-------------5-----|
  E|-------5-------------5-----|-------3-------------3-----|

  e|------ ------ ------ ------|------ ------ ------ ------|
  B|---------------------------|---------------------------|
  G|5B6R5----------------------|---------------------------|
  D|---------------------------|---------------------------|
  A|---------------------------|---------------------------|
  E|---------------------------|---------------------------|

    Am                              D
  e|0----- 0----- 0----- 0-----|----2- 2----- 2----- 2-----|
  B|1------1------1------1-----|----3--3------3------3-----|
  G|2------2------2------2-----|----2--2------2------2-----|
  D|2------2------2------2-----|----0--0------0------0-----|
  A|0------0------0------0-----|---------------------------|
  E|---------------------------|---------------------------|
           do  what   she       do
                         can
  e|------ 5----- ------ 5-----|------ 5----- ------ 5-----|
  B|-------5-------------5-----|-------7-------------7-----|
  G|-------5-------------5-----|-------7-------------7-----|
  D|-------7-------------7-----|-------7-------------7-----|
  A|-------7-------------7-----|-------5-------------5-----|
  E|-------5-------------5-----|---------------------------|

  e|------ ------ ------ ------|------ ------ ------ ------|
  B|---------------------------|--------------7B8R7--------|
  G|7--------------------------|---------------------7B8R7-|
  D|---------------------------|---------------------------|
  A|---------------------------|---------------------------|
  E|---------------------------|---------------------------|


    00:38

  e|2----- 2----- 2---2- 2-----|2----- 2----- 2---2- 2-----|
  B|3------3------3---3--3-----|3------3------3---3--3-----|
  G|2------2------2---2--2-----|2------2------2---2--2-----|
  D|0------0------0---0--0-----|0------0------0---0--0-----|
  A|---------------------------|---------------------------|
  E|---------------------------|---------------------------|
           And    so     I'm    telling    you       this
  e|------ 5----- ------ 5-----|------ 5----- ------ 5-----|
  B|-------7-------------7-----|-------7-------------7-----|
  G|-------7-------------7-----|-------7-------------7-----|
  D|-------7-------------7-----|-------7-------------7-----|
  A|-------5-------------5-----|-------5-------------5-----|
  E|---------------------------|---------------------------|

  e|------ ------ ------ ------|------ ------ ------ ------|
  B|---------------------------|---------------------------|
  G|5--------------------------|---------------------------|
  D|---------------------------|---------------------------|
  A|---------------------------|---------------------------|
  E|---------------------------|---------------------------|

                                E
  e|2----- 2----- 2---2- 2-----|0----- ------ ------ ------|
  B|3------3------3---3--3-----|0--------------------------|
  G|2------2------2---2--2-----|1--------------------------|
  D|0------0------0---0--0-----|2--------------------------|
  A|---------------------------|2--------------------------|
  E|---------------------------|0--------------------------|
    time   you'd  better     stop      for    I   have   got
  e|------ 5----- ------ 5-----|------ ------ ------ ------|
  B|-------7-------------7-----|---------------------------|
  G|-------7-------------7-----|---------------------------|
  D|-------7-------------7-----|---------------------------|
  A|-------5-------------5-----|---------------------------|
  E|---------------------------|---------------------------|


    00:43
    Am                          D
  e|0----- 0----- 0---0- 0-----|2----- 2----- 2---2- 2-----|
  B|1------1------1---1--1-----|3------3------3---3--3-----|
  G|2------2------2---2--2-----|2------2------2---2--2-----|
  D|2------2------2---2--2-----|0------0------0---0--0-----|
  A|0------0------0---0--0-----|---------------------------|
  E|---------------------------|---------------------------|
                                       another           girl
  e|------ 5----- ------ 5-----|------ 5----- ------ 5-----|
  B|-------5-------------5-----|-------7-------------7-----|
  G|-------5-------------5-----|-------7-------------7-----|
  D|-------7-------------7-----|-------7-------------7-----|
  A|-------7-------------7-----|-------5-------------5-----|
  E|-------5-------------5-----|---------------------------|

  e|------ ------ ------ ------|------ ------ ------ ------|
  B|-------5B7R5-----7B8R7-----|5------5B6-----------------|
  G|7-------------7------------|--------------7------------|
  D|---------------------------|---------------------------|
  A|---------------------------|---------------------------|
  E|---------------------------|---------------------------|

    Am                          D
  e|0----- 0----- 0---0- 0-----|2----- 2----- 2---2- 2-----|
  B|1------1------1---1--1-----|3------3------3---3--3-----|
  G|2------2------2---2--2-----|2------2------2---2--2-----|
  D|2------2------2---2--2-----|0------0------0---0--0-----|
  A|0------0------0---0--0-----|---------------------------|
  E|---------------------------|---------------------------|
                                       another           girl
  e|------ 5----- ------ 5-----|------ 5----- ------ 5-----|
  B|-------5-------------5-----|-------7-------------7-----|
  G|-------5-------------5-----|-------7-------------7-----|
  D|-------7-------------7-----|-------7-------------7-----|
  A|-------7-------------7-----|-------5-------------5-----|
  E|-------5-------------5-----|---------------------------|

  e|------ 5----- ------ ------|------ ------ ------ ------|
  B|--------------7B8R7--------|---------------------------|
  G|---------------------7B8R7-|5B6------------------------|
  D|---------------------------|-------7-------------------|
  A|---------------------------|---------------------------|
  E|---------------------------|---------------------------|


    00:49
    C                        G
  e|0----- 0----- 0---0- 0---3-|3----- 3----- 3---3- 3-----|
  B|1------1------1---1--1---3-|3------3------3---3--3-----|
  G|0------0------0---0--0---0-|0------0------0---0--0-----|
  D|2------2------2---2--2---0-|0------0------0---0--0-----|
  A|3------3------3---3--3---2-|2------2------2---2--2-----|
  E|3------3------3---3--3---3-|3------3------3---3--3-----|
                  who will      love   me     till       end
                                                  the
  e|------ 5----- ----5- ------|------ 3----- ----3- ------|
  B|-------5----------5--------|-------3----------3--------|
  G|-------5----------5--------|-------4----------4--------|
  D|-------5----------5--------|-------5----------5--------|
  A|-------3----------3--------|-------5----------4--------|
  E|---------------------------|-------3----------3--------|

    C                           G
  e|0----- 0----- 0---0- 0---0-|3----- 3----- 3---3- 3---3-|
  B|1------1------1---1--1---1-|3------3------3---3--3---3-|
  G|0------0------0---0--0---0-|0------0------0---0--0---0-|
  D|2------2------2---2--2---2-|0------0------0---0--0---0-|
  A|3------3------3---3--3---3-|2------2------2---2--2---2-|
  E|3------3------3---3--3---4-|3------3------3---3--3---3-|
                                       through    and
                                              thick
  e|------ 5----- ----5- ------|------ 3----- ----3- ------|
  B|-------5----------5--------|-------3----------3--------|
  G|-------5----------5--------|-------4----------4--------|
  D|-------5----------5--------|-------5----------5--------|
  A|-------3----------3--------|-------5----------5--------|
  E|---------------------------|-------3----------3--------|


    00:54
    C                           E
  e|0----- 0----- ------ ----0-|0----- 0---0- 0----- 0-----|
  B|1------1-----------------1-|0------0---0--0------0-----|
  G|0------0-----------------0-|1------1---1--1------1-----|
  D|2------2-----------------2-|2------2---2--2------2-----|
  A|3------3-----------------3-|2------2---2--2------2-----|
  E|3------3-----------------3-|0------0---0--0------0-----|
    thin          she will   always           be  my     friend
  e|------ 5----- ----5- ------|------ 0----- ----0- ------|
  B|-------5----------5--------|-------0----------0--------|
  G|-------5----------5--------|-------1----------1--------|
  D|-------5----------5--------|-------2----------2--------|
  A|-------3----------3--------|-------2----------2--------|
  E|---------------------------|-------0----------0--------|

    A                           E
  e|0----- 0---0- 0---0- 0-----|0----- 0----- 0---0- 0-----|
  B|2------2---2--2---2--2-----|0------0------0---0--0-----|
  G|2------2---2--2---2--2-----|1------1------1---1--1-----|
  D|2------2---2--2---2--2-----|2------2------2---2--2-----|
  A|0------0---0--0---0--0-----|2------2------2---2--2-----|
  E|---------------------------|0------0------0---0--0-----|

  e|------ 5----- ----5- ------|------ 0----- ------ 0-----|
  B|-------5----------5--------|-------0-------------0-----|
  G|-------6----------6--------|-------1-------------1-----|
  D|-------7----------7--------|-------2-------------2-----|
  A|-------7----------7--------|-------2-------------2-----|
  E|-------5----------5--------|-------0-------------0-----|

  e|------ ------ ------ ------|------ ------ ------ ------|
  B|15B17----------------------|15B17--15B17--17R15--13B14-|
  G|---------------------------|---------------------------|
  D|---------------------------|---------------------------|
  A|---------------------------|---------------------------|
  E|---------------------------|---------------------------|


    01:00
    Am                              G
  e|0----- 0----- 0---0- 0-----|----3- 3----- 3----- 3---3-|
  B|1------1------1---1--1-----|----3--3------3------3---3-|
  G|2------2------2---2--2-----|----0--0------0------0---0-|
  D|2------2------2---2--2-----|----0--0------0------0---0-|
  A|0------0------0---0--0-----|----2--2------2------2---2-|
  E|---------------------------|----3--3------3------3---3-|
           I   don't  wanna     say    that          been
                                           I've
  e|------ 5----- ------ 5-----|------ 3----- ------ 3-----|
  B|-------5-------------5-----|-------3-------------3-----|
  G|-------5-------------5-----|-------4-------------4-----|
  D|-------7-------------7-----|-------5-------------5-----|
  A|-------7-------------7-----|-------5-------------5-----|
  E|-------5-------------5-----|-------3-------------3-----|

  e|------ ------ ------ ------|------ ------ ------ ------|
  B|---------------------------|---------------------------|
  G|14-------------------------|---------------------------|
  D|---------------------------|---------------------------|
  A|---------------------------|---------------------------|
  E|---------------------------|---------------------------|

    Am                              D
  e|0----- 0----- 0---0- 0-----|----2- 2----- 2----- 2-----|
  B|1------1------1---1--2-----|----3--3------3------3-----|
  G|2------2------2---2--2-----|----2--2------2------2-----|
  D|2------2------2---2--2-----|----0--0------0------0-----|
  A|0------0------0---0--0-----|---------------------------|
  E|---------------------------|---------------------------|
           unhappy       with   you
  e|------ 5----- ------ 5-----|------ 5----- ------ 5-----|
  B|-------5-------------5-----|-------7-------------7-----|
  G|-------5-------------5-----|-------7-------------7-----|
  D|-------7-------------7-----|-------7-------------7-----|
  A|-------7-------------7-----|-------5-------------5-----|
  E|-------5-------------5-----|---------------------------|

  e|------ ------ ------ ------|------ ------ ------ ------|
  B|---------------------------|--------------15B16R1513B14|
  G|---------------------------|---------------------------|
  D|---------------------------|---------------------------|
  A|---------------------------|---------------------------|
  E|---------------------------|---------------------------|


    01:05
    Am                              G
  e|0----- 0----- ----0- 0-----|----3- 3----- 3---3- 3-----|
  B|1------1----------1--1-----|----3--3------3---3--3-----|
  G|2------2----------2--2-----|----0--0------0---0--0-----|
  D|2------2----------2--2-----|----0--0------0---0--0-----|
  A|0------0----------0--0-----|----2--2------2---2--2-----|
  E|---------------------------|----3--3------3---3--3-----|
           But as     from   today,    well,         seen
                                           I've
  e|------ 5----- ------ 5-----|------ 5----- ------ 5-----|
  B|-------5-------------5-----|-------3-------------3-----|
  G|-------5-------------5-----|-------4-------------4-----|
  D|-------7-------------7-----|-------5-------------5-----|
  A|-------7-------------7-----|-------5-------------5-----|
  E|-------5-------------5-----|-------3-------------3-----|

  e|------ ------ ------ ------|------ ------ ------ ------|
  B|---------------------------|---------------------------|
  G|14-------------------------|---------------------------|
  D|---------------------------|---------------------------|
  A|---------------------------|---------------------------|
  E|---------------------------|---------------------------|

    Am                          D
  e|0----- 0---0- 0----- 0-----|2----- 2----- 2----- 2-----|
  B|1------1---1--1------1-----|3------3------3------3-----|
  G|2------2---2--2------2-----|2------2------2------2-----|
  D|2------2---2--2------2-----|0------0------0------0-----|
  A|0------0---0--0------0-----|---------------------------|
  E|---------------------------|---------------------------|
           somebody      that's new
  e|------ 5----- ------ 5-----|------ 5----- ------ 5-----|
  B|-------5-------------5-----|-------7-------------7-----|
  G|-------5-------------5-----|-------7-------------7-----|
  D|-------7-------------7-----|-------7-------------7-----|
  A|-------7-------------7-----|-------5-------------5-----|
  E|-------5-------------5-----|---------------------------|


    01:11

  e|2----- 2----- 2---2- 2-----|2----- 2----- 2---2- 2-----|
  B|3------3------3---3--3-----|3------3------3---3--3-----|
  G|2------2------2---2--2-----|2------2------2---2--2-----|
  D|0------0------0---0--0-----|0------0------0---0--0-----|
  A|---------------------------|---------------------------|
  E|---------------------------|---------------------------|
           I   ain't     no     fool   and I         don't
  e|------ 5----- ------ 5-----|------ 5----- ------ 5-----|
  B|-------7-------------7-----|-------7-------------7-----|
  G|-------7-------------7-----|-------7-------------7-----|
  D|-------7-------------7-----|-------7-------------7-----|
  A|-------5-------------5-----|-------5-------------5-----|
  E|---------------------------|---------------------------|

                                E                        A
  e|2----- 2----- 2---2- 2-----|0----- ------ ------ ----0-|
  B|3------3------3---3--3-----|0------------------------1-|
  G|2------2------2---2--2-----|1------------------------2-|
  D|0------0------0---0--0-----|2------------------------2-|
  A|---------------------------|2------------------------0-|
  E|---------------------------|0--------------------------|
    take   what I        don't  want   for    I   have   got
  e|------ 5----- ------ 5-----|------ ------ ------ ------|
  B|-------7-------------7-----|---------------------------|
  G|-------7-------------7-----|---------------------------|
  D|-------7-------------7-----|---------------------------|
  A|-------5-------------5-----|---------------------------|
  E|---------------------------|---------------------------|


    01:16
                                D
  e|0----- 0----- 0---0- 0-----|2----- 2----- 2---2- 2-----|
  B|1------1------1---1--1-----|3------3------3---3--3-----|
  G|2------2------2---2--2-----|2------2------2---2--2-----|
  D|2------2------2---2--2-----|0------0------0---0--0-----|
  A|0------0------0---0--0-----|---------------------------|
  E|---------------------------|---------------------------|
                                       another           girl
  e|------ ------ ------ ------|------ ------ ------ ------|
  B|---7B8R7------7B8R7-----7B8R7--------------------------|
  G|---7B8R7------7B8R7-----7B8R7------5B6R5------5--------|
  D|---------------------------|--------------7------7-----|
  A|---------------------------|---------------------------|
  E|---------------------------|---------------------------|

    Am                          D
  e|0----- 0----- 0---0- 0-----|2----- 2----- 2----- 2-----|
  B|1------1------1---1--1-----|3------3------3------3-----|
  G|2------2------2---2--2-----|2------2------2------2-----|
  D|2------2------2---2--2-----|0------0------0------0-----|
  A|0------0------0---0--0-----|---------------------------|
  E|---------------------------|---------------------------|
                                       another           girl
  e|------ ------ ------ ------|------ ------ ------ ------|
  B|---7B9R7------7B9R7-----7B9R7--------------------------|
  G|---7B9R7------7B9R7-----7B9R7------5B6R5------5--------|
  D|---------------------------|--------------7------7-----|
  A|---------------------------|---------------------------|
  E|---------------------------|---------------------------|


    01:21
    C                        G
  e|0----- 0----- 0----- ----3-|3----- 3----- 3---3- 3-----|
  B|1------1------1----------3-|3------3------3---3--3-----|
  G|0------0------0----------0-|0------0------0---0--0-----|
  D|2------2------2----------0-|0------0------0---0--0-----|
  A|3------3------3----------2-|2------2------2---2--2-----|
  E|3------3------3----------3-|3------3------3---3--3-----|
                  who will      love   me     till
                                                  the
  e|------ 5----- ----5- ------|------ 3----- ----3- ------|
  B|-------5----------5--------|-------3----------3--------|
  G|-------5----------5--------|-------4----------4--------|
  D|-------5----------5--------|-------5----------5--------|
  A|-------3----------3--------|-------5----------5--------|
  E|---------------------------|-------3----------3--------|

    C                           G
  e|0----- 0----- 0---0- 0---0-|3----- 3----- 3----- 3---3-|
  B|1------1------1---1--1---1-|3------3------3------3---3-|
  G|0------0------0---0--0---0-|0------0------0------0---0-|
  D|2------2------2---2--2---2-|0------0------0------0---0-|
  A|3------3------3---3--3---3-|2------2------2------2---2-|
  E|3------3------3---3--3---4-|3------3------3------3---3-|
    end                                through    and
                                              thick
  e|------ 5----- ----5- ------|------ 3----- ----3- ------|
  B|-------5----------5--------|-------3----------3--------|
  G|-------5----------5--------|-------4----------4--------|
  D|-------5----------5--------|-------5----------5--------|
  A|-------3----------3--------|-------5----------5--------|
  E|---------------------------|-------3----------3--------|


    01:27
    C                           E
  e|0----- 0----- ------ ----0-|0----- 0----- 0---0- 0-----|
  B|1------1-----------------1-|0------0------0---0--0-----|
  G|0------0-----------------0-|1------1------1---1--1-----|
  D|2------2-----------------2-|2------2------2---2--2-----|
  A|3------3-----------------3-|2------2------2---2--2-----|
  E|3------3-----------------3-|0------0------0---0--0-----|
    thin          she will   always           be  my     friend
  e|------ 5----- ----5- ------|------ 0----- ------ ------|
  B|-------5----------5--------|-------0-------------------|
  G|-------5----------5--------|-------1-------------------|
  D|-------5----------5--------|-------2-------------------|
  A|-------3----------3--------|-------2-------------------|
  E|---------------------------|-------0-------------------|

    A                           E
  e|0----- 0----- 0----- 0-----|0----- 0----- 0----- 0-----|
  B|2------2------2------2-----|0------0------0------0-----|
  G|2------2------2------2-----|1------1------1------1-----|
  D|2------2------2------2-----|2------2------2------2-----|
  A|0------0------0------0-----|2------2------2------2-----|
  E|---------------------------|0------0------0------0-----|

  e|------ 5----- ----5- ------|------ 0----- ------ 0-----|
  B|-------5----------5--------|-------5-------------5-----|
  G|-------6----------6--------|-------7-------------7-----|
  D|-------7----------7--------|-------6-------------6-----|
  A|-------7----------7--------|-------7-------------7-----|
  E|-------5----------5--------|---------------------------|

  e|------ ------ ------ ------|------ ------ ------ ------|
  B|---------------------------|15B17-17-17---17R15--13B14-|
  G|---------------------------|---------------------------|
  D|---------------------------|---------------------------|
  A|---------------------------|---------------------------|
  E|---------------------------|---------------------------|


    01:33
    Am                              G
  e|0----- 0----- 0----- 0-----|----3- 3----- 3----- 3-----|
  B|1------1------1------1-----|----3--3------3------3-----|
  G|2------2------2------2-----|----0--0------0------0-----|
  D|2------2------2------2-----|----0--0------0------0-----|
  A|0------0------0------0-----|----2--2------2------2-----|
  E|---------------------------|----3--3------3------3-----|
           I   don't  wanna     say    that          been
                                           I've
  e|------ 5----- ------ 5-----|------ 3----- ------ 3-----|
  B|-------5-------------5-----|-------3-------------3-----|
  G|-------5-------------5-----|-------4-------------4-----|
  D|-------7-------------7-----|-------5-------------5-----|
  A|-------7-------------7-----|-------5-------------5-----|
  E|-------5-------------5-----|-------3-------------3-----|

  e|------ ------ ------ ------|------ ------ ------ ------|
  B|---------------------------|---------------------------|
  G|14-------------------------|---------------------------|
  D|---------------------------|---------------------------|
  A|---------------------------|---------------------------|
  E|---------------------------|---------------------------|

    Am                              D
  e|0----- 0----- 0---0- 0-----|----2- 2----- 2---2- 2---2-|
  B|1------1------1---1--1-----|----3--3------3---3--3---3-|
  G|2------2------2---2--2-----|----2--2------2---2--2---2-|
  D|2------2------2---2--2-----|----0--0------0---0--0---0-|
  A|0------0------0---0--0-----|---------------------------|
  E|---------------------------|---------------------------|
           unhappy       with   you
  e|------ 5----- ------ 5-----|------ 5----- ------ 5-----|
  B|-------5-------------5-----|-------7-------------7-----|
  G|-------5-------------5-----|-------7-------------7-----|
  D|-------7-------------7-----|-------7-------------7-----|
  A|-------7-------------7-----|-------5-------------5-----|
  E|-------5-------------5-----|---------------------------|


    01:38
    Am                          G
  e|0----- 0----- 0---0- 0-----|3---3- 3----- 3----- 3---3-|
  B|1------1------1---1--1-----|3---3--3------3------3---3-|
  G|2------2------2---2--2-----|0---0--0------0------0---0-|
  D|2------2------2---2--2-----|0---0--0------0------0---0-|
  A|0------0------0---0--0-----|2---2--2------2------2---2-|
  E|---------------------------|3---3--3------3------3---3-|
           But as     from   today,    well,         seen
                                           I've
  e|------ 5----- ------ 5-----|------ 3----- ------ 3-----|
  B|-------5-------------5-----|-------3-------------3-----|
  G|-------5-------------5-----|-------4-------------4-----|
  D|-------7-------------7-----|-------5-------------5-----|
  A|-------7-------------7-----|-------5-------------5-----|
  E|-------5-------------5-----|-------3-------------3-----|

    Am                          D
  e|0----- 0----- 0---0- 0-----|2----- 2----- 2---2- 2-----|
  B|1------1------1---1--1-----|3------3------3---3--3-----|
  G|2------2------2---2--2-----|2------2------2---2--2-----|
  D|2------2------2---2--2-----|0------0------0---0--0-----|
  A|0------0------0---0--0-----|---------------------------|
  E|---------------------------|---------------------------|
           somebody      that's new
  e|------ 5----- ------ 5-----|------ 5----- ------ 5-----|
  B|-------5-------------5-----|-------7-------------7-----|
  G|-------5-------------5-----|-------7-------------7-----|
  D|-------7-------------7-----|-------7-------------7-----|
  A|-------7-------------7-----|-------5-------------5-----|
  E|-------5-------------5-----|---------------------------|
                                              .   .  .   .
  e|------ ------ ------ ------|------ ------ ------ ------|
  B|---------------------------|--------------7-B-8-R7-B-8---|R
  G|---------------------------|-----------------------------|
  D|---------------------------|-----------------------------|
  A|---------------------------|-----------------------------|
  E|---------------------------|-----------------------------|


    01:43

  e|2----- 2----- 2---2- 2-----|2----- 2----- 2---2- 2-----|
  B|3------3------3---3--3-----|3------3------3---3--3-----|
  G|2------2------2---2--2-----|2------2------2---2--2-----|
  D|0------0------0---0--0-----|0------0------0---0--0-----|
  A|---------------------------|---------------------------|
  E|---------------------------|---------------------------|
           I   ain't     no     fool   and I         don't
  e|------ 5----- ------ 5-----|------ 5----- ------ 5-----|
  B|-------7-------------7-----|-------7-------------7-----|
  G|-------7-------------7-----|-------7-------------7-----|
  D|-------7-------------7-----|-------7-------------7-----|
  A|-------5-------------5-----|-------5-------------5-----|
  E|---------------------------|---------------------------|
    .
  e|------ ------ ------ ------|------ ------ ------ ------|
  B|7--------------------------|---------------------------|
  G|---------------------------|---------------------------|
  D|---------------------------|---------------------------|
  A|---------------------------|---------------------------|
  E|---------------------------|---------------------------|

                                E                        Am
  e|2----- 2----- 2---2- 2-----|0----- ------ ------ ----0-|
  B|3------3------3---3--3-----|0------------------------1-|
  G|2------2------2---2--2-----|1------------------------2-|
  D|0------0------0---0--0-----|2------------------------2-|
  A|---------------------------|2------------------------0-|
  E|---------------------------|0--------------------------|
    take   what I        don't  want   for    I   have   got
  e|------ 5----- ------ 5-----|------ ------ ------ ------|
  B|-------7-------------7-----|---------------------------|
  G|-------7-------------7-----|---------------------------|
  D|-------7-------------7-----|---------------------------|
  A|-------5-------------5-----|---------------------------|
  E|---------------------------|---------------------------|

  e|------ ------ ------ ------|------ ------ ------ ------|
  B|---B8-R7-B-8---------7-----|---------------------------|
  G|---------------------------|---------------------------|
  D|---------------------------|---------------------------|
  A|---------------------------|---------------------------|
  E|---------------------------|---------------------------|


    01:49
                                D
  e|0----- 0----- 0----- 0-----|2----- 2----- 2---2- 2-----|
  B|1------1------1------1-----|3------3------3---3--3-----|
  G|2------2------2------2-----|2------2------2---2--2-----|
  D|2------2------2------2-----|0------0------0---0--0-----|
  A|0------0------0------0-----|---------------------------|
  E|---------------------------|---------------------------|
                                       another           girl
  e|0----- 0----- 0----- 0-----|2----- 2----- 2----- 2-----|
  B|1------1------1------1-----|3------3------3------3-----|
  G|2------2------2------2-----|2------2------2------2-----|
  D|2------2------2------2-----|0------0------0------0-----|
  A|0------0------0------0-----|---------------------------|
  E|---------------------------|---------------------------|

  e|------ ------ ------ ------|------ ------ ------ ------|
  B|-------5B6R5------5--------|5------5B6--------5--------|
  G|--------------7----------5-|--------------7------7-----|
  D|---------------------------|---------------------------|
  A|---------------------------|---------------------------|
  E|---------------------------|---------------------------|

    Am                          D
  e|0----- 0----- 0---0- 0-----|2----- 2----- 2---2- 2-----|
  B|1------1------1---1--1-----|3------3------3---3--3-----|
  G|2------2------2---2--2-----|2------2------2---2--2-----|
  D|2------2------2---2--2-----|0------0------0---0--0-----|
  A|0------0------0---0--0-----|---------------------------|
  E|---------------------------|---------------------------|
                                       another           girl
  e|0----- 0----- 0----- 0-----|2----- 2----- 2----- 2-----|
  B|1------1------1------1-----|3------3------3------3-----|
  G|2------2------2------2-----|2------2------2------2-----|
  D|2------2------2------2-----|0------0------0------0-----|
  A|0------0------0------0-----|---------------------------|
  E|---------------------------|---------------------------|

  e|------ ------ ------ ------|------ ------ ------ ------|
  B|-------5-------------------|5------5B6-----------------|
  G|--------------7----------5-|--------------7---7--7-----|
  D|---------------------------|---------------------------|
  A|---------------------------|---------------------------|
  E|---------------------------|---------------------------|


    01:55
    Am                          D
  e|0----- 0----- 0----- 0-----|2----- 2----- 2---2- 2-----|
  B|1------1------1------1-----|3------3------3---3--3-----|
  G|2------2------2------2-----|2------2------2---2--2-----|
  D|2------2------2------2-----|0------0------0---0--0-----|
  A|0------0------0------0-----|---------------------------|
  E|---------------------------|---------------------------|
                                       another           girl
  e|0----- 0----- 0----- 0-----|2----- 2----- 2----- 2-----|
  B|1------1------1------1-----|3------3------3------3-----|
  G|2------2------2------2-----|2------2------2------2-----|
  D|2------2------2------2-----|0------0------0------0-----|
  A|0------0------0------0-----|---------------------------|
  E|---------------------------|---------------------------|

  e|------ ------ ------ ------|------ ------ ------ ------|
  B|-------5B7R5-----7B8R7-----|5------5B6-----------------|
  G|7--------------------------|--------------7------------|
  D|---------------------------|---------------------------|
  A|---------------------------|---------------------------|
  E|---------------------------|---------------------------|


    (.
    Am
  e|0------------------------------------------------------|
  B|1------------------------------------------------------|
  G|2------------------------------------------------------|
  D|2------------------------------------------------------|
  A|0------------------------------------------------------|
  E|-------------------------------------------------------|

  e|---------------------------------5---------------------|
  B|--5B6-----7B8--8B9---5B6------------7B8R7--------------|
  G|-------7------------------7---------------7B8R7--5B6---|
  D|-----------------------------------------------------7-|
  A|-------------------------------------------------------|
  E|-------------------------------------------------------|




        B  Bend
        R  Release
        /  Slide up
        \  Slide down
        H  Hammer-on
        P  Pull-off
        ~  Vibrato
        +  Harmonic
        x  Mute note
        .  Play note like a dot in standard notation
        ^  Ties two notes together
       (.  Pause


  ---------------------------------------------------------------------

  THE BEATLES - YOU'RE GOING TO LOSE THAT GIRL (Lennon/McCartney) From
                HELP album. Released on 6th August 1965.

  ---------------------------------------------------------------------

  Tabbed by:PJVillanueva

  You're going to lose that girl,
  You're going to lose that girl.
  If you don't take her out tonight,
  She's going to change her mind,
  And I will take her out tonight,
  And I will treat her kind.

  You're going to lose that girl,
  You're going to lose that girl.

  If you don't treat her right, my friend,
  You're going to find her gone,
  'cause I will treat her right, and then
  You'll be the lonely one.

  You're going to lose that girl,
  You're going to lose that girl.

  I'll make a point
  Of taking her away from you, yeah,
  The way you treat her what else can I do?

  You're going to lose that girl,
  You're going to lose that girl.

  I'll make a point
  Of taking her away from you, yeah,
  The way you treat her what else can I do?

  If you don't take her out tonight,
  She's going to change her mind,
  And I will take her out tonight,
  And I will treat her kind.

  You're going to lose that girl,
  You're going to lose that girl

e|------- ------- ------- -------|------- ------- ------- -------|
B|-------------------------------|-------------------------------|
G|-------------------------------|-------------------------------|
D|-------------------------------|-------------------------------|
A|-------------------------------|-------------------------------|
E|-------------------------------|-------------------------------|
                                                     You're going to

  E                               Dbm
e|0------ 0------ ----0-- ----0--|4------ ----4-- ----4-- ----4--|
B|0-------0-----------0-------0--|5-----------5-------5-------5--|
G|1-------1-----------1-------1--|6-----------6-------6-------6--|
D|2-------2-----------2-------2--|6-----------6-------6-------6--|
A|2-------2-----------2-------2--|4-----------4-------4-------4--|
E|0-------0-----------0-------0--|-------------------------------|
  lose that   girl,                                  You're going to
         (Yes,  yes you're going to lose that girl)


  F#m                             B7
e|2------ 2------ ----2-- ----2--|2------ 2------ 2------ 2---2--|
B|2-------2-----------2-------2--|0-------0-------0-------0---0--|
G|2-------2-----------2-------2--|2-------2-------2-------2---2--|
D|4-------4-----------4-------4--|1-------1-------1-------1---1--|
A|4-------4-----------4-------4--|2-------2-------2-------2---2--|
E|2-------2-----------2-------2--|-------------------------------|
  lose                    that    girl
         (Yes,  yes you're going to lose that girl)


  E                               Ab
e|0------ 0------ ----0-- ----0--|4------ 4---4-- 4---4-- 4------|
B|0-------0-----------0-------0--|4-------4---4---4---4---4------|
G|1-------1-----------1-------1--|5-------5---5---5---5---5------|
D|2-------2-----------2-------2--|6-------6---6---6---6---6------|
A|2-------2-----------2-------2--|6-------6---6---6---6---6------|
E|0-------0-----------0-------0--|4-------4---4---4---4---4------|
      If  you don't take her      out     tonight,    she's going to

  F#m                             B7
e|2------ 2------ ----2-- ----2--|2------ 2---2-- ----2-- ----2--|
B|2-------2-----------2-------2--|0-------0---0-------0-------0--|
G|2-------2-----------2-------2--|2-------2---2-------2-------2--|
D|4-------4-----------4-------4--|1-------1---1-------1-------1--|
A|4-------4-----------4-------4--|2-------2---2-------2-------2--|
E|2-------2-----------2-------2--|-------------------------------|
  change her mind.
         (She's   going   to      change her  mind)


  E                               Ab
e|0------ 0---0-- ----0-- ----0--|4------ 4------ 4---4-- 4---4--|
B|0-------0---0-------0-------0--|4-------4-------4---4---4---4--|
G|1-------1---1-------1-------1--|5-------5-------5---5---5---5--|
D|2-------2---2-------2-------2--|6-------6-------6---6---6---6--|
A|2-------2---2-------2-------2--|6-------6-------6---6---6---6--|
E|0-------0---0-------0-------0--|4-------4-------4---4---4---4--|
      And I will  take her        out     tonight     and I   will

  F#m                         B7
e|2------ 2---2-- ----2-- ----2--|2------ 2------ ----2-- ----2--|
B|2-------2---2-------2-------0--|0-------0-----------0-------0--|
G|2-------2---2-------2-------2--|2-------2-----------2-------2--|
D|4-------4---4-------4-------1--|1-------1-----------1-------1--|
A|4-------4---4-------4-------2--|2-------2-----------2-------2--|
E|2-------2---2-------2----------|-------------------------------|
  treat her   kind.                                 You're going to
         (I'm     going   to      treat her   kind)


  E                               Dbm
e|0------ ----0-- ----0-- -------|4------ 4---4-- ----4-- -------|
B|0-----------0-------0----------|5-------5---5-------5----------|
G|1-----------1-------1----------|6-------6---6-------6----------|
D|2-----------2-------2----------|6-------6---6-------6----------|
A|2-----------2-------2----------|4-------4---4-------4----------|
E|0-----------0-------0----------|-------------------------------|
  lose that   girl,                                  You're going to
         (Yes,  yes you're going to lose that girl)


  F#m                             B7
e|2------ ----2-- ----2-- 2------|2------ 2---2-- ----2-- 2---0--|
B|2-----------2-------2---2------|0-------0---0-------0---0---0--|
G|2-----------2-------2---2------|2-------2---2-------2---2---0--|
D|4-----------4-------4---4------|1-------1---1-------1---1------|
A|4-----------4-------4---4------|2-------2---2-------2---2------|
E|2-----------2-------2---2------|-------------------------------|
  lose                    that    girl
          (Yes,  yes you're going to lose that girl)


  E                               Ab
e|0------ 0---0-- 0---0-- 0---0--|4------ 4------ 4---4-- 4---4--|
B|0-------0---0---0---0---0---0--|4-------4-------4---4---4---4--|
G|1-------1---1---1---1---1---1--|5-------5-------5---5---5---5--|
D|2-------2---2---2---2---2---2--|6-------6-------6---6---6---6--|
A|2-------2---2---2---2---2---2--|6-------6-------6---6---6---6--|
E|0-------0---0---0---0---0---2--|4-------4-------4---4---4---4--|
      If  you don't treat her     right, my   friend, you're going to

  F#m                         B7
e|2------ 2---2-- ----2-- ----2--|2------ 2---2-- ----2-- ----2--|
B|2-------2---2-------2-------0--|0-------0---0-------0-------0--|
G|2-------2---2-------2-------2--|2-------2---2-------2-------2--|
D|4-------4---4-------4-------1--|1-------1---1-------1-------1--|
A|4-------4---4-------4-------2--|2-------2---2-------2-------2--|
E|2-------2---2-------2----------|-------------------------------|
  find her    gone
         (You're  going   to      find her    gone)


  E                               Ab
e|0------ 0------ ----0-- -------|4------ 4---4-- 4---4-- 4------|
B|0-------0-----------0----------|4-------4---4---4---4---4------|
G|1-------1-----------1----------|5-------5---5---5---5---5------|
D|2-------2-----------2----------|6-------6---6---6---6---6------|
A|2-------2-----------2----------|6-------6---6---6---6---6------|
E|0-------0-----------0----------|4-------4---4---4---4---4------|
   'cause I will  treat her       right and   then    you'll be the

  F#m                             B7                          E
e|2------ 2---2-- ----2-- ----2--|2------ 2---2-- ----2-- ----0--|
B|2-------2---2-------2-------2--|0-------0---0-------0-------0--|
G|2-------2---2-------2-------2--|2-------2---2-------2-------1--|
D|4-------4---4-------4-------4--|1-------1---1-------1-------2--|
A|4-------4---4-------4-------4--|2-------2---2-------2-------2--|
E|2-------2---2-------2-------2--|----------------------------0--|
  lonely      one                                    You're going to
          (You're not     the     only        one)

                                 Dbm
e|0---0-- 0---0-- ----0-- ----0--|4---4-- 4---4-- 4------ 4------|
B|0---0---0---0-------0-------0--|5---5---5---5---5-------5------|
G|1---1---1---1-------1-------1--|6---6---6---6---6-------6------|
D|2---2---2---2-------2-------2--|6---6---6---6---6-------6------|
A|2---2---2---2-------2-------2--|4---4---4---4---4-------4------|
E|0---0---0---0-------0-------0--|-------------------------------|
   lose that   girl,                                  You're going to
         (yes,  yes you're going to lose that girl)

  F#m                             B7
e|2---2-- ----2-- ----2-- 2------|2------ ----2-- ----2-- 2------|
B|2---2-------2-------2---2------|0-----------0-------0---0------|
G|2---2-------2-------2---2------|2-----------2-------2---2------|
D|4---4-------4-------4---4------|1-----------1-------1---1------|
A|4---4-------4-------4---4------|2-----------2-------2---2------|
E|2---2-------2-------2---2------|-------------------------------|
  lose                    that    girl               You're going to
         (yes,  yes you're going to lose that girl

  F#m                             D
e|2---2-- ----2-- ----2-- ----2--|2------ 2------ ----2-- 2---0--|
B|2---2-------2-------2-------2--|3-------3-----------3---3---3--|
G|2---2-------2-------2-------2--|2-------2-----------2---2---2--|
D|4---4-------4-------4-------4--|0-------0-----------0---0---0--|
A|4---4-------4-------4-------4--|-------------------------------|
E|2---2-------2-------2-------2--|-------------------------------|
  lose                    that    girl
          (yes,  yes you're going to lose that girl)

  G                               C
e|3------ 3------ ----3-- 3---3--|0------ 0---0-- 0---0-- 0------|
B|0-------0-----------0---0---0--|1-------1---1---1---1---1---0--|
G|0-------0-----------0---0---0--|0-------0---0---0---0---0---0--|
D|0-------0-----------0---0---0--|2-------2---2---2---2---2---0--|
A|2-------2-----------2---2---2--|3-------3---3---3---3---3------|
E|3-------3-----------3---3---3--|-------------------------------|
     I'll make a  point        of taking  her away    from    you,
    (I'll make a  point        of taking  her away    from    you


  G
e|3------ 3------ ----3-- 3---3--|3------ ----3-- ----3-- ----3--|
B|3-------3-----------3---3---3--|3-----------3-------3-------3--|
G|0-------0-----------0---0---0--|0-----------0-------0-------0--|
D|0-------0-----------0---0---0--|0-----------0-------0-------0--|
A|2-------2-----------2---2---2--|2-----------2-------2-------2--|
E|3-------3-----------3---3---3--|3-----------3-------3-------3--|
                                  Yeah
          watch   what to     do


                                  C
e|3------ 3------ ----3-- 3---3--|3------ 3---3-- 3---3-- -------|
B|3-------3-----------3---3---3--|1-------1---1---1---1----------|
G|0-------0-----------0---0---0--|0-------0---0---0---0----------|
D|0-------0-----------0---0---0--|2-------2---2---2---0----------|
A|2-------2-----------2---2---2--|3-------3---3---3---3----------|
E|3-------3-----------3---3---3--|-------------------------------|
      The way you treat her       What else      can I        do?
      The way you treat her       What else      can I        do?)

Solo


  F                           E
e|1------ 1------ ----1-- ----0--|
B|1-------1-----------1-------0--|
G|2-------2-----------2-------1--|
D|3-------3-----------3-------2--|
A|3-------3-----------3-------2--|
E|1-------1-----------1-------0--|

                                  Ab
e|0------ 0------ ----0-- ----0--|4------ 4------ ----4-- ----2--|
B|0-------0-----------0-------0--|4-------4-----------4-------2--|
G|1-------1-----------1-------1--|5-------5-----------5-------2--|
D|2-------2-----------2-------2--|6-------6-----------6-------4--|
A|2-------2-----------2-------2--|6-------6-----------6-------4--|
E|0-------0-----------0-------0--|4-------4-----------4-------2--|

e|------- 12----- ----12- -------|12----- ----12- ------- -------|
B|12B13-------12B13-------12B13--|----12B13-------12B13------------|
G|-------------------------------|--------------------------11B12R-|
D|-------------------------------|---------------------------------|
A|-------------------------------|---------------------------------|
E|-------------------------------|---------------------------------|


  F#m                             B7                          E
e|2------ 2------ ----2-- ----2--|2------ 2------ ----2-- ----0--|
B|2-------2-----------2-------2--|0-------0-----------0-------0--|
G|2-------2-----------2-------2--|2-------2-----------2-------1--|
D|4-------4-----------4-------4--|1-------1-----------1-------2--|
A|4-------4-----------4-------4--|2-------2-----------2-------2--|
E|2-------2-----------2-------2--|----------------------------0--|
         (You're  going   to      lose that   girl)
e|------- ----12- ------- -------|------- ------- ------- -------|
B|----------------------------16R|14--12------12-----------------|
G|11--9--------------------------|-------------------------------|
D|-------------------------------|-------------------------------|
A|-------------------------------|-------------------------------|
E|-------------------------------|-------------------------------|

                              Ab                              F#m
e|0------ 0------ ----0-- ----4--|------- 4------ ----4-- ----2--|
B|0-------0-----------0-------4--|--------4-----------4-------2--|
G|1-------1-----------1-------5--|--------5-----------5-------2--|
D|2-------2-----------2-------6--|--------6-----------6-------4--|
A|2-------2-----------2-------6--|--------6-----------6-------4--|
E|0-------0-----------0-------4--|--------4-----------4-------2--|

e|------- 12----- ----12- -------|12----- ----12- ------- -------|
B|12B13-------12B13-------12B13--|----12B13-------12B13---12B13--|
G|-------------------------------|-------------------------------|
D|-------------------------------|-------------------------------|
A|-------------------------------|-------------------------------|
E|-------------------------------|-------------------------------|

                              B7
e|------- 2------ ----2-- ----2--|------- 2------ ----2-- ----2--|
B|--------2-----------2-------0--|--------0-----------0-------0--|
G|--------2-----------2-------2--|--------2-----------2-------2--|
D|--------4-----------4-------1--|--------1-----------1-------1--|
A|--------4-----------4-------2--|--------2-----------2-------2--|
E|--------2-----------2----------|-------------------------------|
                                                     You're going to
         (You're  going   to      lose that   girl)
e|------- ----12- ------- -------|------- ------- ------- -------|
B|--------------------------14B16R14--12------12--------------\--|
G11B12R11-9----------------------|-------------------------------|
D|-------------------------------|-------------------------------|
A|-------------------------------|-------------------------------|
E|-------------------------------|-------------------------------|

  E                               Dbm
e|0------ 0---0-- ----0-- 0------|4------ 4---4-- 4---4-- -------|
B|0-------0---0-------0---0------|5-------5---5---5---5----------|
G|1-------1---1-------1---1------|6-------6---6---6---6----------|
D|2-------2---2-------2---2------|6-------6---6---6---6----------|
A|2-------2---2-------2---2------|4-------4---4---4---4----------|
E|0-------0---0-------0---0------|-------------------------------|
   lose that   girl,                                  You're going to
         (yes,  yes you're going to lose that girl
e|------- ------- ------- -------|------- ------- ------- -------|
B|9------------------------------|-------------------------------|
G|-------------------------------|-------------------------------|
D|-------------------------------|-------------------------------|
A|-------------------------------|-------------------------------|
E|-------------------------------|-------------------------------|

  F#m                             B7
e|2---2-- ----2-- ----2-- 2------|2------ 2---2-- ----2-- 2------|
B|2---2-------2-------2---2------|0-------0---0-------0---0------|
G|2---2-------2-------2---2------|2-------2---2-------2---2------|
D|4---4-------4-------4---4------|1-------1---1-------1---1------|
A|4---4-------4-------4---4------|2-------2---2-------2---2------|
E|2---2-------2-------2---2------|-------------------------------|
  lose                    that    girl               You're going to
          yes,  yes you're going to lose that girl


  F#m                         D
e|2---2-- ----2-- ----2-- ----2--|------- 2------ 2---2-- 2---0--|
B|2---2-------2-------2-------3--|--------3-------3---3---3---3--|
G|2---2-------2-------2-------2--|--------2-------2---2---2---2--|
D|4---4-------4-------4-------0--|--------0-------0---0---0---0--|
A|4---4-------4-------4----------|-------------------------------|
E|2---2-------2-------2----------|-------------------------------|
  lose
           yes,  yes you're going to lose that girl)


  G                               C
e|3------ 3---3-- ----3-- 3------|3------ 3---3-- ----3-- -------|
B|0-------0---0-------0---0------|1-------1---1-------1----------|
G|0-------0---0-------0---0------|0-------0---0-------0----------|
D|0-------0---0-------0---0------|2-------2---2-------2----------|
A|2-------2---2-------2---2------|3-------3---3-------3----------|
E|3-------3---3-------3---3------|-------------------------------|
     I'll make a  point        of taking  her away    from    you,
    (I'll make a  point        of taking  her away    from    you


  G
e|3------ 3------ ----3-- -------|------- ----3-- ----3-- ----3--|
B|3-------3-----------3----------|------------3-------3-------3--|
G|0-------0-----------0----------|------------0-------0-------0--|
D|0-------0-----------0----------|------------0-------0-------0--|
A|2-------2-----------2----------|------------2-------2-------2--|
E|3-------3-----------3----------|------------3-------3-------3--|
                                  Yeah
          watch   what to     do

                                  C
e|3------ 3------ ----3-- 3---3--|3------ 3---3-- 3---3-- -------|
B|3-------3-----------3---3---3--|1-------1---1---1---1----------|
G|0-------0-----------0---0---0--|0-------0---0---0---0----------|
D|0-------0-----------0---0---0--|2-------2---2---2---0----------|
A|2-------2-----------2---2---2--|3-------3---3---3---3----------|
E|3-------3-----------3---3---3--|-------------------------------|
      The way you treat her       What else      can I        do?
      The way you treat her       What else      can I        do?)

  F                           E
e|1------ 1---1-- 1---1-- ----0--|
B|1-------1---1---1---1-------0--|
G|2-------2---2---2---2-------1--|
D|3-------3---3---3---3-------2--|
A|3-------3---3---3---3-------2--|
E|1-------1---1---1---1-------0--|

                                  Ab
e|0------ 0------ ----0-- -------|4------ 4---4-- ----4-- 4------|
B|0-------0-----------0----------|4-------4---4-------4---4------|
G|1-------1-----------1----------|5-------5---5-------5---5------|
D|2-------2-----------2----------|6-------6---6-------6---6------|
A|2-------2-----------2----------|6-------6---6-------6---6------|
E|0-------0-----------0----------|4-------4---4-------4---4------|
      If  you don't take her      out     tonight,    she's going to

  F#m                             B7                          E
e|2------ 2---2-- ----2-- 2---2--|2------ 2---2-- ----2-- ----0--|
B|2-------2---2-------2---2---2--|0-------0---0-------0-------0--|
G|2-------2---2-------2---2---2--|2-------2---2-------2-------1--|
D|4-------4---4-------4---4---4--|1-------1---1-------1-------2--|
A|4-------4---4-------4---4---4--|2-------2---2-------2-------2--|
E|2-------2---2-------2---2---2--|-------------------------------|
  change her mind.
         (She's   going   to      change her  mind)


                                  Ab
e|0------ 0---0-- ----0-- 0------|4------ 4---4-- ----4-- 4------|
B|0-------0---0-------0---0------|4-------4---4-------4---4------|
G|1-------1---1-------1---1------|5-------5---5-------5---5------|
D|2-------2---2-------2---2------|6-------6---6-------6---6------|
A|2-------2---2-------2---2------|6-------6---6-------6---6------|
E|0-------0---0-------0---0------|4-------4---4-------4---4------|
      And I will  take her        out     tonight     and I   will

  F#m                             B7
e|2------ 2---2-- ----2-- 2---0--|2------ 2---2-- ----2-- 2---2--|
B|2-------2---2-------2---2---0--|0-------0---0-------0---0---0--|
G|2-------2---2-------2---2---0--|2-------2---2-------2---2---2--|
D|4-------4---4-------4---4------|1-------1---1-------1---1---1--|
A|4-------4---4-------4---4------|2-------2---2-------2---2---2--|
E|2-------2---2-------2---2------|-------------------------------|
  treat her   kind.                                 You're going to
         (I'm     going   to      treat her   kind)

  E                               Dbm
e|0------ 0---0-- ----0-- 0------|4------ 4---4-- ----4-- 4------|
B|0-------0---0-------0---0------|5-------5---5-------5---5------|
G|1-------1---1-------1---1------|6-------6---6-------6---6------|
D|2-------2---2-------2---2------|6-------6---6-------6---6------|
A|2-------2---2-------2---2------|4-------4---4-------4---4------|
E|0-------0---0-------0---0------|-------------------------------|
  lose that   girl,                                  You're going to
         (yes,  yes you're going to lose that girl)

  F#m                             B7
e|2------ 2---2-- ----2-- 2------|2------ 2---2-- ----2-- 2------|
B|2-------2---2-------2---2------|0-------0---0-------0---0------|
G|2-------2---2-------2---2------|2-------2---2-------2---2------|
D|4-------4---4-------4---4------|1-------1---1-------1---1------|
A|4-------4---4-------4---4------|2-------2---2-------2---2------|
E|2-------2---2-------2---2------|-------------------------------|
  lose                    that    girl
          (yes,  yes you're going to lose that girl)


  F#m                             D               A
e|2---2-- ----2-- ----2-- 2------|2------ 2-------0------ 0------|
B|2---2-------2-------2---2------|3-------3-------2-------2------|
G|2---2-------2-------2---2------|2-------2-------2-------2------|
D|4---4-------4-------4---4------|0-------0-------2-------2------|
A|4---4-------4-------4---4------|----------------0-------0------|
E|2---2-------2-------2---2------|-------------------------------|
  lose                                            that
         (Yes,  yes you're going to lose          that


 (.
  E
e|0------ ------- ------- -------|------- ------- ------- -------|
B|0------------------------------|-------------------------------|
G|1------------------------------|-------------------------------|
D|2------------------------------|-------------------------------|
A|2------------------------------|-------------------------------|
E|0------------------------------|-------------------------------|
  girl
  girl)



        B  Bend
        R  Release
        /  slide up
        \  slide down
        H  hammer-on
        P  pull-off
        ~  vibrato
        +  harmonic
        x  Mute note
        . - play note like a dot in standard notation
        ^ - ties two notes together
        (. Pause


  ---------------------------------------------------------

  THE BEATLES - TICKET TO RIDE (Lennon/McCartney) From HELP
                album. Released on Augusy 6th 1965.

  ---------------------------------------------------------

  Tabbed by:PJVillanueva

  I think I'm gonna be sad,
  I think it's today, yeah.
  The girl that's driving me mad
  Is going away.

  She's got a ticket to ride,
  She's got a ticket to ride,
  She's got a ticket to ride,
  But she don't care.

  She said that living with me
  Was bringing her down yeah.
  For she would never be free
  When I was around.

  She's got a ticket to ride,
  She's got a ticket to ride,
  She's got a ticket to ride,
  But she don't care.

  I don't know why she's ridin' so high,
  She ought to think twice,
  She ought to do right by me.
  Before she gets to saying goodbye,
  She ought to think twice,
  She ought to do right by me.

  I think I'm gonna be sad,
  I think it's today yeah.
  The girl that's driving me mad
  Is going away, yeah.

  She's got a ticket to ride,
  She's got a ticket to ride,
  She's got a ticket to ride,
  But she don't care.

  I don't know why she's ridin' so high,
  She ought to think twice,
  She ought to do right by me.
  Before she gets to saying goodbye,
  She ought to think twice,
  She ought to do right by me

  She said that living with me,
  Is bringing her down, yeah.
  For she would never be free
  When I was around.

  Ah, she's got a ticket to ride,
  She's got a ticket to ride,
  She's got a ticket to ride,
  But she don't care.

  My baby don't care, my baby don't care.
  My baby don't care, my baby don't care.
  My baby don't care, my baby don't care.

  A
e|------- 0------ ------- ----0--|------- 0------ ------- ----0--|
B|------------2---------0--------|------------2---------0--------|
G|2---------------2--------------|2---------------2--------------|
D|-------------------------------|-------------------------------|
A|-------------------------------|-------------------------------|
E|-------------------------------|-------------------------------|


e|------- 0------ ------- ----0--|------- 0------ ------- ----0--|
B|------------2---------0--------|------------2---------0--------|
G|2---------------2--------------|2---------------2--------------|
D|-------------------------------|-------------------------------|
A|-------------------------------|-------------------------------|
E|-------------------------------|-------------------------------|
                                                              I
e|------- ------- ------- -------|------- ------- ------- -------|
B|-------------------------------|-------------------------------|
G|-------------------------------|-------------------------------|
D|-------------------------------|-------------------------------|
A|0-----------0------------------|0-----------0------------------|
E|-------------------------------|-------------------------------|

e|------- 0------ ------- ----0--|------- 0------ ------- ----0--|
B|------------2---------0--------|------------2---------0--------|
G|2---------------2--------------|2---------------2--------------|
D|-------------------------------|-------------------------------|
A|-------------------------------|-------------------------------|
E|-------------------------------|-------------------------------|
  think   I'm     gonna   be  sad             I   think it's  today,
e|------- ------- ------- -------|------- ------- ------- -------|
B|-------------------------------|-------------------------------|
G|-------------------------------|-------------------------------|
D|-------------------------------|-------------------------------|
A|0-----------0------------------|0-----------0------------------|
E|-------------------------------|-------------------------------|

e|------- 0------ ------- ----0--|------- 0------ ------- ----0--|
B|------------2---------0--------|------------2---------0--------|
G|2---------------2--------------|2---------------2--------------|
D|-------------------------------|-------------------------------|
A|-------------------------------|-------------------------------|
E|-------------------------------|-------------------------------|
                              yeah                            The
e|------- ------- ------- -------|------- ------- ------- -------|
B|-------------------------------|-------------------------------|
G|-------------------------------|-------------------------------|
D|-------------------------------|-------------------------------|
A|0-----------0------------------|0-----------0------------------|
E|-------------------------------|-------------------------------|

e|------- 0------ ------- ----0--|------- 0------ ------- ----0--|
B|------------2---------0--------|------------2---------0--------|
G|2---------------2--------------|2---------------2--------------|
D|-------------------------------|-------------------------------|
A|-------------------------------|-------------------------------|
E|-------------------------------|-------------------------------|
  girl    that's  driving me  mad             is  going   away
e|------- ------- ------- -------|------- ------- ------- -------|
B|-------------------------------|-------------------------------|
G|-------------------------------|-------------------------------|
D|-------------------------------|-------------------------------|
A|0-----------0------------------|0-----------0------------------|
E|-------------------------------|-------------------------------|


  Bm                              E
e|------- 2------ 0------ -------|------- ------- ------- -------|
B|----------------------------3--|--------0-------------------0--|
G|----------------------4--------|------------1---------1--------|
D|-------------------------------|2---------------2--------------|
A|2------------------------------|-------------------------------|
E|-------------------------------|-------------------------------|

e|------- ------- ------- -------|------- ------- ------- -------|
B|-------------------------------|-------------------------------|
G|-------------------------------|-------------------------------|
D|-------------------------------|-------------------------------|
A|2---------------2--------------|-------------------------------|
E|-------------------------------|0-----------0------------------|


  F#m                             D
e|2------ 2------ ------2 ----2--|2------ 2------ ----2-- -------|
B|2-------2-------------2-----2--|3-------3---------------3------|
G|2-------2-------------2-----2--|2-------2-------------------2--|
D|4-------4-------------4-----4--|0-------0----------------------|
A|4-------4-------------4-----4--|-------------------------------|
E|2-------2-------------2-----2--|-------------------------------|
  She's   got a   ticket  to  ride
e|------- ------- ------- -------|------- ------- ------- -------|
B|-------------------------------|-------------------------------|
G|-------------------------------|-------------------------------|
D|-------------------------------|-------------------------------|
A|-------------------------------|-------------------------------|
E|-------------------------------|-------------------------------|


  F#m                            Gflat5maj7
e|2------ 2------ ------2 ----2--|2------ ------- ------- -------|
B|2-------2-------------2-----2--|2------------------------------|
G|2-------2-------------2-----2--|4------------------------------|
D|4-------4-------------4-----4--|5------------------------------|
A|4-------4-------------4-----4--|5------------------------------|
E|2-------2-------------2-----2--|3------------------------------|
  She's   got a   ticket  to  ride


  F#m                             E
e|2------ 2------ ------2 ----2--|0------ 0------ 0---0-- 0------|
B|2-------2-------------2-----2--|0-------0-------0---0---0------|
G|2-------2-------------2-----2--|1-------1-------1---1---1------|
D|4-------4-------------4-----4--|2-------2-------2---2---2------|
A|4-------4-------------4-----4--|2-------2-------2---2---2------|
E|2-------2-------------2-----2--|0-------0-------0---0---0------|
  She's   got a   ticket  to  ride            but she don't   care
e|------- ------- ------- -------|------- ------- ------- -------|
B|-------------------------------|-------------------------------|
G|-------------------------------|-------------------------------|
D|-------------------------------|-------------------------------|
A|-------------------------------|-------------------------------|
E|-------------------------------|-------------------------------|


  A
e|------- 0------ ------- ----0--|------- 0------ ------- ----0--|
B|------------2---------0--------|------------2---------0--------|
G|2---------------2--------------|2---------------2--------------|
D|-------------------------------|-------------------------------|
A|-------------------------------|-------------------------------|
E|-------------------------------|-------------------------------|
                                                              She
e|------- ------- ------- -------|------- ------- ------- -------|
B|-------------------------------|-------------------------------|
G|-------------------------------|-------------------------------|
D|-------------------------------|-------------------------------|
A|0-----------0------------------|0-----------0------------------|
E|-------------------------------|-------------------------------|

e|------- 0------ ------- ----0--|------- 0------ ------- ----0--|
B|------------2---------0--------|------------2---------0--------|
G|2---------------2--------------|2---------------2--------------|
D|-------------------------------|-------------------------------|
A|-------------------------------|-------------------------------|
E|-------------------------------|-------------------------------|
  said    that    living  with me             was bringing her down
e|------- ------- ------- -------|------- ------- ------- -------|
B|-------------------------------|-------------------------------|
G|-------------------------------|-------------------------------|
D|-------------------------------|-------------------------------|
A|0-----------0------------------|0-----------0------------------|
E|-------------------------------|-------------------------------|

e|------- 0------ ------- ----0--|------- 0------ ------- ----0--|
B|------------2---------0--------|------------2---------0--------|
G|2---------------2--------------|2---------------2--------------|
D|-------------------------------|-------------------------------|
A|-------------------------------|-------------------------------|
E|-------------------------------|-------------------------------|
                              yeah                            for
e|------- ------- ------- -------|------- ------- ------- -------|
B|-------------------------------|-------------------------------|
G|-------------------------------|-------------------------------|
D|-------------------------------|-------------------------------|
A|0-----------0------------------|0-----------0------------------|
E|-------------------------------|-------------------------------|

e|------- 0------ ------- ----0--|------- 0------ ------- ----0--|
B|------------2---------0--------|------------2---------0--------|
G|2---------------2--------------|2---------------2--------------|
D|-------------------------------|-------------------------------|
A|-------------------------------|-------------------------------|
E|-------------------------------|-------------------------------|
  she     would   never   be  free            when I was  around
e|------- ------- ------- -------|------- ------- ------- -------|
B|-------------------------------|-------------------------------|
G|-------------------------------|-------------------------------|
D|-------------------------------|-------------------------------|
A|0-----------0------------------|0-----------0------------------|
E|-------------------------------|-------------------------------|


  Bm                              E
e|------- 2------ 0------ -------|------- ------- ------- -------|
B|----------------------------3--|--------0-------------------0--|
G|----------------------4--------|------------1---------1--------|
D|-------------------------------|2---------------2--------------|
A|2------------------------------|-------------------------------|
E|-------------------------------|-------------------------------|

e|------- ------- ------- -------|------- ------- ------- -------|
B|-------------------------------|-------------------------------|
G|-------------------------------|-------------------------------|
D|-------------------------------|-------------------------------|
A|2-----------2------------------|-------------------------------|
E|-------------------------------|0-----------0------------------|


  F#m                             D
e|2------ 2------ ------2 ----2--|2------ 2------ ----2-- 2---2--|
B|2-------2-------------2-----2--|3-------3-----------3---3---3--|
G|2-------2-------------2-----2--|2-------2-----------2---2---2--|  ****
D|4-------4-------------4-----4--|0-------0-----------0---0---0--|
A|4-------4-------------4-----4--|-------------------------------|
E|2-------2-------------2-----2--|-------------------------------|
  She's   got a   ticket  to  ride


  F#m                            Gflat5maj7
e|2------ 2------ ------2 -------|2------ ------- ------- -------|
B|2-------2-------------2--------|2------------------------------|
G|2-------2-------------2--------|4------------------------------|
D|4-------4-------------4--------|5------------------------------|
A|4-------4-------------4--------|5------------------------------|
E|2-------2-------------2--------|3------------------------------|
  She's   got a   ticket  to  ride


  F#m                             E
e|2------ 2------ ------2 ----2--|0------ 0------ 0-----0 ----0--|
B|2-------2-------------2-----2--|0-------0-------0-----0-----0--|
G|2-------2-------------2-----2--|1-------1-------1-----1-----1--|
D|4-------4-------------4-----4--|2-------2-------2-----2-----2--|
A|4-------4-------------4-----4--|2-------2-------2-----2-----2--|
  She's   got a   ticket  to  ride            but she don't   care


  A
e|------- 0------ ------- ----0--|------- 0------ ------- ----0--|
B|------------2---------0--------|------------2---------0--------|
G|2---------------2--------------|2---------------2--------------|
D|-------------------------------|-------------------------------|
A|-------------------------------|-------------------------------|
E|-------------------------------|-------------------------------|
                                                              I
e|------- ------- ------- -------|------- ------- ------- -------|
B|-------------------------------|-------------------------------|
G|-------------------------------|-------------------------------|
D|-------------------------------|-------------------------------|
A|0-----------0------------------|0-----------0------------------|
E|-------------------------------|-------------------------------|


          D
e|------- 2------ 2---2-- 2---2--|------- 2------ 2---2-- ----2--|
B|--------3-------3---3---3---3--|--------3-------3---3-------3--|
G|--------2-------2---2---2---2--|--------2-------2---2-------2--|
D|--------0-------0---0---0---0--|--------0-------0---0-------0--|
A|-------------------------------|-------------------------------|
E|-------------------------------|-------------------------------|
 don't know why she's ridin' so high,                     She ought to


                                  E                           D
e|2------ 2---2-- 2---2-- 2---2--|0------ 0------ 0---0-- ----2--|
B|3-------3---3---3---3---3---3--|0-------0-------3---0-------3--|
G|2-------2---2---2---2---2---2--|1-------1-------1---1-------2--|
D|0-------0---0---0---0---0---0--|2-------2-------2---2-------0--|
A|-------------------------------|2-------2-------2---2----------|
E|-------------------------------|0-------0-------0---0----------|
think twice she ought to do right by me                       Be..


                                              D7  D           D7
e|------- 2------ 2---2-- ----2--|------- 2---2-- 2---2-- ----2--|
B|--------3-------3---3-------3--|--------3---1---3---3-------1--|
G|--------2-------2---2-------2--|--------2---2---2---2-------2--|
D|--------0-------0---0-------0--|--------0---0---0---0-------0--|
A|-------------------------------|-------------------------------|
E|-------------------------------|-------------------------------|
  fore she gets to saying goodbye                         she ought to


          D                       E
e|------- 2------ 2---2-- -------|0------ ------- ------- -------|
B|--------3-------3---3----------|0------------------------------|
G|--------2-------2---2----------|1------------------------------|
D|--------0-------0---0----------|2------------------------------|
A|-------------------------------|2------------------------------|
E|-------------------------------|0------------------------------|
think twice she ought to do right by me
e|------- ------- ------- -------|------- ------- ------- -------|
B|-------------------------------|----------------10B12R10-8B9--/|
G|-------------------------------|----------------------------9--|
D|-------------------------------|-------------------------------|
A|-------------------------------|-------------------------------|
E|-------------------------------|-------------------------------|


  E5
e|------- ------- ------- -------|
B|-------------------------------|
G|-------------------------------|
D|2---2---2---2---2---2---2---2--|
A|2---2---2---2---2---2---2---2--|
E|0---0---0---0---0---0---0---0--|
                              I
e|------- 10----- 12B14R12-10-12-|
B|12----------12-----------------|
G|-------------------------------|
D|-------------------------------|
A|-------------------------------|
E|-------------------------------|

  A
e|------- 0------ ------- ----0--|------- 0------ ------- ----0--|
B|------------2---------0--------|------------2---------0--------|
G|2---------------2--------------|2---------------2--------------|
D|-------------------------------|-------------------------------|
A|-------------------------------|-------------------------------|
E|-------------------------------|-------------------------------|
  think   I'm     gonna   be  sad             I   think it's  today,
e|------- ------- ------- -------|------- ------- ------- -------|
B|-------------------------------|-------------------------------|
G|-------------------------------|-------------------------------|
D|-------------------------------|-------------------------------|
A|0-----------0------------------|0-----------0------------------|
E|-------------------------------|-------------------------------|

e|------- 0------ ------- ----0--|------- 0------ ------- ----0--|
B|------------2---------0--------|------------2---------0--------|
G|2---------------2--------------|2---------------2--------------|
D|-------------------------------|-------------------------------|
A|-------------------------------|-------------------------------|
E|-------------------------------|-------------------------------|
                              yeah                            The
e|------- ------- ------- -------|------- ------- ------- -------|
B|-------------------------------|-------------------------------|
G|-------------------------------|-------------------------------|
D|-------------------------------|-------------------------------|
A|0-----------0------------------|0-----------0------------------|
E|-------------------------------|-------------------------------|

e|------- 0------ ------- ----0--|------- 0------ ------- ----0--|
B|------------2---------0--------|------------2---------0--------|
G|2---------------2--------------|2---------------2--------------|
D|-------------------------------|-------------------------------|
A|-------------------------------|-------------------------------|
E|-------------------------------|-------------------------------|
  girl    that's  driving me  mad             is  going   away
e|------- ------- ------- -------|------- ------- ------- -------|
B|-------------------------------|-------------------------------|
G|-------------------------------|-------------------------------|
D|-------------------------------|-------------------------------|
A|0-----------0------------------|0-----------0------------------|
E|-------------------------------|-------------------------------|


  Bm                              E
e|------- 2------ 0------ -------|------- ------- ------- -------|
B|----------------------------3--|--------0-------------------0--|
G|----------------------4--------|------------1---------1--------|
D|-------------------------------|2---------------2--------------|
A|2------------------------------|-------------------------------|
E|-------------------------------|-------------------------------|

e|------- ------- ------- -------|------- ------- ------- -------|
B|-------------------------------|-------------------------------|
G|-------------------------------|-------------------------------|
D|-------------------------------|-------------------------------|
A|-2----------2------------------|-------------------------------|
E|-------------------------------|0-----------0------------------|


  F#m                             D
e|2------ 2------ ------2 ----2--|2------ 2------ ----2-- 2---0--|
B|2-------2-------------2-----2--|3-------3-----------3---3---0--|
G|2-------2-------------2-----2--|2-------2-----------3---2---0--|
D|4-------4-------------4-----4--|0-------0-----------0---0------|
A|4-------4-------------4-----4--|-------------------------------|
E|2-------2-------------2-----2--|-------------------------------|
  She's   got a   ticket  to  ride


  F#m                             Gflat5maj7
e|2------ 2------ 2---2-- 2------|2------ ------- ------- -------|
B|2-------2-------2---2---2------|2------------------------------|
G|2-------2-------2---2---2------|4------------------------------|
D|4-------4-------4---4---4------|5------------------------------|
A|4-------4-------4---4---4------|5------------------------------|
E|2-------2-------2---2---2------|3------------------------------|
  She's   got a   ticket  to  ride


  F#m                             E
e|2------ 2------ ------2 ----2--|0------ 0------ 0---0-- 0------|
B|2-------2-------------2-----2--|0-------0-------0---0---0------|
G|2-------2-------------2-----2--|1-------1-------1---1---1------|
D|4-------4-------------4-----4--|2-------2-------2---2---2------|
A|4-------4-------------4-----4--|2-------2-------2---2---2------|
E|-------------------------------|0-------0-------0---0---0------|
  She's   got a   ticket  to  ride            but she don't   care


  A
e|------- 0------ ------- ----0--|------- 0------ ------- ----0--|
B|------------2---------0--------|------------2---------0--------|
G|2---------------2--------------|2---------------2--------------|
D|-------------------------------|-------------------------------|
A|-------------------------------|-------------------------------|
E|-------------------------------|-------------------------------|
                                                              I
e|------- ------- ------- -------|------- ------- ------- -------|
B|-------------------------------|-------------------------------|
G|-------------------------------|-------------------------------|
D|-------------------------------|-------------------------------|
A|0-----------0------------------|0-----------0------------------|
E|-------------------------------|-------------------------------|

          D
e|------- 2------ 2---2-- 2---2--|------- 2------ 2---2-- ----2--|
B|--------3-------3---3---3---3--|--------3-------3---3-------3--|
G|--------2-------2---2---2---2--|--------2-------2---2-------2--|
D|--------0-------0---0---0---0--|--------0-------0---0-------0--|
A|-------------------------------|-------------------------------|
E|-------------------------------|-------------------------------|
 don't know why she's ridin' so high,                     She ought to

                                  E                           D
e|2------ 2---2-- 2---2-- 2---2--|0------ 0------ 0---0-- ----2--|
B|3-------3---3---3---3---3---3--|0-------0-------3---0-------3--|
G|2-------2---2---2---2---2---2--|1-------1-------1---1-------2--|
D|0-------0---0---0---0---0---0--|2-------2-------2---2-------0--|
A|-------------------------------|2-------2-------2---2----------|
E|-------------------------------|0-------0-------0---0----------|
think twice she ought to do right by me                       Be..

                                                  D7  D       D7
e|------- 2---2-- 2---2-- ----2--|2------ 2------ 2---2-- ----2--|
B|--------3---3---3---3-------3--|3-------3-------1---3-------1--|
G|--------2---2---2---2-------2--|2-------2-------2---2-------2--|
D|--------0---0---0---0-------0--|0-------0-------0---0-------0--|
A|-------------------------------|-------------------------------|
E|-------------------------------|-------------------------------|
  fore she gets to saying goodbye                         she ought to


          D                   E
e|------- 2------ 2---2-- ----0--|0------ ------- ------- -------|
B|--------3-------3---3-------0--|0------------------------------|
G|--------2-------2---2-------1--|1------------------------------|
D|--------0-------0---0-------2--|2------------------------------|
A|----------------------------2--|2------------------------------|
E|----------------------------0--|0------------------------------|
think twice she ought to do right by me
e|------- ------- ------- -------|------- ------- ------- -------|
B|-------------------------------|----------------10B12R10-8B9--/|
G|-------------------------------|----------------------------9--|
D|-------------------------------|-------------------------------|
A|-------------------------------|-------------------------------|
E|-------------------------------|-------------------------------|


  E5
e|------- ------- ------- -------|
B|-------------------------------|
G|-------------------------------|
D|2---2---2---2---2---2---2---2--|
A|2---2---2---2---2---2---2---2--|
E|0---0---0---0---0---0---0---0--|
                              I
e|------- 10----- 12B14-12-10-12-|
B|12----------12-----------------|
G|-------------------------------|
D|-------------------------------|
A|-------------------------------|
E|-------------------------------|

  A
e|------- 0------ ------- ----0--|------- 0------ ------- ----0--|
B|------------2---------0--------|------------2---------0--------|
G|2---------------2--------------|2---------------2--------------|
D|-------------------------------|-------------------------------|
A|-------------------------------|-------------------------------|
E|-------------------------------|-------------------------------|
  said    that    living  with me             was bringing her down
e|------- ------- ------- -------|------- ------- ------- -------|
B|-------------------------------|-------------------------------|
G|-------------------------------|-------------------------------|
D|-------------------------------|-------------------------------|
A|0-----------0------------------|0-----------0------------------|
E|-------------------------------|-------------------------------|

e|------- 0------ ------- ----0--|------- 0------ ------- ----0--|
B|------------2---------0--------|------------2---------0--------|
G|2---------------2--------------|2---------------2--------------|
D|-------------------------------|-------------------------------|
A|-------------------------------|-------------------------------|
E|-------------------------------|-------------------------------|
                              yeah                            for
e|------- ------- ------- -------|------- ------- ------- -------|
B|-------------------------------|-------------------------------|
G|-------------------------------|-------------------------------|
D|-------------------------------|-------------------------------|
A|0-----------0------------------|0-----------0------------------|
E|-------------------------------|-------------------------------|

e|------- 0------ ------- ----0--|------- 0------ ------- ----0--|
B|------------2---------0--------|------------2---------0--------|
G|2---------------2--------------|2---------------2--------------|
D|-------------------------------|-------------------------------|
A|-------------------------------|-------------------------------|
E|-------------------------------|-------------------------------|
  she     would   never   be  free            when I was  around
e|------- ------- ------- -------|------- ------- ------- -------|
B|-------------------------------|-------------------------------|
G|-------------------------------|-------------------------------|
D|-------------------------------|-------------------------------|
A|0-----------0------------------|0-----------0------------------|
E|-------------------------------|-------------------------------|


  Bm                              E
e|------- 2------ 0------ -------|------- ------- ------- -------|
B|----------------------------3--|--------0-------------------0--|
G|----------------------4--------|------------1---------1--------|
D|-------------------------------|2---------------2--------------|
A|2------------------------------|-------------------------------|
E|-------------------------------|-------------------------------|

e|------- ------- ------- -------|------- ------- ------- -------|
B|-------------------------------|-------------------------------|
G|-------------------------------|-------------------------------|
D|-------------------------------|-------------------------------|
A|2-----------2------------------|-------------------------------|
E|-------------------------------|0-----------0------------------|


  F#m                             D
e|2------ 2------ ------2 ----2--|2------ 2---2-- 2---2-- 2---2--|
B|2-------2-------------2-----2--|3-------3---3---3---3---3---3--|
G|2-------2-------------2-----2--|2-------2---2---2---2---2---2--|
D|4-------4-------------4-----4--|0-------0---0---0---0---0---0--|
A|4-------4-------------4-----4--|-------------------------------|
E|2-------2-------------2-----2--|-------------------------------|
  She's   got a   ticket  to  ride


  F#m                             Gflat5maj7
e|2------ 2---2-- 2---2-- 2------|2------ ------- ------- -------|
B|2-------2---2---2---2---2------|2------------------------------|
G|2-------2---2---2---2---2------|4------------------------------|
D|4-------4---4---4---4---4------|5------------------------------|
A|4-------4---4---4---4---4------|5------------------------------|
E|2-------2---2---2---2---2------|3------------------------------|
  She's   got a   ticket  to  ride


  F#m                             E
e|2------ 2---2-- ----2-- ----0--|0------ 0------ 0-----0 ----0--|
B|2-------2---2-------2-------0--|0-------0-------0-----0-----0--|
G|2-------2---2-------2-------1--|1-------1-------1-----1-----1--|
D|4-------4---4-------4-------2--|2-------2-------2-----2-----2--|
A|4-------4---4-------4-------2--|2-------2-------2-----2-----2--|
E|-------------------------------|0-------0-------0-----0-----0--|
  She's   got a   ticket  to  ride            but she don't   care


  A
e|------- 0------ ------- ----0--|------- ------- ------- -------|
B|------------2---------0--------|-------------------------------|
G|2---------------2--------------|2------------------------------|
D|-------------------------------|-------------------------------|
A|-------------------------------|-------------------------------|
E|-------------------------------|-------------------------------|
                                          My      baby    don't
e|------- ------- ------- -------|------- ------- ------- -------|
B|-------------------------------|-------------------------------|
G|-------------------------------|-------------------------------|
D|-------------------------------|-------------------------------|
A|0-----------0------------------|0------------------------------|
E|-------------------------------|-------------------------------|


  A
e|------- 0------ ------- ----0--|------- 0------ ------- ----0--|
B|------------2---------0--------|------------2---------0--------|
G|2---------------2--------------|2---------------2--------------|
D|-------------------------------|-------------------------------|
A|-------------------------------|-------------------------------|
E|-------------------------------|-------------------------------|
  care                                     My      baby    don't
e|------- ------- ------- -------|------- ------- ------- -------|
B|-------------------------------|-------------------------------|
G|--------5B6R5-------7B8R7------|5B6R5---5B6R5------------------|
D|----------------7-----------7--|----------------7--------------|
A|-------------------------------|-------------------------------|
E|-------------------------------|-------------------------------|

e|------- 0------ ------- ----0--|------- 0------ ------- ----0--|
B|------------2---------0--------|------------2---------0--------|
G|2---------------2--------------|2---------------2--------------|
D|-------------------------------|-------------------------------|
A|-------------------------------|-------------------------------|
E|-------------------------------|-------------------------------|
  care                                     My      baby    don't
e|------- ------- ------- -------|------- ------- ------- -------|
B|--------7B8R7------------------|--------7B8--------------------|
G|----------------7B8R7---5B6----|----------------7B8-----5B6----|
D|-------------------------------|----7--------------------------|
A|-------------------------------|-------------------------------|
E|-------------------------------|-------------------------------|

e|------- 0------ ------- ----0--|------- 0------ ------- ----0--|
B|------------2---------0--------|------------2---------0--------|
G|2---------------2--------------|2---------------2--------------|
D|-------------------------------|-------------------------------|
A|-------------------------------|-------------------------------|
E|-------------------------------|-------------------------------|
  care                                     My      baby    don't
e|------- ------- ------- -------|------- ------- ------- -------|
B|-------------------------------|----7B8------------------------|
G|--------5B6R5-------7B8-5B6----|-------------------------------|
D|7---------------7-----------7--|-------------------------------|
A|-------------------------------|-------------------------------|
E|-------------------------------|-------------------------------|

e|------- 0------ ------- ----0--|------- 0------ ------- ----0--|
B|------------2---------0--------|------------2---------0--------|
G|2---------------2--------------|2---------------2--------------|
D|-------------------------------|-------------------------------|
A|-------------------------------|-------------------------------|
E|-------------------------------|-------------------------------|
  care                                     My      baby    don't
e|------- ------- ------- -------|------- ------- ------- -------|
B|---7B8--8R7-----7B8--8R7----7B8R7------------------------------|
G|---7B8--8R7-----7B8--8R7----7B8R7-------5B6---------6B7-5B6----|
D|-------------------------------|------------7------------------|
A|-------------------------------|-------------------------------|
E|-------------------------------|-------------------------------|

e|------- 0------ ------- ----0--|------- 0------ ------- ----0--|
B|------------2---------0--------|------------2---------0--------|
G|2---------------2--------------|2---------------2--------------|
D|-------------------------------|-------------------------------|
A|-------------------------------|-------------------------------|
E|-------------------------------|-------------------------------|
  care                                     My      baby    don't
e|------- ------- ------- -------|------- ------- ------- ----5--|
B|----------------------------7B8|7B8-----7B8-----7B8-7B8--------|
G|----5B6R5-------7B8R7----------|-------------------------------|
D|7-----------7-----------7------|-------------------------------|
A|-------------------------------|-------------------------------|
E|-------------------------------|-------------------------------|
  ..............................Fade.............................

        B  Bend
        R  Release
        /  slide up
        \  slide down
        H  hammer-on
        P  pull-off
        ~  vibrato
        +  harmonic
        x  Mute note
        . - play note like a dot in standard notation
        ^ - ties two notes together
        (. Pause

  --------------------------------------------------------

  THE BEATLES - ACT NATURALLY (Morrison/Russell) From HELP
                album. Released on August 6th 1965.

  --------------------------------------------------------

  Tabbed by:PJVillanueva

  They're gonna put me in the movies
  They're gonna make a big star out of me
  We'll make a film about a man that's sad and lonely
  And all I gotta so is act naturally

  Well, I'll bet you I'm gonna be a big star
  Might win an Oscar you can never tell
  The movies gonna make me a big star
  'Cause I can play the part so well

  Well I hope you come and see me in the movies
  Then I know that you will plainly see
  The biggest fool that ever hit the big time
  And all I gotta do is act naturally

  We'll make the scene about a man that's sad and lonely
  And beggin down upon his bended knee
  I'll play the part and I won't need rehearsin'
  All I gotta do is act naturally

  Well, I bet you I'm gonna be a big star
  Might win an Oscar you can never tell
  The movies gonna make me a big star
  'Cause I can play the part so well

  Well I hope you come and see me in the movies
  Then I know that you will plainly see
  The biggest fool that ever hit the big time
  And all I gotta do is act naturally


  Tune solo guitar low E string to D.


  e|------ ------ ------ ------|------ ------ ------ ------|
  B|---------------------------|---------------------------|
  G|---------------------------|-------0-------------------|
  D|---------------------------|--------------4------2-----|
  A|---------------------------|---------------------------|
  D|---------------------------|---------------------------|


    D
  e|2----- 2----- 2----- ------|2----- ------ 2----- ------|
  B|3------3------3------------|3-------------3------------|
  G|2------2------2------------|2-------------2------------|
  D|0------0------0------------|0-------------0------------|
  A|---------------------------|---------------------------|
  E|---------------------------|---------------------------|

  e|------ ------ ------ ------|------ 2----- ----2- ------|
  B|-------3----------1--------|------------3H5------------|
  G|-----------0--2------------|---------------------------|
  D|0--------------------------|0--------------------------|
  A|---------------------------|---------------------------|
  D|---------------------------|---------------------------|

    G
  e|3----- 3----- 3----- 3-----|------ 3----- ----3- 3-----|
  B|3------3------3------3-----|-------3----------3--3-----|
  G|0------0------0------0-----|-------0----------0--0-----|
  D|0------0------0------0-----|-------0----------0--0-----|
  A|2------2------2------2-----|-------2----------2--2-----|
  E|3------3------3------3-----|-------3----------3--3-----|

  e|3----- 3----- 3----- ------|------ ------ ------ ------|
  B|3-B-5--5------5-R-3--------|---------------------------|
  G|---------------------4-----|---------------------------|
  D|---------------------------|5--------------------------|
  A|---------------------------|------------------7\-5-----|
  D|---------------------------|-----------7/-9------------|


    00:06

  e|3----- ------ 3----- ----3-|3----- 3----- 3---3- 3-----|
  B|3-------------3----------3-|3------3------3---3--3-----|
  G|0-------------0----------0-|0------0------0---0--0-----|
  D|0-------------0----------0-|0------0------0---0--0-----|
  A|2-------------2----------2-|2------2------2---2--2-----|
  E|3-------------3----------3-|3------3------3---3--3-----|
    They're              gonna  put    me     in     the movies
  e|------ ------ ------ ------|------ ------ ------ ------|
  B|---------------------------|---------------------------|
  G|---------------------------|---------------------------|
  D|5--------------------------|---------------------------|
  A|---------------------------|---------------------------|
  D|---------------------------|---------------------------|

    C
  e|0----- 0----- 0---0- 0---0-|0----- 0----- 0---0- 0-----|
  B|1------1------1---1--1---1-|1------1------1---1--1-----|
  G|0------0------0---0--0---0-|0------0------0---0--0-----|
  D|2------2------2---2--2---2-|2------2------2---2--2-----|
  A|3------3------3---3--3---3-|3------3------3---3--3-----|
  E|---------------------------|---------------------------|

  e|------ ------ ------ ------|------ ------ ------ ------|
  B|---------------------------|---------------------------|
  G|-----------0--0----------0-|-------------------------0-|
  D|--------------0H2----------|--------------0H2----------|
  A|5--------------------------|5--------------------------|
  D|---------------------------|---------------------------|

    G
  e|3----- 3----- 3----- 3-----|3----- 3---3- 3----- 3-----|
  B|3------3------3------3-----|3------3---3--3------3-----|
  G|0------0------0------0-----|0------0---0--0------0-----|
  D|0------0------0------0-----|0------0---0--0------0-----|
  A|2------2------2------2-----|2------2---2--2------2-----|
  E|3------3------3------3-----|3------3---3--3------3-----|
    They're       make   a   big       star   out    of  me
           gonna
  e|------ ------ ------ ------|------ ------ ------ ------|
  B|---------------------------|---------------------------|
  G|---------------------------|0--------------------------|
  D|---------------------------|---------------------------|
  A|---------------------------|---------------------------|
  D|5--------------------------|---------------------------|

    D
  e|2----- 2----- ------ 2-----|2----- ----2- 2----- 3-----|
  B|3------3-------------3-----|3----------3--3------3-----|
  G|2------2-------------2-----|2----------2--2------2-----|
  D|0------0-------------0-----|0----------0--0------0-----|
  A|---------------------------|---------------------------|
  E|---------------------------|---------------------------|
                                                         We'll
  e|------ ------ ------ ------|------ ------ ------ ------|
  B|---------------------------|---------------------------|
  G|-------0----------0--------|---------------------------|
  D|----------0-H-2------------|0--------------------------|
  A|---------------------------|---------------------------|
  D|---------------------------|---------------------------|

  e|------ ------ ------ ------|------ ------ ------ ------|
  B|---------------------------|---------------------------|
  G|---------------------------|---------------------------|
  D|---------------------------|0--------------------------|
  A|-------------------0H2-----|--------------2-P-0--------|
  D|0-----------2H4------------|---------------------4-----|

    G
  e|3----- 3----- 3----- 3-----|3----- 3----- 3----- 3-----|
  B|3------3------3------3-----|3------3------3------3-----|
  G|0------0------0------0-----|0------0------0------0-----|
  D|0------0------0------0-----|0------0------0------0-----|
  A|2------2------2------2-----|2------2------2------2-----|
  E|3------3------3------3-----|3------3------3------3-----|
    make   a   film   about  a  man    who's  sad    and lonely
  e|------ ------ ------ ------|------ ------ ------ ------|
  B|-------0-------------0-----|---------------------------|
  G|---------------------------|---------------------------|
  D|--------------0------------|0-------------0------------|
  A|---------------------------|---------------------------|
  D|5--------------------------|---------------------------|

    C
  e|0----- 0----- ------ 0-----|0----- 0----- ------ 0-----|
  B|1------1-------------1-----|1------1-------------1-----|
  G|0------0-------------0-----|0------0-------------0-----|
  D|2------2-------------2-----|2------2-------------2-----|
  A|3--------------------------|3--------------------------|
  E|--------------3------------|--------------3------------|
                                                         and
  e|------ ------ ------ ------|------ ------ ------ ------|
  B|---------------------------|---------------------------|
  G|-------0----------0------0-|0------0----------0--------|
  D|-----------0--2------------|-----------0--2------------|
  A|3--------------------------|---------------------------|
  D|---------------------------|---------------------------|

    D
  e|2----- 2----- 2---2- 2-----|2----- 2----- 2---2- 2-----|
  B|3------3------3---3--3-----|3------3------3---3--3-----|
  G|2------2------2---2--2-----|2------2------2---2--2-----|
  D|0------0------0---0--0-----|0------0------0---0--0-----|
  A|---------------------------|---------------------------|
  E|---------------------------|---------------------------|
    all I've   to do  is            act       naturally
           got
  e|------ ------ ------ ------|------ ------ ------ ------|
  B|---------------------------|---------------------------|
  G|---------------------------|-------------------------3/|
  D|---------------------------|---------------------------|
  A|---------------------------|---------------------------|
  D|---------------------------|---------------------------|

    G
  e|3----- 3---3- 3----- 3-----|3----- ------ ------ ------|
  B|3------3---3--3------3-----|3--------------------------|
  G|0------0---0--0------0-----|0--------------------------|
  D|0------0---0--0------0-----|0--------------------------|
  A|2------2---2--2------2-----|2--------------------------|
  E|3------3---3--3------3-----|3--------------------------|
                                                  Well
                                                     I
  e|----0- ------ ------ ------|------ ------ ------ ------|
  B|--------------3---0--------|---------------------------|
  G|4--------------------------|0--------------------------|
  D|---------------------------|---------------------------|
  A|---------------------------|---------------------------|
  D|---------------------------|---------------------------|


    00:26
    D
  e|2----- 2----- ----2- 2-----|2----- ----2- 2---2- 2-----|
  B|3------3----------3--3-----|3----------3--3---3--3-----|
  G|2------2----------2--2-----|2----------2--2---2--2-----|
  D|0------0----------0--0-----|0----------0--0---0--0-----|
  A|---------------------------|---------------------------|
  E|---------------------------|---------------------------|
    bet    you           I'm    gonna         be     a   big
  e|------ ------ ------ ------|------ ------ ------ ------|
  B|---------------------------|---------------------------|
  G|---------------------------|---------------------------|
  D|---------------------------|0--------------------------|
  A|---------------------------|---------------------------|
  D|---------------------------|---------------------------|

    G
  e|3----- 3----- ----3- 3-----|3----- ----3- 3---3- 3-----|
  B|3------3----------3--3-----|3----------3--3---3--3-----|
  G|0------0----------0--0-----|0----------0--0---0--0-----|
  D|0------0----------0--0-----|0----------0--0---0--0-----|
  A|2------2----------2--2-----|2----------2--2---2--2-----|
  E|3------3------3---3--3-----|3----------3--3---3--3-----|
           star                                   Might
  e|------ ------ ------ ------|------ ------ ------ ------|
  B|---------------------------|---------------------------|
  G|---------------------------|0------0----------0--------|
  D|0--------------------------|------------0H2------------|
  A|---------------------------|---------------------------|
  D|---------------------------|---------------------------|

    D
  e|2----- 2----- ----2- ----2-|2----- 2----- ----2- ----2-|
  B|3------3----------3------3-|3------3----------3------3-|
  G|2------2----------2------2-|2------2----------2------2-|
  D|0------0----------0------0-|0------0----------0------0-|
  A|---------------------------|---------------------------|
  E|---------------------------|---------------------------|
    win    an  Oscar            you    can        never  tell
  e|------ ------ ------ ------|------ ------ ------ ------|
  B|---------------------------|---------------------------|
  G|---------------------------|---------------------------|
  D|---------------------------|---------------------------|
  A|-------0-------------0-----|-------0-------------0-----|
  D|---------------------------|---------------------------|

    G
  e|3----- 3----- ----3- 3---3-|3----- 3---3- ----3- 3-----|
  B|3------3----------3--3---3-|3------3---3------3--3-----|
  G|0------0----------0--0---0-|0------0---0------0--0-----|
  D|0------0----------0--0---0-|0------0---0------0--0-----|
  A|2------2----------2--2---2-|2------2---2------2--2-----|
  E|3------3----------3--3---3-|3------3---3------3--3-----|
                                                         The
  e|------ ------ ------ ------|------ ------ ------ ------|
  B|---------------------------|---------------------------|
  G|0------0----------0------0-|0------0----------0--------|
  D|0-----------0H2------------|------------0H2------------|
  A|---------------------------|---------------------------|
  D|---------------------------|---------------------------|

    D
  e|2----- 2----- ----2- 2-----|2----- ----2- ----2- 2-----|
  B|3------3----------3--3-----|3----------3------3--3-----|
  G|2------2----------2--2-----|2----------2------2--2-----|
  D|0------0----------0--0-----|0----------0------0--0-----|
  A|---------------------------|---------------------------|
  E|---------------------------|---------------------------|
    movies        gonna         make          me     a   big


    G
  e|3----- 3----- ----3- 3-----|3----- ----3- 3---3- 3-----|
  B|3------3----------3--3-----|3----------3--3---3--3-----|
  G|0------0----------0--0-----|0----------0--0---0--0-----|
  D|0------0----------0--0-----|0----------0--0---0--0-----|
  A|2------2----------2--2-----|2----------2--2---2--2-----|
  E|3------3----------3--3-----|3----------3--3---3--3-----|
           star                                         'cause
  e|------ ------ ------ ------|------ ------ ------ ------|
  B|---------------------------|---------------------------|
  G|-------0----------0------0-|0------0----------0--------|
  D|------------0H2------------|------------0H2------------|
  A|---------------------------|---------------------------|
  D|---------------------------|---------------------------|

    A
  e|0----- 0----- ----0- 0-----|0----- ----0- ----0- 0-----|
  B|2------2----------2--2-----|2----------2------2--2-----|
  G|2------2----------2--2-----|2----------2------2--2-----|
  D|2------2----------2--2-----|2----------2------2--2-----|
  A|0------0----------0--0-----|0----------0------0--0-----|
  E|---------------------------|---------------------------|
    I      can    play   the part                 so     well
  e|------ ------ ------ ------|------ ------ ------ ------|
  B|---------------------------|---------------------------|
  G|---------------------------|---------------------------|
  D|---------------------------|---------------------------|
  A|---------------------------|---------------------------|
  D|7----------7--7----------7-|7----------7--7----------7/|

    D
  e|2----- 2----- ----2- ----2-|2----- ----2- ----2- 3-----|
  B|3------3----------3------3-|3----------3------3--3-----|
  G|2------2----------2------2-|2----------2------2--2-----|
  D|0------0----------0------0-|0----------0------0--0-----|
  A|---------------------------|---------------------------|
  E|---------------------------|---------------------------|
                                                  Well   I
  e|------ ------ ------ ------|------ ------ ------ ------|
  B|---------------------------|---------------------------|
  G|---------------------------|---------------------------|
  D|-------12---------11-------|10---------9---------7-----|
  A|---------------------------|------------------5--------|
  D|12-----------------------12|---------------------------|


    00:47
    G
  e|3----- 3----- 3----- 3-----|3----- 3----- ------ 3-----|
  B|3------3------3------3-----|3------3-------------3-----|
  G|0------0------0------0-----|0------0-------------0-----|
  D|0------0------0------0-----|0------0-------------0-----|
  A|2------2------2------2-----|2------2-------------2-----|
  E|3------3------3------3-----|3------3-------------3-----|
    hope   you    come   and    see    me      in    the movies
  e|------ ------ ------ ------|------ ------ ------ ------|
  B|---------------------------|---------------------------|
  G|---------------------------|---------------------------|
  D|5--------------------------|---------------------------|
  A|---------------------------|---------------------------|
  D|---------------------------|---------------------------|

    C
  e|0----- 0----- ------ 0-----|0----- 0----- ------ 0-----|
  B|1------1-------------1-----|1------1-------------1-----|
  G|0------0-------------0-----|0------0-------------0-----|
  D|2------2-------------2-----|2------2-------------2-----|
  A|3--------------------------|3--------------------------|
  E|--------------3------------|--------------3------------|

  e|------ ------ ------ ------|------ ------ ------ ------|
  B|---------------------------|---------------------------|
  G|-------0----------0--------|0------0----------0--------|
  D|------------0H2------2-----|------------0H2------------|
  A|3--------------------------|---------------------------|
  D|---------------------------|---------------------------|

    G
  e|3----- 3----- 3----- 3-----|3----- 3----- 3----- 3-----|
  B|3------3------3------3-----|3------3------3------3-----|
  G|0------0------0------0-----|0------0------0------0-----|
  D|0------0------0------0-----|0------0------0------0-----|
  A|2------2------2------2-----|2------2------2------2-----|
  E|3------3------3------3-----|3------3------3------3-----|
    Then       know      that          will   plainly
        I'll                 you

    D
  e|2----- 2---2- 2----- 2---2-|2---2- ----2- 2----- 3-----|
  B|3------3---3--3------3---3-|3---3------3--3------3-----|
  G|2------2---2--2------2---2-|2---2------2--2------2-----|
  D|0------0---0--0------0---0-|0---0------0--0------0-----|
  A|---------------------------|---------------------------|
  E|---------------------------|---------------------------|
    see                                                  the
  e|------ ------ ------ ------|------ ------ ------ ------|
  B|---------------------------|---------------------------|
  G|---------------------------|---------------------------|
  D|---------------------------|0--------------------------|
  A|-------------------0H2-----|--------------2-P-0--------|
  D|0-----------2/4------------|---------------------4B5---|

    G
  e|3----- 3----- 3----- 3-----|3----- 3----- 3----- 3-----|
  B|3------3------3------3-----|3------3------3------3-----|
  G|0------0------0------0-----|0------0------0------0-----|
  D|0------0------0------0-----|0------0------0------0-----|
  A|2------2------2------2-----|2------2------2------2-----|
  E|3------3------3------3-----|3------3------3------3-----|
    biggest    fool          that             hit    the big
                                ever
  e|------ ------ ------ ------|------ ------ ------ ------|
  B|---------------------------|---------------------------|
  G|---------------------------|---------------------------|
  D|---------------------------|0-------------0------------|
  A|---------------------------|---------------------------|
  D|---------------------------|---------------------------|

    C
  e|0----- 0---0- 0----- 0-----|0----- 0---0- 0----- 0-----|
  B|1------1---1--1------1-----|1------1---1--1------1-----|
  G|0------0---0--0------0-----|0------0---0--0------0-----|
  D|2------2---2--2------2-----|2------2---2--2------2-----|
  A|3------3---3--3------3-----|3------3---3--3------3-----|
  E|---------------------------|---------------------------|
           time                                          and
  e|------ ------ ------ ------|------ ------ ------ ------|
  B|---------------------------|---------------------------|
  G|-------0----------0------0-|0------0----------0--------|
  D|------------0H2------------|------------0H2------------|
  A|3--------------------------|---------------------------|
  D|---------------------------|---------------------------|

    D
  e|2----- 2----- 2----- 2-----|2----- 2---2- 2----- 3-----|
  B|3------3------3------3-----|3------3---3--3------3-----|
  G|2------2------2------2-----|2------2---2--2------2-----|
  D|0------0------0------0-----|0------0---0--0------0-----|
  A|---------------------------|---------------------------|
  E|---------------------------|---------------------------|
    all I've   to do  is            act       naturally
           got

    G
  e|3----- 3----- 3----- 3-----|3----- ------ ------ ------|
  B|3------3------3------3-----|3--------------------------|
  G|0------0------0------0-----|0--------------------------|
  D|0------0------0------0-----|0--------------------------|
  A|2------2------2------2-----|2--------------------------|
  E|3------3------3------3-----|3--------------------------|

  e|------ ------ ------ ------|------ ------ ------ ------|
  B|---------------------------|---------------------------|
  G|---------------------------|---------------------------|
  D|---------------------------|---------------------------|
  A|---------------------------|---------------------------|
  D|---------------------------|-------5------4------2-----|


    01:08
    D
  e|2----- 2----- ----2- ----2-|2----- 2----- ----2- 3-----|
  B|3------3----------3------3-|3------3----------3--3-----|
  G|2------2----------2------2-|2------2----------2--2-----|
  D|0------0----------0------0-|0------0----------0--0-----|
  A|---------------------------|---------------------------|
  E|---------------------------|---------------------------|

  e|------ ------ ------ ------|------ ------ ------ ------|
  B|---------------------------|---------------------------|
  G|---------------------------|---------------------------|
  D|-------0-------------------|-------0-------------------|
  A|------------------3--------|---------------------3-----|
  D|0-----------4/5------------|0-----------4/5------------|

           G
  e|------ 3----- ----3- 3---3-|3----- 3----- 3---3- 3---3-|
  B|-------3----------3--3---3-|3------3------3---3--3---3-|
  G|-------0----------0--0---0-|0------0------0---0--0---0-|
  D|-------0----------0--0---0-|0------0------0---0--0---0-|
  A|-------2----------2--2---2-|2------2------2---2--2---2-|
  E|-------3----------3--3---3-|3------3------3---3--3---3-|

  e|------ ------ ------ ------|------ ------ ------ ------|
  B|---------------------------|---------------------------|
  G|---------------------------|---------------------------|
  D|5------5-------------------|---------------------------|
  A|--------------6B7----------|---------------------------|
  D|---------------------7B8---|5------5------4------2-----|

    D
  e|2----- 2----- ----2- ----2-|2----- 2---2- 2---2- 2-----|
  B|3------3----------3------3-|3------3---3--3---3--3-----|
  G|2------2----------2------2-|2------2---2--2---2--2-----|
  D|0------0----------0------0-|0------0---0--0---0--0-----|
  A|---------------------------|---------------------------|
  E|---------------------------|---------------------------|

  e|------ ------ ------ ------|------ ------ ------ ------|
  B|---------------------------|---------------------------|
  G|---------------------------|---------------------------|
  D|-------0-------------------|-------0-------------------|
  A|------------------3--------|---------------------3-----|
  D|0-----------4/5------------|0-----------4/5------------|

           G
  e|------ 3----- ----3- 3---3-|------ 3----- ----3- 3-----|
  B|-------3----------3--3---3-|-------3----------3--3-----|
  G|-------0----------0--0---0-|-------0----------0--0-----|
  D|-------0----------0--0---0-|-------0----------0--0-----|
  A|-------2----------2--2---2-|-------2----------2--2-----|
  E|-------3----------3--3---3-|-------3----------3--3-----|
                                                        We'll
  e|------ ------ ------ ------|------ ------ ------ ------|
  B|---------------------------|---------------------------|
  G|---------------------------|---------------------------|
  D|5------5-------------------|---------------------------|
  A|--------------6B7----------|-------------------7\5-----|
  D|---------------------7B8---|5-----------7/9------------|


    01:18

  e|3----- 3----- 3----- 3-----|3----- 3----- 3---3- 3-----|
  B|3------3------3------3-----|3------3------3---3--3-----|
  G|0------0------0------0-----|0------0------0---0--0-----|
  D|0------0------0------0-----|0------0------0---0--0-----|
  A|2------2------2------2-----|2------2------2---2--2-----|
  E|3------3------3------3-----|3------3------3---3--3-----|
    make   the scene  about  a  man    That's sad    and lonely
  e|------ ------ ------ ------|------ ------ ------ ------|
  B|---------------------------|---------------------------|
  G|---------------------------|---------------------------|
  D|5--------------------------|---------------------------|
  A|---------------------------|---------------------------|
  D|---------------------------|---------------------------|

    C
  e|0----- 0----- ------ 0-----|0----- 0----- ------ 0-----|
  B|1------1-------------1-----|1------1-------------1-----|
  G|0------0-------------0-----|0------0-------------0-----|
  D|2------2-------------2-----|2------2-------------2-----|
  A|3--------------------------|3--------------------------|
  E|--------------3------------|--------------3------------|
                                                         and
  e|------ ------ ------ ------|------ ------ ------ ------|
  B|---------------------------|---------------------------|
  G|-------0----------0------0-|0------0----------0--------|
  D|------------0H2------------|------------0H2------------|
  A|3--------------------------|---------------------------|
  D|---------------------------|---------------------------|

    G
  e|3----- 3----- 3----- 3-----|3----- 3----- 3----- 3-----|
  B|3------3------3------3-----|3------3------3------3-----|
  G|0------0------0------0-----|0------0------0------0-----|
  D|0------0------0------0-----|0------0------0------0-----|
  A|2------2------2------2-----|2------2------2------2-----|
  E|3------3------3------3-----|3------3------3------3-----|
    beggin'    down      upon          his    bended
  e|------ ------ ------ ------|------ ------ ------ ------|
  B|---------------------------|---------------------------|
  G|---------------------------|---------------------------|
  D|---------------------------|---------------------------|
  A|---------------------------|------------------0--2-----|
  D|---------------------------|0-----------2/4------------|

    D
  e|2----- 2----- 2----- 2-----|2----- 2---2- 2----- 3-----|
  B|3------3------3------3-----|3------3---3--3------3-----|
  G|2------2------2------2-----|2------2---2--2------2-----|
  D|0------0------0------0-----|0------0---0--0------0-----|
  A|---------------------------|---------------------------|
  E|---------------------------|---------------------------|
    knees                                                I'll
  e|------ ------ ------ ------|------ ------ ------ ------|
  B|---------------------------|---------------------------|
  G|---------------------------|---------------------------|
  D|0--------------------------|---------------------------|
  A|--------------2---0--------|---------------------------|
  D|---------------------4B5---|5--------------------------|

    G
  e|3----- 3---3- 3----- 3---3-|3----- 3----- 3----- 3-----|
  B|3------3---3--3------3---3-|3------3------3------3-----|
  G|0------0---0--0------0---0-|0------0------0------0-----|
  D|0------0---0--0------0---0-|0------0------0------0-----|
  A|2------2---2--2------2---2-|2------2------2------2-----|
  E|3------3---3--3------3---3-|3------3------3------3-----|
    play   the part          and I     won't  need   rehearsin'


    C
  e|0----- 0---0- 0----- 0-----|0----- 0---0- 0----- 0-----|
  B|1------1---1--1------1-----|1------1---1--1------1-----|
  G|0------0---0--0------0-----|0------0---0--0------0-----|
  D|2------2---2--2------2-----|2------2---2--2------2-----|
  A|3------3---3--3------3-----|3------3---3--3------3-----|
  E|---------------------------|---------------------------|
                                                         All
  e|------ ------ ------ ------|------ ------ ------ ------|
  B|---------------------------|---------------------------|
  G|-------0----------0------0-|0------0----------0--------|
  D|------------0H2------------|------------0H2------------|
  A|3--------------------------|---------------------------|
  D|---------------------------|---------------------------|

    D
  e|2----- 2----- 2----- 2-----|2----- 2---2- 2----- 3-----|
  B|3------3------3------3-----|3------3---3--3------3-----|
  G|2------2------2------2-----|2------2---2--2------2-----|
  D|0------0------0------0-----|0------0---0--0------0-----|
  A|---------------------------|---------------------------|
  E|---------------------------|---------------------------|
        I  have   do  is            act       naturally
               to
  e|------ ------ ------ ------|------ ------ ------ ------|
  B|---------------------------|---------------------------|
  G|---------------------------|---------------------------|
  D|---------------------------|0--------------------------|
  A|---------------------------|---------------------------|
  D|---------------------------|---------------------------|

    G
  e|3----- 3----- 3---3- 3-----|3----- ------ ------ ------|
  B|3------3------3---3--3-----|3--------------------------|
  G|0------0------0---0--0-----|0--------------------------|
  D|0------0------0---0--0-----|0--------------------------|
  A|2------2------2---2--2-----|2--------------------------|
  E|3------3------3---3--3-----|3--------------------------|
                                                  Well
                                                     I
  e|------ ------ ------ ------|------ ------ ------ ------|
  B|---------------------------|---------------------------|
  G|---------------------------|---------------------------|
  D|---------------------------|5--------------------------|
  A|-------------------7\5-----|---------------------------|
  D|------------5/9------------|---------------------------|


    01:39
    D
  e|2----- 2----- ----2- 2-----|2----- ----2- 2---2- 3-----|
  B|3------3----------3--3-----|3----------3--3---3--3-----|
  G|2------2----------2--2-----|2----------2--2---2--2-----|
  D|0------0----------0--0-----|0----------0--0---0--0-----|
  A|---------------------------|---------------------------|
  E|---------------------------|---------------------------|
    bet    you           I'm    gonna         be     a   big


    G
  e|3----- 3---3- ----3- 3-----|3----- ----3- 3----- 3---3-|
  B|3------3---3------3--3-----|3----------3--3------3---3-|
  G|0------0---0------0--0-----|0----------0--0------0---0-|
  D|0------0---0------0--0-----|0----------0--0------0---0-|
  A|2------2---2------2--2-----|2----------2--2------2---2-|
  E|3------3---3------3--3-----|3----------3--3------3---3-|
           star                                   Might
  e|------ ------ ------ ------|------ ------ ------ ------|
  B|---------------------------|---------------------------|
  G|---------------------------|-------0----------0--------|
  D|0--------------------------|0-----------0H2------------|
  A|---------------------------|---------------------------|
  D|---------------------------|---------------------------|

    D
  e|2----- 2----- ----2- ------|2----- 2---2- 2---2- 2-----|
  B|3------3----------3--------|3------3---3--3---3--3-----|
  G|2------2----------2--------|2------2---2--2---2--2-----|
  D|0------0----------0--------|0------0---0--0---0--0-----|
  A|---------------------------|---------------------------|
  E|---------------------------|---------------------------|
    win    an  Oscar            you    can        never  tell

  e|------ ------ ------ ------|------ ------ ------ ------|
  B|---------------------------|---------------------------|
  G|---------------------------|---------------------------|
  D|0--------------------------|0--------------------------|
  A|---------------------------|---------------------------|
  D|---------------------------|---------------------------|

    G
  e|3----- 3----- ----3- 3-----|3----- ----3- ----3- 3-----|
  B|3------3----------3--3-----|3----------3------3--3-----|
  G|0------0----------0--0-----|0----------0------0--0-----|
  D|0------0----------0--0-----|0----------0------0--0-----|
  A|2------2----------2--2-----|2----------2------2--2-----|
  E|3------3----------3--3-----|3----------3------3--3-----|
                                                         The
  e|------ ------ ------ ------|------ ------ ------ ------|
  B|---------------------------|---------------------------|
  G|------------------0--------|0--------------------------|
  D|0--------------------2-----|---------------------------|
  A|---------------------------|---------------------------|
  D|---------------------------|-------5------4------2-----|

    D
  e|2----- 2----- 2---2- 2---2-|2----- 2----- ----2- 3-----|
  B|3------3------3---3--3---3-|3------3----------3--3-----|
  G|2------2------2---2--2---2-|2------2----------2--2-----|
  D|0------0------0---0--0---0-|0------0----------0--0-----|
  A|---------------------------|---------------------------|
  E|---------------------------|---------------------------|
    movies        gonna         make          me     a   big
  e|------ ------ ------ ------|------ ------ ------ ------|
  B|---------------------------|---------------------------|
  G|---------------------------|---------------------------|
  D|---------------------------|---------------------------|
  A|---------------------------|---------------------------|
  D|0--------------------------|-------------------------/-|

    G
  e|3----- 3----- ----3- 3---3-|3----- 3----- ----3- ----3-|
  B|3------3----------3--3---3-|3------3----------3------3-|
  G|0------0----------0--0---0-|0------0----------0------0-|
  D|0------0----------0--0---0-|0------0----------0------0-|
  A|2------2----------2--2---2-|2------2----------2------2-|
  E|3------3----------3--3---3-|3------3----------3------3-|
           star                                         'cause
  e|------ ------ ------ ------|------ ------ ------ ------|
  B|---------------------------|---------------------------|
  G|---------------------------|---------------------------|
  D|-------5----------5--------|5----------6---------6-----|
  A|---------------------------|---------------------------|
  D|5-------------5----------5-|----5--5----------6------/-|

    A
  e|0----- 0----- ----0- 0-----|0----- 0---0- 0----- 0-----|
  B|2------2----------2--2-----|2------2---2--2------2-----|
  G|2------2----------2--2-----|2------2---2--2------2-----|
  D|2------2----------2--2-----|2------2---2--2------2-----|
  A|0------0----------0--0-----|0------0---0--0------0-----|
  E|---------------------------|---------------------------|
    I      can    play   the part                 so
  e|------ ------ ------ ------|------ ------ ------ ------|
  B|---------------------------|---------------------------|
  G|---------------------------|---------------------------|
  D|---------------------------|---------------------------|
  A|---------------------------|---------------------------|
  D|7--------------------------|-------------------------7/|

    D
  e|2----- 2----- ----2- 2-----|2----- ----2- 2---2- 2-----|
  B|3------3----------3--3-----|3----------3--3---3--3-----|
  G|2------2----------2--2-----|2----------2--2---2--2-----|
  D|0------0----------0--0-----|0----------0--0---0--0-----|
  A|---------------------------|---------------------------|
  E|---------------------------|---------------------------|
    well                                          Well   I
  e|------ ------ ------ ------|------ ------ ------ ------|
  B|---------------------------|---------------------------|
  G|---------------------------|---------------------------|
  D|----12--------10---------9-|-------7-------------------|
  A|---------------------------|---------------------------|
  D|12---------10--------------|----7----------------------|


    01:59
    G
  e|3----- 3----- 3----- 3-----|3----- 3----- 3----- 3-----|
  B|3------3------3------3-----|3------3------3------3-----|
  G|0------0------0------0-----|0------0------0------0-----|
  D|0------0------0------0-----|0------0------0------0-----|
  A|2------2------2------2-----|2------2------2------2-----|
  E|3------3------3------3-----|3------3------3------3-----|
    hope   you    come   and    see    me     in     the movies
  e|------ ------ ------ ------|------ ------ ------ ------|
  B|---------------------------|---------------------------|
  G|0--------------------------|---------------------------|
  D|0--------------------------|---------------------------|
  A|---------------------------|---------------------------|
  D|---------------------------|---------------------------|

    C
  e|0----- 0----- ------ 0-----|0----- 0---0- ------ 0-----|
  B|1------1-------------1-----|1------1---1---------1-----|
  G|0------0-------------0-----|0------0---0---------0-----|
  D|2------2-------------2-----|2------2---2---------2-----|
  A|3--------------------------|3--------------------------|
  E|--------------3------------|--------------3------------|

  e|------ ------ ------ ------|------ ------ ------ ------|
  B|---------------------------|---------------------------|
  G|0------0----------0------0-|0------0----------0--------|
  D|------------0H2------------|------------0H2------------|
  A|---------------------------|---------------------------|
  D|---------------------------|---------------------------|

    G
  e|3----- 3----- 3----- 3-----|3----- 3----- 3----- 3-----|
  B|3------3------3------3-----|3------3------3------3-----|
  G|0------0------0------0-----|0------0------0------0-----|
  D|0------0------0------0-----|0------0------0------0-----|
  A|2------2------2------2-----|2------2------2------2-----|
  E|3------3------3------3-----|3------3------3------3-----|
    Then       know      that          will   plainly
        I'll                 you

    D
  e|2----- 2----- 2----- 2---2-|2----- 2---2- 2---2- 2-----|
  B|3------3------3------3---3-|3------3---3--3---3--3-----|
  G|2------2------2------2---2-|2------2---2--2---2--2-----|
  D|0------0------0------0---0-|0------0---0--0---0--0-----|
  A|---------------------------|---------------------------|
  E|---------------------------|---------------------------|
    see                                                  the
  e|------ ------ ------ ------|------ ------ ------ ------|
  B|---------------------------|---------------------------|
  G|---------------------------|---------------------------|
  D|---------------------------|0------0-------------------|
  A|-------------------0H2-----|--------------2-P-0--------|
  D|0-----------2/4------------|---------------------4B5---|

    G
  e|3----- 3----- 3----- 3-----|3----- 3----- 3----- 3-----|
  B|3------3------3------3-----|3------3------3------3-----|
  G|0------0------0------0-----|0------0------0------0-----|
  D|0------0------0------0-----|0------0------0------0-----|
  A|2------2------2------2-----|2------2------2------2-----|
  E|3------3------3------3-----|3------3------3------3-----|
    biggest    fool          that             hit    the big
                                ever
  e|------ ------ ------ ------|------ ------ ------ ------|
  B|---------------------------|---------------------------|
  G|---------------------------|---------------------------|
  D|---------------------------|0-------------0------------|
  A|5--------------------------|---------------------------|
  D|---------------------------|---------------------------|

    C
  e|0----- 0----- 0----- 0---0-|0----- 0---0- 0----- 0-----|
  B|1------1------1------1---1-|1------1---1--1------1-----|
  G|0------0------0------0---0-|0------0---0--0------0-----|
  D|2------2------2------2---2-|2------2---2--2------2-----|
  A|3------3------3------3---3-|3------3---3--3------3-----|
  E|---------------------------|---------------------------|
           time                                          and
  e|------ ------ ------ ------|------ ------ ------ ------|
  B|---------------------------|---------------------------|
  G|0------0----------0------0-|0------0----------0--------|
  D|------------0H2------------|------------0H2------------|
  A|---------------------------|---------------------------|
  D|---------------------------|---------------------------|

    D
  e|2----- 2----- 2----- 2-----|2----- 2---2- 2---2- 2-----|
  B|3------3------3------3-----|3------3---3--3---3--3-----|
  G|2------2------2------2-----|2------2---2--2---2--2-----|
  D|0------0------0------0-----|0------0---0--0---0--0-----|
  A|---------------------------|---------------------------|
  E|---------------------------|---------------------------|
    all I've   to do  is            act       naturally
            got
  e|------ ------ ------ ------|------ ------ ------ ------|
  B|---------------------------|-----------------------------|
  G|---------------------------|-------------------------3---|B
  D|---------------------------|-----------------------------|
  A|---------------------------|-----------------------------|
  D|---------------------------|-----------------------------|

    G
  e|3----- 3----- 3----- 3-----|3----- ------ ------ --------|
  B|3------3------3------3-----|3----------------------------|
  G|0------0------0------0-----|0----------------------------|
  D|0------0------0------0-----|0----------------------------|
  A|2------2------2------2-----|2----------------------------|
  E|3------3------3------3-----|3----------------------------|

  e|----0- ------ ------ ------|------ ------ ------ ------|
  B|------------2B3------------|---------------------------|
  G|4--------------------3B4---|0--------------------------|
  D|---------------------------|---------------------------|
  A|---------------------------|---------------------------|
  D|---------------------------|-------5------4------2-----|


    02:20
    D
  e|2----- 2----- ----2- ------|2----- ----2- 2---2- 2-----|
  B|3------3-------------------|3----------3--3---3--3-----|
  G|2------2----------2--------|2----------2--2---2--2-----|
  D|0------0----------0--------|0----------0--0---0--0-----|
  A|---------------------------|---------------------------|
  E|---------------------------|---------------------------|

  e|------ ------ ------ ------|------ ------ ------ ------|
  B|---------------------------|---------------------------|
  G|---------------------------|---------------------------|
  D|-------0-------------------|-------4----0-2---4--------|
  A|------------------3--------|---------------------------|
  D|0-----------6/7------------|0--------------------------|


                               (.
    G
  e|3----- 3----- 3----- 3-----|3----- ------ ------ ------|
  B|3------3------3------3-----|3--------------------------|
  G|0------0------0------0-----|0--------------------------|
  D|0------0------0------0-----|0--------------------------|
  A|2------2------2------2-----|2--------------------------|
  E|3------3------3------3-----|3--------------------------|

  e|------ ------ ------ ------|------ ------ ------ ------|
  B|---------------------------|---------------------------|
  G|---------------------------|---------------------------|
  D|5------5-------------------|---------------------------|
  A|--------------6B7----------|---------------------------|
  D|---------------------7B8---|5--------------------------|




        B  Bend
        R  Release
        /  slide up
        \  slide down
        H  hammer-on
        P  pull-off
        ~  vibrato
        +  harmonic
        x  Mute note
        . - play note like a dot in standard notation
        ^ - ties two notes together
        (. Pause


  ----------------------------------------------------------------

  THE BEATLES - IT'S ONLY LOVE (Lennon/McCartney) From HELP album.
                Released on August 6th 1965.

  ----------------------------------------------------------------

  Tabbed by:PJVillanueva


  I get high when I see you go by
  My oh my.
  When you sigh, my, my inside just flies,
  Butterflies
  Why am I so shy when I'm beside you?
  It's only love and that is all,
  Why should I feel the way I do?
  It's only love, and that is all,
  But it's so hard loving you.

  Is it right that you and I should fight
  Ev'ry night?
  Just the sight of you makes nighttime bright,
  Very bright.
  Haven't I the right to make it up girl?
  It's only love and that is all,
  Why should I feel the way I do?
  It's only love, and that is all
  But it's so hard loving you
  Yes it's so hard loving you
  loving you.


  Use a capo on the fifth fret.


e|------- ------- ------- -------|------- ------- ------- -------|
B|0---0-0-0---0---0-0-0---0---0--|0---0-0-0---0---0-0-0---0---0--|
G|0---0-0-0---0---0-0-0---0---0--|0---0-0-0---0---0-0-0---0---0--|
D|0---0-0-0---0---0-0-0---0---0--|2---2-2-2---2---2-2-2---2---2--|
A|2---2-2-2---2---2-2-2---2---2--|2---2-2-2---2---2-2-2---2---2--|
E|3---3-3-3---3---3-3-3---3---3--|0---0-0-0---0---0-0-0---0---0--|

e|------- ------- ------- -------|------- ------- ------- -------|
B|-------------------------------|-------------------------------|
G|0-----------0---0---0-------0--|-------------------------------|
D|5-----------4---2---0-------2--|-------------------------------|
A|5-----------5---5---5-------2--|-------------------------------|
E|-------------------------------|-------------------------------|


e|------- ------- ------- -------|------- ------- ------- -------|
B|0---0-0-0---0---0-0-0---0---0--|0---0-0-0---0---0-0-0---0---0--|
G|0---0-0-0---0---0-0-0---0---0--|0---0-0-0---0---0-0-0---0---0--|
D|0---0-0-0---0---0-0-0---0---0--|2---2-2-2---2---2-2-2---2---2--|
A|2---2-2-2---2---2-2-2---2---2--|2---2-2-2---2---2-2-2---2---2--|
E|3---3-3-3---3---3-3-3---3---3--|0---0-0-0---0---0-0-0---0---0--|

e|------- ------- ------- -------|------- ------- ------- -------|
B|-------------------------------|-------------------------------|
G|0-----------0---0---0-------0--|-------------------------------|
D|5-----------4---2---0-------2--|-------------------------------|
A|5-----------5---5---5-------2--|-------------------------------|
E|-------------------------------|-------------------------------|


e|------- ------- 2------ 2------|1---1-1 1---1-- 0------ 0------|
B|0---0-0-0---0---3-------3------|1---1-1-1---1---1-------1------|
G|0---0-0-0---0---4-------4------|2---2-2-2---2---2-------2------|
D|0---0-0-0---0---4-------4------|3---3-3-3---3---2-------2------|
A|2---2-2-2---2---2-------2------|3---3-3-3---3---0-------0------|
E|3---3-3-3---3------------------|1---1-1-1---1------------------|
  I       get     high    when    I       see     you     go
e|------- 3------ ----2-- ----2--|------- 1------ ----0-- ----0--|
B|--------3-----------3-------3--|--------1-----------1-------1--|
G|--------4-----------4-------4--|--------2-----------2-------2--|
D|-------------------------------|-------------------------------|
A|-------------------------------|-------------------------------|
E|-------------------------------|-------------------------------|


e|2---2-2 2---2-- 0------ 2------|2---2-2 2---2-- 0------ 2------|
B|3---3-3-3---3---3-------3------|3---3-3-3---3---3-------3------|
G|2---2-2-2---2---2-------2------|3---3-3-3---3---3-------3------|
D|0---0-0-0---0---0-------0------|4---4-4-4---4---4-------4------|
A|-------------------------------|-------------------------------|
E|-------------------------------|-------------------------------|
  by                                      My  oh  my
e|------- 2------ ----0-- ----2--|------- 2------ ----0-- ----2--|
B|--------3-----------3-------3--|--------3-----------3-------3--|
G|--------2-----------2-------2--|--------3-----------3-------3--|
D|-------------------------------|-------------------------------|
A|-------------------------------|-------------------------------|
E|-------------------------------|-------------------------------|

e|------- ------- ------- -------|------- ------- ------- -------|
B|-------------------------------|-------------------------------|
G|-------------------------------|-------------------------------|
D|5-----------4B5R4--------------|-------------------------------|
A|-------------------------------|-------------------------------|
E|-------------------------------|-------------------------------|


e|------- ------- 2------ 2------|1-----1 1---1-- 0------ 0---0--|
B|0-----0-0---0---3-------3------|1-----1-1---1---1-------1---1--|
G|0-----0-0---0---4-------4------|2-----2-2---2---2-------2---2--|
D|0-----0-0---0---4-------4------|3-----3-3---3---2-------2---2--|
A|2-----2-2---2---2-------2------|3-----3-3---3---0-------0---0--|
E|3-----3-3---3------------------|1-----1-1---1------------------|
  When    you     sigh    My      my      in......side    just
e|------- 3------ ----2-- ----2--|------- 1------ ----0-- ----0--|
B|--------3-----------3-------3--|--------1-----------1-------1--|
G|--------4-----------4-------4--|--------2-----------2-------2--|
D|-------------------------------|-------------------------------|
A|-------------------------------|-------------------------------|
E|-------------------------------|-------------------------------|


e|2---2-2 2---2-- 0------ 2---0--|2---2-2 2---2-- 0------ 2---2--|
B|3---3-3-3---3---3-------3---3--|3---3-3-3---3---3-------3---3--|
G|2---2-2-2---2---2-------2---2--|3---3-3-3---3---3-------3---3--|
D|0---0-0-0---0---0-------0---0--|4---4-4-4---4---4-------4---4--|
A|-------------------------------|-------------------------------|
E|-------------------------------|-------------------------------|
  flies                                   butterflies
e|------- 2------ ----0-- ----2--|------- 2------ ----0-- ----2--|
B|--------3-----------3-------3--|--------3-----------3-------3--|
G|--------2-----------2-------2--|--------3-----------3-------3--|
D|-------------------------------|-------------------------------|
A|-------------------------------|-------------------------------|
E|-------------------------------|-------------------------------|

e|------- ------- ------- -------|------- ------- ------- -------|
B|-------------------------------|-------------------------------|
G|-------------------------------|-------------------------------|
D|5-----------4B5R4--------------|-------------------------------|
A|-------------------------------|-------------------------------|
E|-------------------------------|-------------------------------|


e|3-----3 3---3-- 3---3-- 3---3--|2-----2 2---2-- 2---2-- 2---2--|
B|1-----1-1---1---1---1---1---1--|3-----3-3---3---3---3---3---3--|
G|0-----0-0---0---0---0---0---0--|2-----2-2---2---2---2---2---2--|
D|2-----2-2---2---2---2---2---2--|0-----0-0---0---0---0---0---0--|
A|3-----3-3---3---3---3---3---3--|-------------------------------|
E|-------------------------------|-------------------------------|
  Why         am  I       so  shy                 when I'm    be..
e|------- 0------ ----0-- ----0--|------- 2------ ----2-- ----2--|
B|--------1-----------1-------1--|--------3-----------3-------3--|
G|--------0-----------0-------0--|--------2-----------2-------2--|
D|-------------------------------|-------------------------------|
A|-------------------------------|-------------------------------|
E|-------------------------------|-------------------------------|


e|3-----3 3---3-- 3---3-- 3---3--|0-----0 0---0-- 0---0-- 0---0--|
B|3-----3-3---3---3---3---3---3--|0-----0-0---0---0---0---0---0--|
G|0-----0-0---0---0---0---0---0--|0-----0-0---0---0---0---0---0--|
D|0-----0-0---0---0---0---0---0--|2-----2-2---2---2---2---2---2--|
A|2-----2-2---2---2---2---2---2--|2-----2-2---2---2---2---2---2--|
E|3-----3-3---3---3---3---3---3--|0-----0-0---0---0---0---0---0--|
  side            you                             It's  on....ly
e|------- 3------ ----3-- ----3--|------- 0------ ----0-- ----0--|
B|--------3-----------3-------3--|--------0-----------0-------0--|
G|--------4-----------4-------4--|--------0-----------0-------0--|
D|-------------------------------|-------------------------------|
A|-------------------------------|-------------------------------|
E|-------------------------------|-------------------------------|

e|------- ------- ------- -------|------- ------- ------- -------|
B|-------------------------------|-------------------------------|
G|0-----------0---0---0-------0--|-------------------------------|
D|5-----------4---2---0-------2--|-------------------------------|
A|5-----------5---5---5-------2--|-------------------------------|
E|-------------------------------|-------------------------------|


e|1-----1 1---1-- 1---1-- 1---1--|2---2-2 2---2-- 2---2-- 2---2--|
B|1-----1-1---1---1---1---1---1--|3---3-3-3---3---3---3---3---3--|
G|2-----2-2---2---2---2---2---2--|2---2-2-2---2---2---2---2---2--|
D|3-----3-3---3---3---3---3---3--|0---0-0-0---0---0---0---0---0--|
A|3-----3-3---3---3---3---3---3--|-------------------------------|
E|1-----1-1---1---1---1---1---1--|-------------------------------|
  love        and that is     all                 Why  should I feel


e|3-----3 3---3-- 3---3-- 3---3--|0-----0 0---0-- 0---0-- 0---0--|
B|3-----3-3---3---3---3---3---3--|0-----0-0---0---0---0---0---0--|
G|0-----0-0---0---0---0---0---0--|0-----0-0---0---0---0---0---0--|
D|0-----0-0---0---0---0---0---0--|2-----2-2---2---2---2---2---2--|
A|2-----2-2---2---2---2---2---2--|2-----2-2---2---2---2---2---2--|
E|3-----3-3---3---3---3---3---3--|0-----0-0---0---0---0---0---0--|
              the way I       do                  It's on.....ly
e|------- ------- ------- -------|------- ------- ------- -------|
B|-------------------------------|-------------------------------|
G|0-----------0---0---0-------0--|-------------------------------|
D|5-----------4---2---0-------2--|-------------------------------|
A|5-----------5---5---5-------2--|-------------------------------|
E|-------------------------------|-------------------------------|


e|1-----1 1---1-- 1---1-- 1---1--|2---2-2 2---2-- 2---2-- 2---2--|
B|1-----1-1---1---1---1---1---1--|3---3-3-3---3---3---3---3---3--|
G|2-----2-2---2---2---2---2---2--|2---2-2-2---2---2---2---2---2--|
D|3-----3-3---3---3---3---3---3--|0---0-0-0---0---0---0---0---0--|
A|3-----3-3---3---3---3---3---3--|-------------------------------|
E|1-----1-1---1---1---1---1---1--|-------------------------------|
  love        and that is     all                 But it's    so


e|3-----3 3---3-- 3---3-- 3---3--|2-----2 2---2-- 2---2-- 2---2--|
B|1-----1-1---1---1---1---1---1--|3-----3-3---3---3---3---3---3--|
G|0-----0-0---0---0---0---0---0--|2-----2-2---2---2---2---2---2--|
D|2-----2-2---2---2---2---2---2--|0-----0-0---0---0---0---0---0--|
A|3-----3-3---3---3---3---3---3--|-------------------------------|
E|-------------------------------|-------------------------------|
  hard                    loving you


e|------- ------- 2------ 2------|1---1-1 1---1-- 0------ 0------|
B|0-----0-0---0---3-------3------|1---1-1-1---1---1-------1------|
G|0-----0-0---0---4-------4------|2---2-2-2---2---2-------2------|
D|0-----0-0---0---4-------4------|3---3-3-3---3---2-------2------|
A|2-----2-2---2---2-------2------|3---3-3-3---3---0-------0------|
E|3-----3-3---3------------------|1---1-1-1---1------------------|
  Is      it      right   that    you     and     I       should
e|------- 3------ ----2-- ----2--|------- 1------ ----0-- ----0--|
B|--------3-----------3-------3--|--------1-----------1-------1--|
G|--------4-----------4-------4--|--------2-----------2-------2--|
D|-------------------------------|-------------------------------|
A|-------------------------------|-------------------------------|
E|-------------------------------|-------------------------------|


e|2---2-2 2---2-- 0------ 2------|2---2-2 2---2-- 0------ 2------|
B|3---3-3-3---3---3-------3------|3---3-3-3---3---3-------3------|
G|2---2-2-2---2---2-------2------|3---3-3-3---3---3-------3------|
D|0---0-0-0---0---0-------0------|4---4-4-4---4---4-------4------|
A|-------------------------------|-------------------------------|
E|-------------------------------|-------------------------------|
  fight                                   ev'ry   night
e|------- 2------ ----0-- ----2--|------- 2------ ----0-- ----2--|
B|--------3-----------3-------3--|--------3-----------3-------3--|
G|--------2-----------2-------2--|--------3-----------3-------3--|
D|-------------------------------|-------------------------------|
A|-------------------------------|-------------------------------|
E|-------------------------------|-------------------------------|

e|------- ------- ------- -------|------- ------- ------- -------|
B|-------------------------------|-------------------------------|
G|-------------------------------|3------------------------------|
D|5-----------4B5R4--------------|------------------------4------|
A|-------------------------------|-------------------------------|
E|-------------------------------|-------------------------------|


e|------- ------- 2------ 2------|1-----1 1---0-- 0------ 0------|
B|0-----0-0-------3-------3------|1-----1-1---1---1-------1------|
G|0-----0-0-------4-------4------|2-----2-2---2---2-------2------|
D|0-----0-0-------4-------4------|3-----3-3---2---2-------2------|
A|2-----2-2-------2-------2------|3-----3-3---0---0-------0------|
E|3-----3-3----------------------|1-----1-1----------------------|
  Just    the     sight   of      you     makes   night   time
e|------- 3------ ----2-- ----2--|------- 1------ ----0-- ----0--|
B|--------3-----------3-------3--|--------1-----------1-------1--|
G|--------4-----------4-------4--|--------2-----------2-------2--|
D|-------------------------------|-------------------------------|
A|-------------------------------|-------------------------------|
E|-------------------------------|-------------------------------|


e|2---2-2 2---2-- 0------ 2---2--|----2-- ----2-- 0---0-- ----2--|
B|3---3-3-3---3---3-------3---3--|----3-------3---3---3-------3--|
G|2---2-2-2---2---2-------2---2--|----3-------3---3---3-------3--|
D|0---0-0-0---0---0-------0---0--|----4-------4---4---4-------4--|
A|-------------------------------|-------------------------------|
E|-------------------------------|-------------------------------|
  bright                                  very bright
e|------- 2------ ----0-- ----2--|------- 2------ ----0-- ----2--|
B|--------3-----------3-------3--|--------3-----------3-------3--|
G|--------2-----------2-------2--|--------3-----------3-------3--|
D|-------------------------------|-------------------------------|
A|-------------------------------|-------------------------------|
E|-------------------------------|-------------------------------|

e|------- ------- ------- -------|------- ------- ------- -------|
B|-------------------------------|-------------------------------|
G|----------------------------3--|----3-------------------2------|
D|4-----------5-R-4--------------|----------------4--------------|
A|-------------------------------|-------------------------------|
E|-------------------------------|-------------------------------|


e|3-----3 3---3-- 3---3-- 3---3--|2-----2 2---2-- 2---2-- 2---2--|
B|1-----1-1---1---1---1---1---1--|3-----3-3---3---3---3---3---3--|
G|0-----0-0---0---0---0---0---0--|2-----2-2---2---2---2---2---2--|
D|2-----2-2---2---2---2---2---2--|0-----0-0---0---0---0---0---0--|
A|3-----3-3---3---3---3---3---3--|-------------------------------|
E|-------------------------------|-------------------------------|
  Haven't     I           the right               to  make    it
e|------- 0------ ----0-- ----0--|------- 2------ ----2-- ----3--|
B|--------1-----------1-------1--|--------3-----------3-------3--|
G|--------0-----------0-------0--|--------2-----------2-------4--|
D|-------------------------------|-------------------------------|
A|-------------------------------|-------------------------------|
E|-------------------------------|-------------------------------|


e|3-----3 3---3-- 3---3-- 3---3--|0-----0 0---0-- 0---0-- 0---0--|
B|3-----3-3---3---3---3---3---3--|0-----0-0---0---0---0---0---0--|
G|0-----0-0---0---0---0---0---0--|0-----0-0---0---0---0---0---0--|
D|0-----0-0---0---0---0---0---0--|2-----2-2---2---2---2---2---2--|
A|2-----2-2---2---2---2---2---2--|2-----2-2---2---2---2---2---2--|
E|3-----3-3---3---3---3---3---3--|0-----0-0---0---0---0---0---0--|
  up girl                                         It's on.....ly
e|------- 3------ ----3-- ----3--|------- 0------ ----0-- ----0--|
B|--------3-----------3-------3--|--------0-----------0-------0--|
G|--------4-----------4-------4--|--------0-----------0-------0--|
D|-------------------------------|-------------------------------|
A|-------------------------------|-------------------------------|
E|-------------------------------|-------------------------------|

e|------- ------- ------- -------|------- ------- ------- -------|
B|-------------------------------|-------------------------------|
G|0-----------0---0---0-------0--|-------------------------------|
D|5-----------4---2---0-------2--|-------------------------------|
A|5-----------5---5---5-------2--|-------------------------------|
E|-------------------------------|-------------------------------|


e|1-----1 1---1-- 1---1-- 1---1--|2-----2 2---2-- 2---2-- 2---2--|
B|1-----1-1---1---1---1---1---1--|3-----3-3---3---3---3---3---3--|
G|2-----2-2---2---2---2---2---2--|2-----2-2---2---2---2---2---2--|
D|3-----3-3---3---3---3---3---3--|0-----0-0---0---0---0---0---0--|
A|3-----3-3---3---3---3---3---3--|-------------------------------|
E|1-----1-1---1---1---1---1---1--|-------------------------------|
  love        and that is     all                 Why should I feel

e|3-----3 3---3-- 3---3-- 3---0--|0-----0 0---0-- 0---0-- 0---0--|
B|3-----3-3---3---3---3---3---0--|0-----0-0---0---0---0---0---0--|
G|0-----0-0---0---0---0---0---0--|0-----0-0---0---0---0---0---0--|
D|0-----0-0---0---0---0---0---2--|2-----2-2---2---2---2---2---2--|
A|2-----2-2---2---2---2---2---2--|2-----2-2---2---2---2---2---2--|
E|3-----3-3---3---3---3---3---0--|0-----0-0---0---0---0---0---0--|
              the way I       do                  It's on.....ly
e|------- ------- ------- -------|------- ------- ------- -------|
B|-------------------------------|-------------------------------|
G|0-----------0---0---0-------0--|-------------------------------|
D|5-----------4---2---0-------2--|-------------------------------|
A|5-----------5---5---5-------2--|-------------------------------|
E|-------------------------------|-------------------------------|


e|1-----1 1---1-- 1---1-- 1---1--|2---2-2 2---2-- 2---2-- 2---3--|
B|1-----1-1---1---1---1---1---1--|3---3-3-3---3---3---3---3---1--|
G|2-----2-2---2---2---2---2---2--|2---2-2-2---2---2---2---2---0--|
D|3-----3-3---3---3---3---3---3--|0---0-0-0---0---0---0---0---2--|
A|3-----3-3---3---3---3---3---3--|----------------------------3--|
E|1-----1-1---1---1---1---1---1--|-------------------------------|
  love        and that is     all                 But  it's   so

e|3-----3 3---3-- 3---3-- 3---3--|2-----2 2---2-- 2---2-- 2---2--|
B|1-----1-1---1---1---1---1---1--|3-----3-3---3---3---3---3---3--|
G|0-----0-0---0---0---0---0---0--|2-----2-2---2---2---2---2---2--|
D|2-----2-2---2---2---2---2---2--|0-----0-0---0---0---0---0---0--|
A|3-----3-3---3---3---3---3---3--|-------------------------------|
E|-------------------------------|-------------------------------|
  hard                    loving you,                 yes     it's

e|3-----3 3---3-- 3---3-- 3---3--|2-----2 2---2-- 2---2-- 2---2--|
B|1-----1-1---1---1---1---1---1--|3-----3-3---3---3---3---3---3--|
G|0-----0-0---0---0---0---0---0--|2-----2-2---2---2---2---2---2--|
D|2-----2-2---2---2---2---2---2--|0-----0-0---0---0---0---0---0--|
A|3-----3-3---3---3---3---3---3--|-------------------------------|
E|-------------------------------|-------------------------------|
  so hard                 loving  you                     loving

e|3-----3 3---3-- 3---3-- 3---0--|0-----0 0---0-- 0---0-- 0---0--|
B|3-----3-3---3---3---3---3---0--|0-----0-0---0---0---0---0---0--|
G|0-----0-0---0---0---0---0---0--|0-----0-0---0---0---0---0---0--|
D|0-----0-0---0---0---0---0---2--|2-----2-2---2---2---2---2---2--|
A|2-----2-2---2---2---2---2---2--|2-----2-2---2---2---2---2---2--|
E|3-----3-3---3---3---3---3---0--|0-----0-0---0---0---0---0---0--|
  you ...
e|------- ------- ------- -------|------- ------- ------- -------|
B|-------------------------------|-------------------------------|
G|0-----------0---0---0-------0--|------------0-------0-------0--|
D|5-----------4---2---0-------2--|------------0-------2-------4--|
A|5-----------5---5---5-------2--|------------2-------2-------2--|
E|-------------------------------|-------------------------------|


e|3-----3 3---3-- 3---3-- 3---0--|0-----0 0---0-- 0---0-- 0---0--|
B|3-----3-3---3---3---3---3---0--|0-----0-0---0---0---0---0---0--|
G|0-----0-0---0---0---0---0---0--|0-----0-0---0---0---0---0---0--|
D|0-----0-0---0---0---0---0---2--|2-----2-2---2---2---2---2---2--|
A|2-----2-2---2---2---2---2---2--|2-----2-2---2---2---2---2---2--|
E|3-----3-3---3---3---3---3---0--|0-----0-0---0---0---0---0---0--|

e|------- ------- ------- -------|------- ------- ------- -------|
B|-------------------------------|-------------------------------|
G|0-----------0---0---0-------0--|------------0-------0-------0--|
D|5-----------4---2---0-------2--|------------0-------2-------4--|
A|5-----------5---5---5-------2--|------------2-------2-------2--|
E|-------------------------------|-------------------------------|


e|3-----3 3---3-- 3---3-- 3---0--|0-----0 0---0-- 0---0-- 0---0--|
B|3-----3-3---3---3---3---3---0--|0-----0-0---0---0---0---0---0--|
G|0-----0-0---0---0---0---0---0--|0-----0-0---0---0---0---0---0--|
D|0-----0-0---0---0---0---0---2--|2-----2-2---2---2---2---2---2--|
A|2-----2-2---2---2---2---2---2--|2-----2-2---2---2---2---2---2--|
E|3-----3-3---3---3---3---3---0--|0-----0-0---0---0---0---0---0--|

e|------- ------- ------- -------|------- ------- ------- -------|
B|-------------------------------|-------------------------------|
G|0-----------0---0---0-------0--|------------0-------0-------0--|
D|5-----------4---2---0-------2--|------------0-------2-------4--|
A|5-----------5---5---5-------2--|------------2-------2-------2--|
E|-------------------------------|-------------------------------|


  (.

e|3------ ------- ------- -------|------- ------- ------- -------|
B|3------------------------------|-------------------------------|
G|0------------------------------|-------------------------------|
D|0------------------------------|-------------------------------|
A|2------------------------------|-------------------------------|
E|3------------------------------|-------------------------------|

e|------- ------- ------- -------|------- ------- ------- -------|
B|-------------------------------|-------------------------------|
G|0------------------------------|-------------------------------|
D|5------------------------------|-------------------------------|
A|5------------------------------|-------------------------------|
E|-------------------------------|-------------------------------|




        B  Bend
        R  Release
        /  slide up
        \  slide down
        H  hammer-on
        P  pull-off
        ~  vibrato
        +  harmonic
        x  Mute note
        . - play note like a dot in standard notation
        ^ - ties two notes together
        (. Pause


   -------------------------------------------------------

   THE BEATLES - YOU LIKE ME TOO MUCH (Harrison) From HELP 
                 album. Released on August, 6th, 1965.

   -------------------------------------------------------

   Tabbed by:PJVillanueva



                            
   
   The intro is played by George Martin on piano and John
   on The Hohner electric piano with vibrato (Martin also
   plays in the solo, answering George's two track guitar 
   solo). John also plays his J-160 for rhythm and George
   plays tambourine in the bridges, solo and final G chord. 
   The title is rather naive and I suppose the song is too
   but the bridge's first line and the last two transition 
   measures - "If you leave me" - have some good chromatic 
   motion. Ringo's playing is austere, though he manages 
   some good fills. John sounds disinterested at first ¿?
   in his rhythm guitar playing but he ends warm and good. 
   I must say the lyrics are weak and the verses lines are 
   long and hardly leave room to breathe. The song, though, 
   is not bad, being only George's third attempt.





   Though you've gone away this morning
   You'll be back again tonight
   Telling me there'll be no next time
   If I just don't treat you right

   You'll never leave me and you know it's true
   'cause you like me too much and I like you.

   You've tried before to leave me, 
   But you haven't got the nerve
   To walk out and make me lonely,
   Which is all that I deserve

   You'll never leave me and you know it's true
   'cause you like me too much and I like you.

   I really do 
   And it's nice when you believe me
   If you leave me 

   I will follow you 
   And bring you back where you belong
   'cause I could't really stand it
   I admit that I was wrong
   I wouldn't let you leave me 'cause it's true
   'cause you like me too much and I like you.

                  SOLO

   'cause you like me too much and I like you.
   I really do, and it's nice when you believe me
   If you leave me 

   I will follow you 
   and bring you back where you belong
   'cause I could't really stand it
   I admit that I was wrong

   I wouldn't let you leave me 'cause it's true
   'cause you like me too much and I like you,
   'cause you like me too much and I like you.





    INTRO

  e|------- ------- ------- -------|------- ------- ------- -------|
  B|-------------------------------|---------------------0--1----2-|
  G|-------------------------------|---------------------0--2----3-|
  D|-------------------------------|-------------------------------|
  A|-------------------------------|-------------------------------|
  E|-------------------------------|-------------------------------|




  e|------- ------- ------- -------|------- ------- ------- -------|
  B|-3-3-3-3-3-3-5-5-3-3-3-3-5-5-5-|-6-6-6-6-6-6-6---6-6-6-6-5-5-5-|
  G/4-4-4-4-4-4-5-5-4-4-4-4-5-5-5-5|7-7-7-7-7-7-7---7-7-7-7-5-5-5-5|
  D|-------------------------------|-------------------------------|
  A|-------------------------------|-------------------------------|
  E|-------------------------------|-------------------------------|
    G7                              Gm              D7
  e|------- ------- ------- -------|------- ------- ------- -------|
  B|6------------------------------|3---------------1--------------|
  G|4------------------------------|3---------------2--------------|
  D|5------------------------------|5---------------4--------------|
  A|-------------------------------|-------------------------------|
  E|3------------------------------|6------------------------------|


     (.
    G
  e|--7---- ------- -------|
  B|--8--------------------|
  G|--7--------------------|
  D/9----------------------|
  A|-----------------------|
  E|-----------------------|

  e|------- ------- -------|
  B|3----------------------|
  G|3H4--------------------|
  D|5----------------------|
  A|-----------------------|
  E|3----------------------|
                    Though
                        you've

    VERSE
    00:09
    Am                  
  e|0------ 0---0-- 0---0-- 0---0--|0------ 0------ ------- -------|
  B|1-------1---1---1---1---1---1--|1-------1----------------------|
  G|2-------2---2---2---2---2---2--|2-------2----------------------|
  D|2-------2---2---2---2---2---2--|2-------2----------------------|
  A|0-------0---0---0---0---0---0--|0-------0----------------------|
  E|-------------------------------|-------------------------------|

  e|------- ------- ------- -------|------- ------- ------- -------|
  B|5-----------5------------------|5-----------5------------------|
  G|5-----------5------------------|5-----------5------------------|
  D|7-----------7------------------|7-----------7------------------|
  A|-------------------------------|-------------------------------|
  E|-------------------------------|-------------------------------|
    gone    away        this    morning         You'll  be      back 


            C                       G
  e|------- 0---0-- 0---0-- 0------|3------ 3---3-- 3---3-- 3------|
  B|--------1---1---1---1---1------|3-------3---3---3---3---3------|
  G|--------0---0---0---0---0------|0-------0---0---0---0---0------|
  D|--------2---2---2---2---2------|0-------0---0---0---0---0------|
  A|--------3---3---3---3---3------|2-------2---2---2---2---2------|
  E|-------------------------------|3-------3---3---3---3---3------|

  e|3------ ----3-- ------- -------|------- ------- ------- -------|
  B|5-----------5------------------|3-----------3------------------|
  G|5-----------5------------------|4-----------4------------------|
  D|------------5------------------|5-----------5------------------|
  A|-------------------------------|-------------------------------|
  E|-------------------------------|-------------------------------|
        again               tonight                 telling     me


    Am
  e|0------ 0---0-- 0---0-- 0------|0------ 0---0-- ----0-- 0------|
  B|1-------1---1---1---1---1------|1-------1---1-------1---1------|
  G|2-------2---2---2---2---2------|2-------2---2-------2---2------|
  D|2-------2---2---2---2---2------|2-------2---2-------2---2------|
  A|0-------0---0---0---0---0------|0-------0---0-------0---0------|
  E|-------------------------------|-------------------------------|

  e|------- ------- ------- -------|------- ------- ------- -------|
  B|5-----------5------------------|5-----------5------------------|
  G|5-----------5------------------|5-----------5------------------|
  D|7-----------7------------------|7-----------7------------------|
  A|-------------------------------|-------------------------------|
  E|-------------------------------|-------------------------------|
           there'll be  no      next    time        If  I       just 


    C                               G
  e|0------ 0---0-- 0---0-- 0------|3------ 3------ 3---3-- 3---3--|
  B|1-------1---1---1---1---1------|3-------3-------3---3---3---3--|
  G|0-------0---0---0---0---0------|0-------0-------0---0---0---0--|
  D|2-------2---2---2---2---2------|0-------0-------0---0---0---0--|
  A|3-------3---3---3---3---3------|2-------2-------2---2---2---2--|
  E|-------------------------------|3-------3-------3---3---3---3--|

  e|3------ ----3-- ------- -------|------- ------- ------- -------|
  B|5-----------5------------------|3-----------3------------------|
  G|5-----------5------------------|4-----------4------------------|
  D|------------5------------------|5-----------5------------------|
  A|-------------------------------|-------------------------------|
  E|-------------------------------|-------------------------------|
            don't   treat   you right                       You'll

    00:20
    Bm
  e|2------ 2---2-- 2---2-- 2------|2------ 2---2-- 2---2-- 2------|
  B|3-------3---3---3---3---3------|3-------3---3---3---3---3------|
  G|4-------4---4---4---4---4------|4-------4---4---4---4---4------|
  D|4-------4---4---4---4---4------|4-------4---4---4---4---4------|
  A|2-------2---2---2---2---2------|2-------2---2---2---2---2------|
  E|-------------------------------|-------------------------------|
                                    Bm7
  e|------- ------- ------- -------|------- ------- ------- -------|
  B|7-----------7------------------10----------10------------------|
  G|7-----------7------------------|7-----------7------------------|
  D|9-----------9------------------|9-----------9------------------|
  A|-------------------------------|-------------------------------|
  E|-------------------------------|-------------------------------|
    never       leave   me      and         you know    it's


                                                    REFRAIN
    D7
  e|2------ 2---2-- 2---2-- 2---2--|2------ 2------ 2------ 2------|
  B|1-------1---1---1---1---1---1--|1-------1-------1-------1------|
  G|2-------2---2---2---2---2---2--|2-------2-------2-------2------|
  D|0-------0---0---0---0---0---0--|0-------0-------0-------0------|
  A|-------------------------------|-------------------------------|
  E|-------------------------------|-------------------------------|

  e|------- ------- ------- -------|------- ------- ------- -------|
  B|7-----------7------------------|7-----------7------------------|
  G|5-----------5------------------|5-----------5------------------|
  D|7-----------7------------------|7-----------7------------------|
  A|-------------------------------|-------------------------------|
  E|-------------------------------|-------------------------------|
    true                                           'cause   you


    G                               C
  e|3------ 3---3-- 3---3-- 3------|0------ 0---0-- 0---0-- 0------|
  B|3-------3---3---3---3---3------|1-------1---1---1---1---1------|
  G|0-------0---0---0---0---0------|0-------0---0---0---0---0------|
  D|0-------0---0---0---0---0------|2-------2---2---2---2---2------|
  A|2-------2---2---2---2---2------|3-------3---3---3---3---3------|
  E|3-------3---3---3---3---3------|-------------------------------|

  e|------- ------- ------- -------|------- ------- ------- -------|
  B|3-----------3------------------|-------------------------------|
  G|4-----------4------------------|0-----------0------------------|
  D|5-----------5------------------|2-----------2------------------|
  A|-------------------------------|3-----------3------------------|
  E|-------------------------------|-------------------------------|
    like        me      too     much        and I       like    you


    D
  e|2------ 2---2-- 2---2-- 2---2--|2------ 2---2-- 2---2-- 2------|
  B|3-------3---3---3---3---3---3--|3-------3---3---3---3---3------|
  G|2-------2---2---2---2---2---2--|2-------2---2---2---2---2------|
  D|0-------0---0---0---0---0---0--|0-------0---0---0---0---0------|
  A|-------------------------------|-------------------------------|
  E|-------------------------------|-------------------------------|

  e|------- ------- ------- -------|------- ------- ------- -------|
  B|-------------------------------|-------------------------------|
  G|2-----------4------------------|2-----------4------------------|
  D|4-----------4------------------|4-----------4------------------|
  A|5-----------5------------------|5-----------5------------------|
  E|-------------------------------|-------------------------------|
                                                            You've  

    VERSE
    00:31

  e|0------ 0---0-- 0------ 0------|0---0-- 0------ 0---0-- -------|
  B|1-------1---1---1-------1------|1---1---1-------1---1----------|
  G|2-------2---2---2-------2------|2---2---2-------2---2----------|
  D|2-------2---2---2-------2------|2---2---2-------2---2----------|
  A|0-------0---0---0-------0------|0---0---0-------0---0----------|
  E|-------------------------------|-------------------------------|

  e|------- ------- ------- -------|3------ ----3-- ------- -------|
  B|5-----------5------------------|5-----------5------------------|
  G|5-----------5------------------|5-----------5------------------|
  D|7-----------7------------------|-------------------------------|
  A|-------------------------------|-------------------------------|
  E|-------------------------------|-------------------------------|
    tried   before      to      leave   me,     but     you



  e|3---3-- 3------ 3------ -------|3------ 3------ 3---3-- 3---3--|
  B|0---0---0-------0--------------|0-------0-------0---0---0---0--|
  G|0---0---0-------0--------------|0-------0-------0---0---0---0--|
  D|0---0---0-------0--------------|0-------0-------0---0---0---0--|
  A|2---2---2-------2--------------|2-------2-------2---2---2---2--|
  E|3---3---3-------3--------------|3-------3-------3---3---3---3--|

  e|7------ ----7-- ------- -------|------- ------- ------- -------|
  B|8-----------8------------------|3-----------3------------------|
  G|9-----------9------------------|4-----------4------------------|
  D10----------10------------------|5-----------5------------------|
  A|-------------------------------|-------------------------------|
  E|-------------------------------|-------------------------------|
    haven't     got     the     nerve               To  walk    out 



  e|0------ 0------ 0------ ----0--|0------ 0------ 0------ 0------|
  B|1-------1-------1-----------1--|1-------1-------1-------1------|
  G|2-------2-------2-----------2--|2-------2-------2-------2------|
  D|2-------2-------2-----------2--|2-------2-------2-------2------|
  A|0-------0-------0-----------0--|0-------0-------0-------0------|
  E|-------------------------------|-------------------------------|

  e|------- ------- ------- -------|------- ------- ------- -------|
  B|5-----------5------------------|5-----------5------------------|
  G|5-----------5------------------|5-----------5------------------|
  D|7-----------7------------------|7-----------7------------------|
  A|-------------------------------|-------------------------------|
  E|-------------------------------|-------------------------------|
            and     make    me  lonely          Which   is      all 



  e|3------ 3------ 3---3-- 3------|1------ 1------ 1---1-- 1------|
  B|0-------0-------0---0---0------|2-------2-------2---2---2------|
  G|0-------0-------0---0---0------|0-------0-------0---0---0------|
  D|0-------0-------0---0---0------|0-------0-------0---0---0------|
  A|2-------2-------2---2---2------|2-------2-------2---2---2------|
  E|3-------3-------3---3---3------|3-------3-------3---3---3------|

  e|3------ ----3-- ------- -------|------- ------- ------- -------|
  B|5-----------5------------------|6-----------6------------------|
  G|5-----------5------------------|4-----------4------------------|
  D|-------------------------------|5-----------5------------------|
  A|-------------------------------|-------------------------------|
  E|-------------------------------|-------------------------------|
            that        deserve                             You'll
                I
    00:42

  e|2------ 2---2-- 2---2-- 2------|2------ 2---2-- 2------ 2---2--|
  B|3-------3---3---3---3---3------|3-------3---3---3-------3---3--|
  G|4-------4---4---4---4---4------|4-------4---4---4-------4---4--|
  D|4-------4---4---4---4---4------|4-------4---4---4-------4---4--|
  A|2-------2---2---2---2---2------|2-------2---2---2-------2---2--|
  E|-------------------------------|-------------------------------|

  e|------- ------- ------- -------|------- ------- ------- -------|
  B10----------10------------------10----------10------------------|
  G|7-----------7------------------|7-----------7------------------|
  D|9-----------9------------------|9-----------9------------------|
  A|-------------------------------|-------------------------------|
  E|-------------------------------|-------------------------------|
    never       leave   me      and         you know    it's


                                                    REFRAIN

  e|2------ 2------ 2---2-- 2------|2------ 2------ 2------ 2------|
  B|1-------1-------1---1---1------|1-------1-------1-------1------|
  G|2-------2-------2---2---2------|2-------2-------2-------2------|
  D|0-------0-------0---0---0------|0-------0-------0-------0------|
  A|-------------------------------|-------------------------------|
  E|-------------------------------|-------------------------------|

  e|------- ------- ------- -------|------- ------- ------- -------|
  B|7-----------7------------------|7-----------7------------------|
  G|5-----------5------------------|5-----------5------------------|
  D|7-----------7------------------|7-----------7------------------|
  A|-------------------------------|-------------------------------|
  E|-------------------------------|-------------------------------|
    true                                           'cause   you



  e|3------ 3---3-- 3------ 3------|0------ 0---0-- 0------ 0------|
  B|3-------3---3---3-------3------|1-------1---1---1-------1------|
  G|0-------0---0---0-------0------|0-------0---0---0-------0------|
  D|0-------0---0---0-------0------|2-------2---2---2-------2------|
  A|2-------2---2---2-------2------|3-------3---3---3-------3------|
  E|3-------3---3---3-------3------|-------------------------------|

  e|------- ------- ------- -------|------- ------- ------- -------|
  B|6-----------6------------------|-------------------------------|
  G|4-----------4------------------|0-----------0------------------|
  D|5-----------5------------------|2-----------2------------------|
  A|-------------------------------|3-----------3------------------|
  E|-------------------------------|-------------------------------|
    like        me      too     much        and I       like    you



  e|2------ 2------ 2---2-- 2------|2------ 2---2-- 2---2-- 2------|
  B|3-------3-------3---3---3------|3-------3---3---3---3---3------|
  G|2-------2-------2---2---2------|2-------2---2---2---2---2------|
  D|0-------0-------0---0---0------|0-------0---0---0---0---0------|
  A|-------------------------------|-------------------------------|
  E|-------------------------------|-------------------------------|

  e|------- ------- ------- -------|------- ------- ------- -------|
  B|-------------------------------|1-----------1-----------1------|
  G|2-----------2------------------|2-----------2-----------2------|
  D|4-----------4------------------|4-----------4-----------4------|
  A|5-----------5------------------|-------------------------------|
  E|-------------------------------|-------------------------------|


    MIDDLE EIGHT
    00:53
    Em
  e|0------ 0---0-- 0---0-- 0------|0------ 0------ 0---0-- 0------|
  B|0-------0---0---0---0---0------|0-------0-------0---0---0------|
  G|0-------0---0---0---0---0------|0-------0-------0---0---0------|
  D|2-------2---2---2---2---2------|2-------2-------2---2---2------|
  A|2-------2---2---2---2---2------|2-------2-------2---2---2------|
  E|0-------0---0---0---0---0------|0-------0-------0---0---0------|

  e|------- ------- ------- -------|------- ------- ------- -------|
  B|0-------0-----------0----------|0-----------0-------0----------|
  G|0-------0-----------0----------|0-----------0-------0----------|
  D|2-------2-----------2----------|2-----------2-------2----------|
  A|-------------------------------|-------------------------------|
  E|-------------------------------|-------------------------------|
    I                               really                      do

  
    A
  e|0------ 0------ 0---0-- 0---0--|0------ 0------ 0---0-- 0------|
  B|2-------2-------2---2---2---2--|2-------2-------2---2---2------|
  G|2-------2-------2---2---2---2--|2-------2-------2---2---2------|
  D|2-------2-------2---2---2---2--|2-------2-------2---2---2------|
  A|0-------0-------0---0---0---0--|0-------0-------0---0---0------|
  E|-------------------------------|-------------------------------|
    A7
  e|------- ------- ------- -------|------- ------- ------- -------|
  B|-------------------------------|-------------------------------|
  G|0-------0-----------0----------|0-------0-----------0-------0--|
  D|2-------2-----------2----------|2-------2-----------2-------2--|
  A|4-------4-----------4----------|4-------4-----------4-------4--|
  E|5-------5-----------5----------|5-------5-----------5-------5--|
                                                    and it's    nice 


    Em                              A
  e|0------ 0------ 0---0-- 0------|0------ 0------ 0---0-- 0------|
  B|0-------0-------0---0---0------|2-------2-------2---2---2------|
  G|0-------0-------0---0---0------|2-------2-------2---2---2------|
  D|2-------2-------2---2---2------|2-------2-------2---2---2------|
  A|2-------2-------2---2---2------|0-------0-------0---0---0------|
  E|0-------0-------0---0---0------|-------------------------------|
                                    A7
  e|------- ------- ------- -------|------- ------- ------- -------|
  B|-------------------------------|-------------------------------|
  G|-------------------------------|--------0-----------0-------0--|
  D|--------4-----------4-------4--|--------2-----------2-------2--|
  A|--------5-----------5-------5--|--------0-----------0-------0--|
  E|--------7-----------7-------7--|-------------------------------|
            when    you     believe     me


                                                        D7
  e|0------ ----0-- ----0-- 0---0--|0------ 0------ ----2-- 2------|
  B|0-----------2-------2---2---2--|2-------2-----------1---1------|
  G|0-----------2-------2---2---2--|2-------2-----------2---2------|
  D|2-----------2-------2---2---2--|2-------2-----------0---0------|
  A|2-----------0-------0---0---0--|0-------0----------------------|
  E|0------------------------------|-------------------------------|
            A5                                          A                                           
  e|------- ------- ------- -------|------- ------- ------- -------|
  B|-------------------------------|-------------------------------|
  G|--------2----------------------|--------------------2----------|
  D|--------2-----------2----------|2-------2-----------2----------|
  A|--------0-----------0----------|0-------0-----------4----------|
  E|-------------------------------|--------------------5----------|
    If          you                 leave       me



    VERSE
    01:04
    I will follow you 
    And bring you back where you belong
    'cause I could't really stand it
    I admit that I was wrong.

      01:15
    I wouldn't let you leave me 'cause it's true

    REFRAIN
               01:20
    'cause you like me too much and I like you.


                                            SOLO
                                                        x   X  x  x
                                                        
  e|2------ 2------ 2------ 2---2--|2------ 2---2-- 2---2-- 2------|
  B|1-------1-------1-------1---1--|1-------1---1---1---1---1------|
  G|2-------2-------2-------2---2--|2-------2---2---2---2---2------|
  D|0-------0-------0-------0---0--|0-------0---0---0---0---0------|
  A|-------------------------------|-------------------------------|
  E|-------------------------------|-------------------------------|

  e|------- ------- ------- -------|------- ------- ------- -------|
  B|--------7-----------7----------|7-------7-----------7----------|
  G|--------5-----------5----------|5-------5-----------5----------|
  D|--------4-----------5----------|4-------4-----------4----------|
  A|--------5-----------5----------|5-------5-----------5----------|
  E|-------------------------------|-------------------------------|

  e|------- ------- ------- -------|------- 10----- ------- -------|
  B|-------------------------------|--------12-----11--10-------8--|
  G|-------------------------------|-------------------------------|
  D|-------------------------------|-------------------------------|
  A|-------------------------------|-------------------------------|
  E|-------------------------------|-------------------------------|

  e|------- ------- ------- -------|------- ------- ------- -------|
  B|-------------------------------|-------------------------------|
  G|-------------------------------|-------------------------------|
  D|-------------------------------|--------12-----11--10-------9--|
  A|-------------------------------|-------------------------------|
  E|-------------------------------|-------------------------------|


   
    01:25
    G
  e|------- ------- ------- -------|------- 10----- ------- -------|
  B|-------------------------------|--------12-----11--10-------8--|
  G|-------------------------------|-------------------------------|
  D|-------------------------------|-------------------------------|
  A|-------------------------------|-------------------------------|
  E|-------------------------------|-------------------------------|

  e|------- ------- ------- -------|------- ------- ------- -------|
  B|-------------------------------|-------------------------------|
  G|-------------------------------|-------------------------------|
  D|-------------------------------|--------12-----11--10-------9--|
  A|-------------------------------|-------------------------------|
  E|-------------------------------|-------------------------------|

  e|------- ------- ------- -------|------- ------- ------- -------|
  B|-------------------------------|-------------------------------|
  G|--------4-------5---6--------7-7-7-7-7-7-7-7-7-7-7-7-7-7-------|
  D|-----/-5--------7---8-------9-9|9-9-9-9-9-9-9-9-9-9-9-9--------|
  A|-------------------------------|-------------------------------|
  E|-------------------------------|-------------------------------|




  e|------- ------- ------- -------|------- ------- ------- -------|
  B|-------------------------------|-------------------------------|
  G|-------------------------------|--------5-------7---8-------9--|
  D|-------------------------------|-------------------------------|
  A|-------------------------------|-------------------------------|
  E|-------------------------------|-------------------------------|

  e|------- ------- ------- -------|------- ------- ------- -------|
  B|-------------------------------|-------------------------------|
  G|-------------------------------|-------------------------------|
  D|-------------------------------|-------------------------------|
  A|-------------------------------|--------7-------8---9------10--|
  E|-------------------------------|-------------------------------|

  e|------- ------- ------- -------|------- ------- ------- -------|
  B|-------------------------------|-------------------------------|
  G|--------4-------5---6--------7-7-7-7-7-7-7-7-7-7-7-7-7-7-------|
  D|-----/-5--------7---8-------9-9|9-9-9-9-9-9-9-9-9-9-9-9--------|
  A|-------------------------------|-------------------------------|
  E|-------------------------------|-------------------------------|



    C
  e|------- ------- ------- -------|------- 10----- ------- -------|
  B|-------------------------------|--------12-----11--10-------8--|
  G|-------------------------------|-------------------------------|
  D|-------------------------------|-------------------------------|
  A|-------------------------------|-------------------------------|
  E|-------------------------------|-------------------------------|

  e|------- ------- ------- -------|------- ------- ------- -------|
  B|-------------------------------|-------------------------------|
  G|-------------------------------|-------------------------------|
  D|-------------------------------|--------12-----11--10-------9--|
  A|-------------------------------|-------------------------------|
  E|-------------------------------|-------------------------------|

  e|------- 12----- 11--10- -----8-8-8-8-8-8-8-8-8-8-8-8-8- -------|
  B|-------------------------------|-------------------------------|
  G|--------12------11--10------9-9|9-9-9-9-9-9-9-9-9-9-9-9--------|
  D|-------------------------------|-------------------------------|
  A|-------------------------------|-------------------------------|
  E|-------------------------------|-------------------------------|



    G
  e|------- ------- ------- -------|------- 7------ 8---9-- ---10--|
  B|-------------------------------|-------------------------------|
  G|-------------------------------|-------------------------------|
  D|-------------------------------|-------------------------------|
  A|-------------------------------|-------------------------------|
  E|-------------------------------|-------------------------------|

  e|------- ------- ------- -------|------- ------- ------- -------|
  B|-------------------------------|-------------------------------|
  G|-------------------------------|--------7-------9--10------11--|
  D|-------------------------------|-------------------------------|
  A|-------------------------------|-------------------------------|
  E|-------------------------------|-------------------------------|

  e|------- ------- ------- -------|------- ------- ------- -------|
  B|-------------------------------|-------------------------------|
  G|--------4-------5---6--------7-7-7-7-7-7-7-7-7-7-7-7-7-7-------|
  D|-----/-5--------7---8-------9-9|9-9-9-9-9-9-9-9-9-9-9-9--------|
  A|-------------------------------|-------------------------------|
  E|-------------------------------|-------------------------------|



    D
  e|------- ------- ------- -------|------- 10----- 8--10-- -------|
  B|-------------------------------|---------------------------10--|
  G|-------------------------------|-------------------------------|
  D|-------------------------------|-------------------------------|
  A|-------------------------------|-------------------------------|
  E|-------------------------------|-------------------------------|

  e|------- ------- ------- -------|------- ------- ------- -------|
  B|-------------------------------|-------------------------------|
  G|-------------------------------|--------11------9--------------|
  D|-------------------------------|-------------------12------10--|
  A|-------------------------------|-------------------------------|
  E|-------------------------------|-------------------------------|

  e|------- ------- ------- -------|------- ------- ------- -------|
  B|--------10------9---8--------7-7-7-7-7-7-7-7-7-7-7-7-7---------|
  G|--------11-----10---9-------7-7|7-7-7-7-7-7-7-7-7-7-7-7--------|
  D|-------------------------------|-------------------------------|
  A|-------------------------------|-------------------------------|
  E|-------------------------------|-------------------------------|


                                                    REFRAIN

  e|------- ------- ------- -------|------- ------- ------- -------|
  B|-------------------------------|-------------------------------|
  G|-------------------------------|-------------------------------|
  D|-------------------------------|-------------------------------|
  A|-------------------------------|-------------------------------|
  E|-------------------------------|-------------------------------|

  e|------- ------- ------- -------|------- ------- ------- -------|
  B|-------------------------------|-------------------------------|
  G|-------------------------------|-------------------------------|
  D|-------------------------------|-------------------------------|
  A|-------------------------------|-------------------------------|
  E|-------------------------------|-------------------------------|

  e|------- ------- ------- -------|------- ------- ------- -------|
  B|--------7-------8---9-------10-10-10-10-10-10-10-10-10---------|
  G|--------7-------9--10------11-11-11-11-11-11-11-11-11-11-------|
  D|-------------------------------|-------------------------------|
  A|-------------------------------|-------------------------------|
  E|-------------------------------|-------------------------------|
                                                   'cause   you



   01:42
   like me too much and I like you.

   01:47
   MIDDLE EIGHT
   I really do, and it's nice when you believe me
   If you leave me 

   VERSE
   01:58
   I will follow you 
   and bring you back where you belong
   'cause I could't really stand it
   I admit that I was wrong

     02:09
   I wouldn't let you leave me 'cause it's true

              02:14
   CODA
   'cause you like me too much and I like you,
   'cause you


    02:20
    G                               C
  e|3------ 3------ 3---3-- 3------|0------ 0---0-- 0------ 0------|
  B|3-------3-------3---3---3------|1-------1---1---1-------1------|
  G|0-------0-------0---0---0------|0-------0---0---0-------0------|
  D|0-------0-------0---0---0------|2-------2---2---2-------2------|
  A|2-------2-------2---2---2------|3-------3---3---3-------3------|
  E|3-------3-------3---3---3------|-------------------------------|

  e|------- ------- ------- -------|------- ------- ------- -------|
  B|3-----------3------------------|-------------------------------|
  G|4-----------4------------------|0-----------0------------------|
  D|5-----------5------------------|2-----------2------------------|
  A|-------------------------------|3-----------3------------------|
  E|-------------------------------|-------------------------------|
    like        me      too     much        and I       like    you



    D
  e|2------ 2------ 2---2-- 2---2--|2------ 2------ 2---2-- 2---2--|
  B|3-------3-------3---3---3---3--|3-------3-------3---3---3---3--|
  G|2-------2-------2---2---2---2--|2-------2-------2---2---2---2--|
  D|0-------0-------0---0---0---0--|0-------0-------0---0---0---0--|
  A|-------------------------------|-------------------------------|
  E|-------------------------------|-------------------------------|

  e|------- ------- ------- -------|------- ------- ------- -------|
  B|-------------------------------|-------------------------------|
  G|2-----------2------------------|2------------------------------|
  D|4-----------4------------------|4------------------------------|
  A|5-----------5------------------|5------------------------------|
  E|-------------------------------|-------------------------------|

  e|------- ------- ------- -------|------- ------- ------- -------|
  B|-------------------------------|-------------------------------|
  G|-------------------------------|--------4-------5---6--------7-7
  D|-------------------------------|--------5-------7---8-------9-9|
  A|-------------------------------|-------------------------------|
  E|-------------------------------|-------------------------------|



    02:25
    G
  e|3------ 3---3-- 3---3-- 3---3--|3------ 3---3-- 3---3-- 3------|
  B|3-------3---3---3---3---3---3--|3-------3---3---3---3---3------|
  G|0-------0---0---0---0---0---0--|0-------0---0---0---0---0------|
  D|0-------0---0---0---0---0---0--|0-------0---0---0---0---0------|
  A|2-------2---2---2---2---2---2--|2-------2---2---2---2---2------|
  E|3-------3---3---3---3---3---3--|3-------3---3---3---3---3------|

  e|------- ------- ------- -------|------- ------- ------- -------|
  B|3----------3-------------------|3-----------3------------------|
  G|4----------4-------------------|4-----------4------------------|
  D|5----------5-------------------|5-----------5------------------|
  A|-------------------------------|-------------------------------|
  E|-------------------------------|-------------------------------|

  e|------- ------- ------- -------|------- ------- ------- -------|
  B|-------------------------------|-------------------------------|
  G7-7-7-7-7-7-7-7-7-7-7-7-7-7-7-7-|-9--9--9--9--9---7-7-7---9--9--|
  D|9-9-9-9-9-9-9-9-9-9-9-9-9-9-9--10-10-10-10-10---9-9-9--10-10-10|
  A|-------------------------------|-------------------------------|
  E|-------------------------------|-------------------------------|





    Bb                              D
  e|1------ 1------ 1---1-- 1------|2------ 2------ 2---2-- 2------|
  B|3-------3-------3---3---3---0--|3-------3-------3---3---3---0--|
  G|3-------3-------3---3---3---0--|2-------2-------2---2---2---0--|
  D|3-------3-------3---3---3---0--|0-------0-------0---0---0---0--|
  A|1-------1-------1---1---1------|-------------------------------|
  E|-------------------------------|-------------------------------|
    Gm                                          D
  e|------- ------- ------- -------|------- ------- ------- -------|
  B|3-----------3------------------|3-----------3------------------|
  G|3-----------3------------------|3-----------2------------------|
  D|5-----------5------------------|5-----------4------------------|
  A|-------------------------------|-------------------------------|
  E|-------------------------------|-------------------------------|

  e|------- ------- ------- -------|------- ------- ------- -------|
  B|-------------------------------|-------------------------------|
  G|10-10-10-10-10-10-10-10-10-10-10-10-10-10-10-10--9--9--9--9--9-|
  D12-12-12-12-12-12-12-12-12-12-12-12-12-12-12-12-10-10-10-10-10-8/
  A|-------------------------------|-------------------------------|
  E|-------------------------------|-------------------------------|



   (.
    G
  e|3------ ------- ------- -------|------- ------- ------- -------|
  B|3------------------------------|-------------------------------|
  G|0------------------------------|-------------------------------|
  D|0------------------------------|-------------------------------|
  A|2------------------------------|-------------------------------|
  E|3------------------------------|-------------------------------|

  e|------- ------- ------- -------|------- ------- ------- -------|
  B|3------------------------------|-------------------------------|
  G|4------------------------------|-------------------------------|
  D|5------------------------------|-------------------------------|
  A|-------------------------------|-------------------------------|
  E|-------------------------------|-------------------------------|

  e|-7----- ------- ------- -------|------- ------- ------- -------|
  B|-8-----------------------------|-------------------------------|
  G|-7-----------------------------|-------------------------------|
  D|9------------------------------|-------------------------------|
  A|-------------------------------|-------------------------------|
  E|-------------------------------|-------------------------------|





                             .  .  .  .  .   





    Just in case you want to give it a try, here's the guitar solo,
    which can be played easily with just one guitar:




  e|------- ------- ------- -------|------- 10----- ------- -------|
  B|-------------------------------|--------12-----11--10-------8--|
  G|-------------------------------|-------------------------------|
  D|-------------------------------|--------12-----11--10-------9--|
  A|-------------------------------|-------------------------------|
  E|-------------------------------|-------------------------------|


    SOLO
    01:25
    G
  e|------- ------- ------- -------|------- 10----- ------- -------|
  B|-------------------------------|--------12-----11--10-------8--|
  G|-------------------------------|-------------------------------|
  D|-------------------------------|--------12-----11--10-------9--|
  A|-------------------------------|-------------------------------|
  E|-------------------------------|-------------------------------|

  e|------- ------- ------- -------|------- ------- ------- -------|
  B|-------------------------------|-------------------------------|
  G|--------4-------5---6--------7-7-7-7-7-7-7-7-7-7-7-7-7-7-------|
  D|-----/-5--------7---8-------9-9|9-9-9-9-9-9-9-9-9-9-9-9--------|
  A|-------------------------------|-------------------------------|
  E|-------------------------------|-------------------------------|




  e|------- ------- ------- -------|------- ------- ------- -------|
  B|-------------------------------|-------------------------------|
  G|-------------------------------|--------5-------7---8-------9--|
  D|-------------------------------|-------------------------------|
  A|-------------------------------|--------7-------8---9------10--|
  E|-------------------------------|-------------------------------|

  e|------- ------- ------- -------|------- ------- ------- -------|
  B|-------------------------------|-------------------------------|
  G|--------4-------5---6--------7-7-7-7-7-7-7-7-7-7-7-7-7-7-------|
  D|-----/-5--------7---8-------9-9|9-9-9-9-9-9-9-9-9-9-9-9--------|
  A|-------------------------------|-------------------------------|
  E|-------------------------------|-------------------------------|



    C
  e|------- ------- ------- -------|------- 10----- ------- -------|
  B|-------------------------------|--------12-----11--10-------8--|
  G|-------------------------------|-------------------------------|
  D|-------------------------------|--------12-----11--10-------9--|
  A|-------------------------------|-------------------------------|
  E|-------------------------------|-------------------------------|

  e|------- 12----- 11--10- -----8-8-8-8-8-8-8-8-8-8-8-8-8- -------|
  B|-------------------------------|-------------------------------|
  G|--------12------11--10------9-9|9-9-9-9-9-9-9-9-9-9-9-9--------|
  D|-------------------------------|-------------------------------|
  A|-------------------------------|-------------------------------|
  E|-------------------------------|-------------------------------|



    G
  e|------- ------- ------- -------|------- 7------ 8---9-- ---10--|
  B|-------------------------------|-------------------------------|
  G|-------------------------------|--------7-------9--10------11--|
  D|-------------------------------|-------------------------------|
  A|-------------------------------|-------------------------------|
  E|-------------------------------|-------------------------------|

  e|------- ------- ------- -------|------- ------- ------- -------|
  B|-------------------------------|-------------------------------|
  G|--------4-------5---6--------7-7-7-7-7-7-7-7-7-7-7-7-7-7-------|
  D|-----/-5--------7---8-------9-9|9-9-9-9-9-9-9-9-9-9-9-9--------|
  A|-------------------------------|-------------------------------|
  E|-------------------------------|-------------------------------|



    D
  e|------- ------- ------- -------|------- 10----- 8--10-- -------|
  B|-------------------------------|---------------------------10--|
  G|-------------------------------|--------11------9--------------|
  D|-------------------------------|-------------------12------10--|
  A|-------------------------------|-------------------------------|
  E|-------------------------------|-------------------------------|

  e|------- ------- ------- -------|------- ------- ------- -------|
  B|--------10------9---8--------7-7-7-7-7-7-7-7-7-7-7-7-7---------|
  G|--------11-----10---9-------7-7|7-7-7-7-7-7-7-7-7-7-7-7--------|
  D|-------------------------------|-------------------------------|
  A|-------------------------------|-------------------------------|
  E|-------------------------------|-------------------------------|




  e|------- ------- ------- -------|------- ------- ------- -------|
  B|-------------------------------|-------------------------------|
  G|-------------------------------|-------------------------------|
  D|-------------------------------|-------------------------------|
  A|-------------------------------|-------------------------------|
  E|-------------------------------|-------------------------------|

  e|------- ------- ------- -------|------- ------- ------- -------|
  B|--------7-------8---9-------10-10-10-10-10-10-10-10-10---------|
  G|--------7-------9--10------11-11-11-11-11-11-11-11-11-11-------|
  D|-------------------------------|-------------------------------|
  A|-------------------------------|-------------------------------|
  E|-------------------------------|-------------------------------|
                                               








        B  Bend
        R  Release
        /  Slide up
        \  Slide down
        H  Hammer-on
        P  Pull-off
        ~  Vibrato
        +  Harmonic
        x  Mute note
        .  Play note like a dot in standard notation
        ^  Ties two notes together
        (. Pause




  -----------------------------------------------------------------

  THE BEATLES - TELL ME WHAT YOU SEE - (Lennon/McCartney) From HELP
                album. Released 6th August 1965.

  -----------------------------------------------------------------

  Tabbed by:PJVillanueva


  If you let me take your heart I will prove to you,
  We will never be apart if I'm part of you.
  Open up your eyes now, tell me what you see.
  It is no suprise now, what you see is me

  Big and black the clouds may be, time will pass away.
  If you put your trust in me I'll make bright your day.
  Look into these eyes now, tell me what you see.
  Don't you realise now, what you see is me.
  Tell me what you see.

  Listen to me one more time, how can I get through?
  Can't you try to see that I'm trying to get to you?
  Open up your eyes now, tell me what you see.
  It is no suprise now, what you see is me.
  Tell me what you see.

  Listen to me one more time, how can I get through?
  Can't you try to see that I'm trying to get to you?
  Open up your eyes now, tell me what you see.
  It is no suprise now, what you see is me.


                                                             G
e|------- ------- ------- -------|------- ------- ------- ---3---|
B|-------------------------------|----------------------------3----|
G|-------------------------------|-----------------------------0---|
D|-------------------------------|------------------------------0--|
A|-------------------------------|-------------------------------2-|
E|-------------------------------|---------------------------------|

e|------- 3------ 3---3-- ---3---|------- 3------ 3---3-- ---3-----|
B|--------3-------3---3-------3--|--------3-------3---3-------3----|
G|--------0-------0---0--------0-|--------0-------0---0--------0---|
D|--------0-------0---0---------0|--------0-------0---0---------0--|
A|--------2-------2---2----------2--------2-------2---2----------2-|
E|3-------3-------3---3----------|3-------3-------3---3------------|


                  C           D               G
e|------- 3------ 3---3-- ----2--|----2-- ----3-- ------- 3---3--|
B|--------3-------1---1-------3--|----3-------3-----------3---3--|
G|--------0-------0---0-------2--|----2-------0-----------0---0--|
D|--------0-------2---2-------0--|----0-------0-----------0---0--|
A|--------2-------3---3----------|------------2-----------2---2--|
E|3-------3----------------------|------------3-----------3---3--|
  If  you     let     me      take    your    heart

              C               G
e|----3-- ----3-- ----3-- ----3--|------- 3------ ----3-- ---3---|
B|----3-------1-------1-------3--|--------3-----------3-------3----|
G|----0-------0-------0-------0--|--------0-----------0--------0---|
D|----0-------2-------2-------0--|--------0-----------0---------0--|
A|----2-------3-------3-------2--|--------2-----------2----------2-|
E|----3-----------------------3--|--------3-----------3------------|
  I  will     prove       to  you

                  C           D               G
e|------- 3------ 0---0-- ----2--|----2-- ----3-- ------- 3------|
B|--------3-------1---1-------3--|----3-------3-----------3------|
G|--------0-------0---0-------2--|----2-------0-----------0------|
D|--------0-------2---2-------0--|----0-------0-----------0------|
A|--------2-------3---3----------|------------2-----------2------|
E|3-------3----------------------|------------3-----------3------|
  We  will    never           be      apart

  C           D               G                               C
e|3---3-- ----2-- ------- ----3--|------- 3------ ----3-- ----3--|
B|1---1-------3---------------3--|--------3-----------3-------1--|
G|0---0-------2---------------0--|--------0-----------0-------0--|
D|2---2-------0---------------0--|--------0-----------0-------2--|
A|3---3-----------------------2--|--------2-----------2-------3--|
E|----------------------------3--|--------3-----------3----------|
  If  I'm     part    of      you

                              G
e|----3-- ----3-- ----3-- 3---3--|------- 3------ 3------ 3---3--|
B|----1-------1-------1---1---3--|--------3-------3-------3---3--|
G|----0-------0-------0---0---0--|--------0-------0-------0---0--|
D|----2-------2-------2---2---0--|--------0-------0-------0---0--|
A|----3-------3-------3---3---2--|--------2-------2-------2---2--|
E|----------------------------3--|--------3-------3-------3---3--|
  Open        up      your    eyes            now

  C                           G                               C
e|3------ 3------ ----3-- ----3--|------- 3------ 3---3-- ----3--|
B|1-------1-----------1-------3--|--------3-------3---3-------1--|
G|0-------0-----------0-------0--|--------0-------0---0-------0--|
D|2-------2-----------2-------0--|--------0-------0---0-------2--|
A|3-------3-----------3-------2--|--------2-------2---2-------3--|
E|----------------------------3--|--------3-------3---3----------|
  Tell me     what    you     see

                              G                               C
e|------- 3------ ----3-- ----3--|------- 3------ ----3-- ----3--|
B|--------1-----------1-------3--|--------3-----------3-------1--|
G|--------0-----------0-------0--|--------0-----------0-------0--|
D|--------2-----------2-------0--|--------0-----------0-------2--|
A|--------3-----------3-------2--|--------2-----------2-------3--|
E|----------------------------3--|--------3-----------3----------|
  It is       no      surprise                now

              D               G
e|----3-- ----2-- ----2-- ----3--|------- 3------ 3---3-- ---3-----|
B|----1-------3-------3-------3--|--------3-------3---3-------3----|
G|----0-------2-------2-------0--|--------0-------0---0--------0---|
D|----2-------0-------0-------0--|--------0-------0---0---------0--|
A|----3-----------------------2--|--------2-------2---2----------2-|
E|----------------------------3--|--------3-------3---3------------|
  What you    see     is      me

                  C           D               G
e|------- 3------ 3---3-- ----2--|----2-- ----3-- ------- 3------|
B|--------3-------1---1-------3--|----3-------3-----------3------|
G|--------0-------0---0-------2--|----2-------0-----------0------|
D|--------0-------2---2-------0--|----0-------0-----------0------|
A|--------2-------3---3----------|------------2-----------2------|
E|3-------3----------------------|------------3-----------3------|
  Big and     black   the     clouds  may     be

              C               G
e|----3-- ----3-- ----3-- ----3--|------- 3------ ----3-- ----3--|
B|----3-------1-------1-------3--|--------3-----------3-------3--|
G|----0-------0-------0-------0--|--------0-----------0-------0--|
D|----0-------2-------2-------0--|--------0-----------0-------0--|
A|----2-------3-------3-------2--|--------2-----------2-------2--|
E|----3-----------------------3--|--------3-----------3-------3--|
  Time will   pass    away

                      C       D               G               C
e|------- 3------ ----0-- ----2--|------- ----3-- ----3-- ----3--|
B|--------3-----------1-------3--|------------3-------3-------1--|
G|--------0-----------0-------2--|------------0-------0-------0--|
D|--------0-----------2-------0--|------------0-------0-------2--|
A|--------2-----------3----------|------------2-------2-------3--|
E|--------3----------------------|------------3-------3----------|
  If you     put      your    trust   in      me

                      D       G                               C
e|------- 3------ ----2-- ----3--|------- 3------ ----3-- ----3--|
B|--------1-----------3-------3--|--------3-----------3-------1--|
G|--------0-----------2-------0--|--------0-----------0-------0--|
D|--------2-----------0-------0--|--------0-----------0-------2--|
A|--------3-------------------2--|--------2-----------2-------3--|
E|----------------------------3--|--------3-----------3----------|
  I'll make   bright  your    day

                              G                               C
e|------- 3------ ----3-- 3---3--|------- 3------ 3---3-- ----3--|
B|--------1-----------1---1---3--|--------3-------3---3-------1--|
G|--------0-----------0---0---0--|--------0-------0---0-------0--|
D|--------2-----------2---2---0--|--------0-------0---0-------2--|
A|--------3-----------3---3---2--|--------2-------2---2-------3--|
E|----------------------------3--|--------3-------3---3----------|
  Look into           this    eyes                    now

          C                   G                               C
e|------- 3------ ----3-- ----3--|------- 3------ ----3-- ----3--|
B|--------1-----------1-------3--|--------3-----------3-------1--|
G|--------0-----------0-------0--|--------0-----------0-------0--|
D|--------2-----------2-------0--|--------0-----------0-------2--|
A|--------3-----------3-------2--|--------2-----------2-------3--|
E|----------------------------3--|--------3-----------3----------|
  Tell me     what    you     see

                              G                               C
e|------- 3------ ----3-- ----3--|------- 3------ ----3-- ----3--|
B|--------1-----------1-------3--|--------3-----------3-------1--|
G|--------0-----------0-------0--|--------0-----------0-------0--|
D|--------2-----------2-------0--|--------0-----------0-------2--|
A|--------3-----------3-------2--|--------2-----------2-------3--|
E|----------------------------3--|--------3-----------3----------|
  It is       no      surprise                now

                      D       G
e|------- 3------ ----2-- ----3--|------- 3------ ----3-- ----3--|
B|--------1-----------3-------3--|--------3-----------3-------3--|
G|--------0-----------2-------0--|--------0-----------0-------0--|
D|--------2-----------0-------0--|--------0-----------0-------0--|
A|--------3-------------------2--|--------2-----------2-------2--|
E|----------------------------3--|--------3-----------3-------3--|
  What you    see     is      me

e|------- 3------ ----3-- ----3--|------- 3------ ----3-- ----3--|
B|--------3-----------3-------3--|--------3-----------3-------3--|
G|--------0-----------0-------0--|--------0-----------0-------0--|
D|--------0-----------0-------0--|--------0-----------0-------0--|
A|--------2-----------2-------2--|--------2-----------2-------2--|
E|--------3-----------3-------3--|--------3-----------3-------3--|


  C
e|3------ ------- ------- -------|------- ------- ------- -------|
B|1------------------------------|-------------------------------|
G|0------------------------------|-------------------------------|
D|2------------------------------|-------------------------------|
A|3------------------------------|-------------------------------|
E|-------------------------------|-------------------------------|

e|------- ------- ------- 0---1--|3----1- --0---- 1------ 0------|
B|------------------------1---3--|5----3----1-----3-------1------|
G|--------------------0----------|-------------------------------|
D|-------------------------------|-------------------------------|
A|-------------------------------|-------------------------------|
E|-------------------------------|-------------------------------|

  G                               D
e|0------ ------- ------- -------|------- ------- ------- -------|
B|1---3---------------5-------3--|3---1---------------3-------1--|
G|----4---------------5-------4--|4---2---------------4-------2--|
D|-------------------------------|-------------------------------|
A|-------------------------------|-------------------------------|
E|-------------------------------|-------------------------------|

  G
e|3------ ------- ----3-- ---3---|------- 3------ ----3-- ----3--|
B|3-------------------3-------3--|--------3-----------3-------3--|
G|0-------------------0--------0-|--------0-----------0-------0--|
D|0-------------------0---------0|--------0-----------0-------0--|
A|2-------------------2----------2--------2-----------2-------2--|
E|3-------------------3----------|3-------3-----------3-------3--|

e|------- ------- ------- -------|7------ 7------ ------- -------|
B|1-----------0---0--------------|8-------8----------------------|
G|2-----------0---0------------8/9-------------------------------|
D|-------------------------------|-------------------------------|
A|-------------------------------|-------------------------------|
E|-------------------------------|-------------------------------|

                      C       D               G
e|------- 3------ ----0-- ----2--|------- ----3-- ------- 3---3--|
B|--------3-----------1-------3--|------------3-----------3---3--|
G|--------0-----------0-------2--|------------0-----------0---0--|
D|--------0-----------2-------0--|------------0-----------0---0--|
A|--------2-----------3----------|------------2-----------2---2--|
E|3-------3----------------------|------------3-----------3---3--|
  Listen      to      me      one     more    time

              C               G
e|----3-- ----3-- ----3-- ----3--|------- 3---3-- ----3-- ----3--|
B|----3-------1-------1-------3--|--------3---3-------3-------3--|
G|----0-------0-------0-------0--|--------0---0-------0-------0--|
D|----0-------2-------2-------0--|--------0---0-------0-------0--|
A|----2-------3-------3-------2--|--------2---2-------2-------2--|
E|----3-----------------------3--|--------3---3-------3-------3--|
  How can     I       get     through

                              D               G               C
e|------- 3------ ----3-- ----2--|----2-- ----3-- ------- 3---3--|
B|--------3-----------3-------3--|----3-------3-----------3---1--|
G|--------0-----------0-------2--|----2-------0-----------0---0--|
D|--------0-----------0-------0--|----0-------0-----------0---2--|
A|--------2-----------2----------|------------2-----------2---3--|
E|--------3-----------3----------|------------3-----------3------|
  Can't you   try     to      see     that    I'm

              D               G                               C
e|------- ----2-- ----2-- ----3--|------- 3------ ----3-- 3---3--|
B|------------3-------3-------3--|--------3-----------3---3---1--|
G|------------2-------2-------0--|--------0-----------0---0---0--|
D|------------0-------0-------0--|--------0-----------0---0---2--|
A|----------------------------2--|--------2-----------2---2---3--|
E|----------------------------3--|--------3-----------3---3------|
  Trying to   get     to      you

                              G                               C
e|------- 3------ 3---3-- ----3--|------- 3------ ----3-- 3---3--|
B|--------1-------1---1-------3--|--------3-----------3---3---1--|
G|--------0-------0---0-------0--|--------0-----------0---0---0--|
D|--------2-------2---2-------0--|--------0-----------0---0---2--|
A|--------3-------3---3-------2--|--------2-----------2---2---3--|
E|----------------------------3--|--------3-----------3---3------|
  Open        up      your    eyes            now

                              G                               C
e|------- 3------ --3-3-- ----3--|----3-- 3------ ----3-- ----3--|
B|--------1---------1-1-------3--|----3---3-----------3-------1--|
G|--------0---------0-0-------0--|----0---0-----------0-------0--|
D|--------2---------2-2-------0--|----0---0-----------0-------2--|
A|--------3---------3-3-------2--|----2---2-----------2-------3--|
E|----------------------------3--|----3---3-----------3----------|
  Tell me     what    you     see

                              G                               C
e|------- 3------ ----3-- ----3--|------- 3------ ----3-- 3---3--|
B|--------1-----------1-------3--|--------3-----------3---3---1--|
G|--------0-----------0-------0--|--------0-----------0---0---0--|
D|--------2-----------2-------0--|--------0-----------0---0---2--|
A|--------3-----------3-------2--|--------2-----------2---2---3--|
E|----------------------------3--|--------3-----------3---3------|
  It is       no      surprise                now

                  D           G
e|------- 3------ 2---2-- ----3--|3------ 3------ ----3-- ---3-----|
B|--------1-------3---3-------3--|3-------3-----------3-------3----|
G|--------0-------2---2-------0--|0-------0-----------0--------0---|
D|--------2-------0---0-------0--|0-------0-----------0---------0--|
A|--------3-------------------2--|2-------2-----------2----------2-|
E|----------------------------3--|3-------3-----------3------------|
  What you    see     is      me


e|------- 3------ ----3-- ---3---|------- 3------ ----3-- ----3--|
B|--------3-----------3-------3--|--------3-----------3-------3--|
G|--------0-----------0--------0-|--------0-----------0-------0--|
D|--------0-----------0---------0|--------0-----------0-------0--|
A|--------2-----------2----------2--------2-----------2-------2--|
E|3-------3-----------3----------|3-------3-----------3-------3--|

  C
e|3------ ------- ------- -------|------- ------- ------- -------|
B|1------------------------------|-------------------------------|
G|0------------------------------|-------------------------------|
D|2------------------------------|-------------------------------|
A|3------------------------------|-------------------------------|
E|-------------------------------|-------------------------------|

e|------- ------- ------- 0---1--|3----1- --0---- 1------ 0------|
B|------------------------1---3--|5----3----1-----3-------1------|
G|--------------------0----------|-------------------------------|
D|-------------------------------|-------------------------------|
A|-------------------------------|-------------------------------|
E|-------------------------------|-------------------------------|

  G                               D
e|0------ ------- ------- -------|------- ------- ------- -------|
B|1---3---------------5-------3--|3---1---------------3----------|
G|----4---------------5-------4--|4---2---------------4----------|
D|-------------------------------|-------------------------------|
A|-------------------------------|-------------------------------|
E|-------------------------------|-------------------------------|

  G
e|------- ------- ------- -------|3------ ----3-- ----3-- ----3--|
B|-------------------------------|3-----------3-------3-------3--|
G|-------------------------------|0-----------0-------0-------0--|
D|-------------------------------|0-----------0-------0-------0--|
A|-------------------------------|2-----------2-------2-------2--|
E|-------------------------------|3-----------3-------3-------3--|

e|------- ------- ------- -------|7------ 7------ ------- -------|
B|1---0-------0------------------|8-------8----------------------|
G|2---0-------0----------------8/9-------------------------------|
D|-------------------------------|-------------------------------|
A|-------------------------------|-------------------------------|
E|-------------------------------|-------------------------------|

                      C       D               G
e|------- 3---3-- ----0-- ----2--|----2-- ----3-- ------- 3------|
B|--------3---3-------1-------3--|----3-------3-----------3------|
G|--------0---0-------0-------2--|----2-------0-----------0------|
D|--------0---0-------2-------0--|----0-------0-----------0------|
A|--------2---2-------3----------|------------2-----------2------|
E|--------3---3------------------|------------3-----------3------|
  Listen      to      me      one     more    time

              C               G
e|----3-- ----3-- ----3-- ----3--|------- 3------ ----3-- ----3--|
B|----3-------1-------1-------3--|--------3-----------3-------3--|
G|----0-------0-------0-------0--|--------0-----------0-------0--|
D|----0-------2-------2-------0--|--------0-----------0-------0--|
A|----2-------3-------3-------2--|--------2-----------2-------2--|
E|----3-----------------------3--|--------3-----------3-------3--|
  How can     I       get     through

                      C       D               G
e|------- 3------ ----3-- ----2--|----2-- ----3-- ------- 3------|
B|--------3-----------1-------3--|----3-------3-----------3------|
G|--------0-----------0-------2--|----2-------0-----------0------|
D|--------0-----------2-------0--|----0-------0-----------0------|
A|--------2-----------3----------|------------2-----------2------|
E|--------3----------------------|------------3-----------3------|
  Can't you   try     to      see     that    I'm

      C       D               G                               C
e|----3-- ----2-- ----2-- ----3--|------- 3------ ----3-- ----3--|
B|----1-------3-------3-------3--|--------3-----------3-------1--|
G|----0-------2-------2-------0--|--------0-----------0-------0--|
D|----2-------0-------0-------0--|--------0-----------0-------2--|
A|----3-----------------------2--|--------2-----------2-------3--|
E|----------------------------3--|--------3-----------3----------|
  Trying to   get     to      you

                              G                               C
e|----3-- ----3-- ----3-- ----3--|------- ----3-- ------- ----3--|
B|----1-------1-------1-------3--|------------3---------------1--|
G|----0-------0-------0-------0--|------------0---------------0--|
D|----2-------2-------2-------0--|------------0---------------2--|
A|----3-------3-------3-------2--|------------2---------------3--|
E|----------------------------3--|------------3------------------|
  Open        up      your    eyes            now

                              G                               C
e|------- 3------ ----3-- ----3--|------- 3------ ----3-- ----3--|
B|--------1-----------1-------3--|--------3-----------3-------1--|
G|--------0-----------0-------0--|--------0-----------0-------0--|
D|--------2-----------2-------0--|--------0-----------0-------2--|
A|--------3-----------3-------2--|--------2-----------2-------3--|
E|----------------------------3--|--------3-----------3----------|
  Tell me     what    you     see

                              G                               C
e|------- 3------ ----3-- ----3--|------- 3------ ----3-- ----3--|
B|--------1-----------1-------3--|--------3-----------3-------1--|
G|--------0-----------0-------0--|--------0-----------0-------0--|
D|--------2-----------2-------0--|--------0-----------0-------2--|
A|--------3-----------3-------2--|--------2-----------2-------3--|
E|----------------------------3--|--------3-----------3----------|
  It is       no      surprise                now

                  D           G
e|------- 3------ 2---2-- ----3--|------- 3------ ----3-- -------|
B|--------1-------3---3-------3--|--------3-----------3----------|
G|--------0-------2---2-------0--|--------0-----------0----------|
D|--------2-------0---0-------0--|--------0-----------0----------|
A|--------3-------------------2--|--------2-----------2----------|
E|----------------------------3--|--------3-----------3----------|
  What you    see     is      me

e|3------ ----3-- 3------ ----3--|3------ ----3-- 3------ ----3--|
B|3-----------3---3-----------3--|3-----------3---3-----------3--|
G|0-----------0---0-----------0--|0-----------0---0-----------0--|
D|0-----------0---0-----------0--|0-----------0---0-----------0--|
A|2-----------2---2-----------2--|2-----------2---2-----------2--|
E|3-----------3---3-----------3--|3-----------3---3-----------3--|
  Mmmmmmmmmmmmmmmmmmmmmmmmmmmmmmmmmmmmmmmmmmmmmmmmmmmmmmmmmmmmmmm

  C                                                             G
e|3------ ------- ------- -------|------- ------- ------- -------|
B|1------------------------------|-------------------------------|
G|0------------------------------|-------------------------------|
D|2------------------------------|-------------------------------|
A|3------------------------------|-------------------------------|
E|-------------------------------|-------------------------------|
  mmmmmmmmmmmmmmmmmmmmmmm
e|------- ------- ------- 0---1--|3----1- --0---- 1------ 0------|
B|------------------------1---3--|5----3----1-----3-------1------|
G|--------------------0----------|-------------------------------|
D|-------------------------------|------------------------------0|
A|-------------------------------|-------------------------------|
E|-------------------------------|------------------------------3|


 (.

e|------- ------- ------- -------|------- ------- ------- -------|
B|3------------------------------|-------------------------------|
G|4------------------------------|-------------------------------|
D|-------------------------------|-------------------------------|
A|-------------------------------|-------------------------------|
E|-------------------------------|-------------------------------|




        B  Bend
        R  Release
        /  slide up
        \  slide down
        H  hammer-on
        P  pull-off
        ~  vibrato
        +  harmonic
        x  Mute note
        . - play note like a dot in standard notation
        ^ - ties two notes together
        (. Pause


  -----------------------------------------------------------------

  THE BEATLES - I'VE JUST SEEN A FACE (Lennon/McCartney) From HELP
                album. Released on 6th August 1965.

  -----------------------------------------------------------------

  Tabbed by:PJVillanueva

  I've just seen a face,
  I can't forget the time or place
  Where we just met.
  She's just the girl for me
  And I want all the world to see
  We've met, mmm-mmm-mmm-m'mmm-mmm.

  Had it been another day
  I might have looked the other way
  And I'd have never been aware.
  But as it is I'll dream of her
  Tonight, di-di-di-di'n'di.

  Falling, yes I am falling,
  And she keeps calling
  Me back again.

  I have never known
  The like of this, I've been alone
  And I have missed things
  And kept out of sight
  But other girls were never quite
  Like this, di-di-di-di'n'di.

  Falling, yes I am falling,
  And she keeps calling
  Me back again.

  Yeah!
  Bup-a-lup-bup!

  Falling, yes I am falling,
  And she keeps calling
  Me back again.

  I've just seen a face,
  I can't forget the time or place
  Where we just met.
  She's just the girl for me
  And want all the world to see
  We've met, mmm-mmm-mmm-di-di-di.

  Falling, yes I am falling,
  And she keeps calling
  Me back again.

  Falling, yes I am falling,
  And she keeps calling
  Me back again.

  Oh, falling, yes I am falling,
  And she keeps calling
  Me back again.

e|------- ------- ------- -------|------- ------- ------- -------|
B|-------------------------------|-------------------------------|
G|-------------------------------|-------------------------------|
D|-------------------------------|7---------------6--------------|
A|-------------------------------|-------------------------------|
E|-------------------------------|5---------------4--------------|

e|------- ------- ------- -------|------- ------- ------- -------|
B|-------------------------------|-------------------------------|
G|-------------------------------|-------------------------------|
D|-------------------------------|-------------------------------|
A|-------------------------------|-------------------------------|
E|-------------------------------|-------------------------------|

e|------- ------- ------- -------|------- ------- ------- -------|
B|-------------------------------|-------------------------------|
G|-------------------------------|-------------------------------|
D|4------------------------------|-------------------------------|
A|-------------------------------|-------------------------------|
E|2------------------------------|-------------------------------|

e|-----2- ------- 2------ ----2--|-----5- ------- 5------ ----5--|
B|-------------------------------|-------------------------------|
G|2----------2----------2--------|6----------6----------6--------|
D|-------------------------------|-------------------------------|
A|-------------------------------|-------------------------------|
E|-------------------------------|-------------------------------|


e|------- ------- ------- -------|------- ------- ------- -------|
B|-------------------------------|-------------------------------|
G|-------------------------------|11--------------9--------------|
D|-------------------------------|-------------------------------|
A|-------------------------------|-9--------------7--------------|
E|-------------------------------|-------------------------------|

e|-----9- ------- 9------ ----9--|-----14 ------- 14----- ---14--|
B|-------------------------------|-------------------------------|
G|11---------11--------11--------|14---------14--------14--------|
D|-------------------------------|-------------------------------|
A|-------------------------------|-------------------------------|
E|-------------------------------|-------------------------------|


e|------- ------- ------- -------|------- ------- ------- -------|
B|-------------------------------|-------------------------------|
G|7------------------------------|-------------------------------|
D|-------------------------------|-------------------------------|
A|5------------------------------|-------------------------------|
E|-------------------------------|-------------------------------|

e|-----10 ------- 10----- ---10--|-----12 ------- 12----- ---12--|
B|-------------------------------|12---------12--------12--------|
G|11---------11--------11--------|12---------12--------12--------|
D|-------------------------------|-------------------------------|
A|-------------------------------|-------------------------------|
E|-------------------------------|-------------------------------|


e|------- ------- ------- -------|------- ------- ------- -------|
B|-------------------------------|-------------------------------|
G|-------------------------------|7---------------6--------------|
D|-------------------------------|-------------------------------|
A|-------------------------------|5---------------4--------------|
E|-------------------------------|-------------------------------|

e|-----14 ------- 14----- ---14--|-----14 ------- 14----- ---14--|
B|14---------14--------14--------|14---------14--------14--------|
G|14---------14--------14--------|14---------14--------14--------|
D|-------------------------------|-------------------------------|
A|-------------------------------|-------------------------------|
E|-------------------------------|-------------------------------|


e|------- ------- ------- -------|------- ------- ------- -------|
B|-------------------------------|-------------------------------|
G|-------------------------------|-------------------------------|
D|9------------------------------|7---------------6--------------|
A|-------------------------------|-------------------------------|
E|7------------------------------|5---------------4--------------|

e|-----12 ------- 12----- ---12--|-----10 ------- 10----- ---10--|
B|12---------12--------12--------|11---------11--------11--------|
G|13---------13--------13--------|11---------11--------11--------|
D|-------------------------------|-------------------------------|
A|-------------------------------|-------------------------------|
E|-------------------------------|-------------------------------|


  A
e|0------ 0------ ----0-- 0------|0------ 0------ 0------ 0------|
B|2-------2-----------2---2------|2-------2-------2-------2------|
G|2-------2-----------2---2------|2-------2-------2-------2------|
D|2-------2-----------2---2------|2-------2-------2-------2------|
A|0-------0-----------0---0------|0-------0-------0-------0------|
E|-------------------------------|-------------------------------|
  I've    just    seen a      face,       I       can't   for....
e|------- ------- ------- -------|------- ------- ------- -------|
B|-------------------------------|-------------------------------|
G|-------------------------------|-------------------------------|
D|7------------------------------|----------------2--------------|
A|-------------------------------|-------------------------------|
E|5------------------------------|----------------0--------------|

e|0------ 0------ ----0-- 0------|0------ 0------ ----0-- 0------|
B|2-------2-----------2---2------|2-------2-----------2---2------|
G|2-------2-----------2---2------|2-------2-----------2---2------|
D|2-------2-----------2---2------|2-------2-----------2---2------|
A|0-------0-----------0---0------|0-------0-----------0---0------|
E|-------------------------------|-------------------------------|
  get     the time        or      place   where   we just
e|------- ------- ------- -------|------- ------- ------- -------|
B|-------------------------------|-------------------------------|
G|-------------------------------|-------------------------------|
D|5---------------2--------------|7---------------6--------------|
A|-------------------------------|-------------------------------|
E|5---------------0--------------|5---------------4--------------|

  F#m
e|2------ 2------ 2---2-- 2------|2------ 2------ 2---2-- 2------|
B|2-------2-------2---2---2------|2-------2-------2---2---2------|
G|2-------2-------2---2---2------|2-------2-------2---2---2------|
D|4-------4-------4---4---4------|4-------4-------4---4---4------|
A|4-------4-------4---4---4------|4-------4-------4---4---4------|
E|2-------2-------2---2---2------|2-------2-------2---2---2------|
  met.    She's   just    the girl        for me          and
e|------- ------- ------- -------|------- ------- ------- -------|
B|-------------------------------|-------------------------------|
G|----------------6--------------|----------------6--------------|
D|4------------------------------|4------------------------------|
A|----------------4--------------|----------------4--------------|
E|2------------------------------|2------------------------------|


e|2------ 2------ 2---2-- 2------|2------ 2------ 2---2-- 2------|
B|2-------2-------2---2---2------|2-------2-------2---2---2------|
G|2-------2-------2---2---2------|2-------2-------2---2---2------|
D|4-------4-------4---4---4------|4-------4-------4---4---4------|
A|4-------4-------4---4---4------|4-------4-------4---4---4------|
E|2-------2-------2---2---2------|2-------2-------2---2---2------|
  I       want    all    the world        to see          we've
e|------- ------- ------- -------|------- ------- ------- -------|
B|-------------------------------|-------------------------------|
G|----------------6--------------|11--------------9--------------|
D|4------------------------------|-------------------------------|
A|----------------4--------------|-9--------------7--------------|
E|2------------------------------|-------------------------------|

  D
e|2------ 2---2-- 2---2-- 2------|2------ 2------ ----2-- 2------|
B|3-------3---3---3---3---3------|3-------3-----------3---3------|
G|2-------2---2---2---2---2------|2-------2-----------2---2------|
D|0-------0---0---0---0---0------|0-------0-----------0---0------|
A|-------------------------------|-------------------------------|
E|-------------------------------|-------------------------------|
  met                             Mmmmmmmmmmmmmmmmmmmmmmmmmmmmmmm
e|------- ------- ------- -------|------- ------- ------- -------|
B|-------------------------------|-------------------------------|
G|7------------------------------|7---------------6--------------|
D|-------------------------------|-------------------------------|
A|5------------------------------|5---------------4--------------|
E|-------------------------------|-------------------------------|

  E                               A
e|0------ 0------ ----0-- -0-----|0------ 0------ 0------ -------|
B|0-------0-----------0----0-----|2-------2-------0-H-2----------|
G|1-------1-----------1----1-----|2-------2-------2--------------|
D|2-------2-----------2----2-----|2-------2-------2--------------|
A|2-------2-----------2----2-----|0-------0-------0--------------|
E|0-------0-----------0----0-----|-------------------------------|
  mmmmmmmmmmmmmmmmmmmmmmmmmmmmmmmm
e|------- ------- ------- -------|------- ------- ------- -------|
B|-------------------------------|-------------------------------|
G|-------------------------------|-------------------------------|
D|9---------------7---6----------|7------------------------------|
A|-------------------------------|-------------------------------|
E|7---------------5---4----------|5------------------------------|


e|0------ 0------ ----0-- 0------|0------ 0------ ----0-- 0------|
B|2-------2-----------2---2------|2-------2-----------2---2------|
G|2-------2-----------2---2------|2-------2-----------2---2------|
D|2-------2-----------2---2------|2-------2-----------2---2------|
A|0-------0-----------0---0------|0-------0-----------0---0------|
E|-------------------------------|-------------------------------|
  Had it      been        another             day         I
e|------- ------- ------- -------|------- ------- ------- -------|
B|-------------------------------|-------------------------------|
G|-------------------------------|-------------------------------|
D|7---------------2--------------|7---------------2--------------|
A|-------------------------------|-------------------------------|
E|5---------------0--------------|5---------------0--------------|


e|0------ 0------ ----0-- 0------|0------ 0------ ----0-- 0------|
B|2-------2-----------2---2------|2-------2-----------2---2------|
G|2-------2-----------2---2------|2-------2-----------2---2------|
D|2-------2-----------2---2------|2-------2-----------2---2------|
A|0-------0-----------0---0------|0-------0-----------0---0------|
E|-------------------------------|-------------------------------|
  might   have    looked  the     other way               And
e|------- ------- ------- -------|------- ------- ------- -------|
B|-------------------------------|-------------------------------|
G|-------------------------------|-------------------------------|
D|7---------------2--------------|7---------------6--------------|
A|-------------------------------|-------------------------------|
E|5---------------0--------------|5---------------4--------------|


  F#m
e|2------ 2------ ----2-- 2------|2------ 2------ 2---2-- 2------|
B|2-------2-----------2---2------|2-------2-------2---2---2------|
G|2-------2-----------2---2------|2-------2-------2---2---2------|
D|4-------4-----------4---4------|4-------4-------4---4---4------|
A|4-------4-----------4---4------|4-------4-------4---4---4------|
E|2-------2-----------2---2------|2-------2-------2---2---2------|
  I'd     have    never       been        aware.              But as
e|------- ------- ------- -------|------- ------- ------- -------|
B|-------------------------------|-------------------------------|
G|----------------6--------------|----------------6--------------|
D|4------------------------------|4------------------------------|
A|----------------4--------------|----------------4--------------|
E|2------------------------------|2------------------------------|


e|2------ 2------ ----2-- 2------|2------ 2------ ----2-- 2------|
B|2-------2-----------2---2------|2-------2-----------2---2------|
G|2-------2-----------2---2------|2-------2-----------2---2------|
D|4-------4-----------4---4------|4-------4-----------4---4------|
A|4-------4-----------4---4------|4-------4-----------4---4------|
E|2-------2-----------2---2------|2-------2-----------2---2------|
          it is           I'll    dream of    her         Tonight,
e|------- ------- ------- -------|------- ------- ------- -------|
B|-------------------------------|-------------------------------|
G|----------------6--------------|11--------------9--------------|
D|4------------------------------|-------------------------------|
A|----------------4--------------|-9--------------7--------------|
E|2------------------------------|-------------------------------|

  D
e|2------ 2---2-- 2---2-- 2------|2------ 2------ ----2-- 2------|
B|3-------3---3---3---3---3------|3-------3-----------3---3------|
G|2-------2---2---2---2---2------|2-------2-----------2---2------|
D|0-------0---0---0---0---0------|0-------0-----------0---0------|
A|-------------------------------|-------------------------------|
E|-------------------------------|-------------------------------|
                                  di-             di-
e|------- ------- ------- -------|------- ------- ------- -------|
B|-------------------------------|-------------------------------|
G|7------------------------------|7---------------6--------------|
D|-------------------------------|-------------------------------|
A|5------------------------------|5---------------4--------------|
E|-------------------------------|-------------------------------|


  E                               A
e|0------ 0------ 0---0-- -0-----|0------ 0---0-- ----0-- 0------|
B|0-------0-------0---0----0-----|2-------2---2-------2---2------|
G|1-------1-------1---1----1-----|2-------2---2-------2---2------|
D|2-------2-------2---2----2-----|2-------2---2-------2---2------|
A|2-------2-------2---2----2-----|0-------0---0-------0---0------|
E|0-------0-------0---0----0-----|-------------------------------|
  di-             di' n '     di.
e|------- ------- ------- -------|------- ------- ------- -------|
B|-------------------------------|-------------------------------|
G|-------------------------------|-------------------------------|
D|9---------------7-------6------|7------------------------------|
A|-------------------------------|-------------------------------|
E|7---------------5-------4------|5------------------------------|

  E
e|0------ 0------ ----0-- 0------|0------ 0------ ----0-- 0------|
B|0-------0-----------0---0------|0-------0-----------0---0------|
G|1-------1-----------1---1------|1-------1-----------1---1------|
D|2-------2-----------2---2------|2-------2-----------2---2------|
A|2-------2-----------2---2------|2-------2-----------2---2------|
E|0-------0-----------0---0------|0-------0-----------0---0------|
  Fallin',                                yes     I   am


  D
e|2------ 2------ 2---2-- 2------|2------ ----2-- ----2-- 2------|
B|3-------3-------3---3---3------|3-----------3-------3---3------|
G|2-------2-------2---2---2------|2-----------2-------2---2------|
D|0-------0-------0---0---0------|0-----------0-------0---0------|
A|-------------------------------|-------------------------------|
E|-------------------------------|-------------------------------|
  fallin'                                 and     she keeps

  A                               D
e|0------ 0------ ----0-- 0------|2------ ------- ----2-- 2------|
B|2-------2-----------2---2------|3-------------------3---3------|
G|2-------2-----------2---2------|2-------------------2---2------|
D|2-------2-----------2---2------|0-------------------0---0------|
A|0-------0-----------0---0------|-------------------------------|
E|-------------------------------|-------------------------------|
  callin'                                 me      back    again

  A
e|0------ 0------ ----0-- 0------|0------ 0------ ----0-- 0------|
B|2-------2-----------2---2------|2-------2-----------2---2------|
G|2-------2-----------2---2------|2-------2-----------2---2------|
D|2-------2-----------2---2------|2-------2-----------2---2------|
A|0-------0-----------0---0------|0-------0-----------0---0------|
E|-------------------------------|-------------------------------|

e|0------ 0------ ----0-- 0------|0------ 0------ ----0-- 0------|
B|2-------2-----------2---2------|2-------2-----------2---2------|
G|2-------2-----------2---2------|2-------2-----------2---2------|
D|2-------2-----------2---2------|2-------2-----------2---2------|
A|0-------0-----------0---0------|0-------0-----------0---0------|
E|-------------------------------|-------------------------------|
   I       have    never       known       the like        of
e|------- ------- ------- -------|------- ------- ------- -------|
B|-------------------------------|-------------------------------|
G|6---------------7--------------|6------------------------------|
D|-------------------------------|----------------9--------------|
A|4---------------5--------------|4------------------------------|
E|-------------------------------|----------------7--------------|


e|0------ 0------ ----0-- 0------|0------ 0------ ----0-- 0------|
B|2-------2-----------2---2------|2-------2-----------2---2------|
G|2-------2-----------2---2------|2-------2-----------2---2------|
D|2-------2-----------2---2------|2-------2-----------2---2------|
A|0-------0-----------0---0------|0-------0-----------0---0------|
E|-------------------------------|-------------------------------|
  this,   I've    been alone              And I           have
e|------- ------- ------- -------|------- ------- ------- -------|
B|-------------------------------|-------------------------------|
G|-------------------------------|-------------------------------|
D|7---------------2--------------|7---------------6--------------|
A|-------------------------------|-------------------------------|
E|5---------------0--------------|5---------------4--------------|


  F#m
e|2------ 2------ ----2-- 2------|2------ 2------ 2---2-- 2------|
B|2-------2-----------2---2------|2-------2-------2---2---2------|
G|2-------2-----------2---2------|2-------2-------2---2---2------|
D|4-------4-----------4---4------|4-------4-------4---4---4------|
A|4-------4-----------4---4------|4-------4-------4---4---4------|
E|2-------2-----------2---2------|2-------2-------2---2---2------|
  missed  things  And     kept    out of      sight,       But
e|------- ------- ------- -------|------- ------- ------- -------|
B|-------------------------------|-------------------------------|
G|----------------6--------------|----------------6--------------|
D|4------------------------------|4------------------------------|
A|----------------4--------------|----------------4--------------|
E|2------------------------------|2------------------------------|


e|2------ 2------ ----2-- 2------|2------ 2------ ----2-- 2------|
B|2-------2-----------2---2------|2-------2-----------2---2------|
G|2-------2-----------2---2------|2-------2-----------2---2------|
D|4-------4-----------4---4------|4-------4-----------4---4------|
A|4-------4-----------4---4------|4-------4-----------4---4------|
E|2-------2-----------2---2------|2-------2-----------2---2------|
  other       girls       were    never       quite       like
e|------- ------- ------- -------|------- ------- ------- -------|
B|-------------------------------|-------------------------------|
G|----------------6--------------|11--------------9--------------|
D|4------------------------------|-------------------------------|
A|----------------4--------------|-9--------------7--------------|
E|2------------------------------|-------------------------------|

  D
e|2------ 2------ 2---2-- 2------|2------ 2------ ----2-- 2------|
B|3-------3-------3---3---3------|3-------3-----------3---3------|
G|2-------2-------2---2---2------|2-------2-----------2---2------|
D|0-------0-------0---0---0------|0-------0-----------0---0------|
A|-------------------------------|-------------------------------|
E|-------------------------------|-------------------------------|
  this                           di-             di-
e|------- ------- ------- -------|------- ------- ------- -------|
B|-------------------------------|-------------------------------|
G|7------------------------------|7---------------6--------------|
D|-------------------------------|-------------------------------|
A|5------------------------------|5---------------4--------------|
E|-------------------------------|-------------------------------|

  E                               A
e|0------ 0------ ----0-- -0-----|0------ 0---0-- 0---0-- 0------|
B|0-------0-----------0----0-----|2-------2---2---0---2---2------|
G|1-------1-----------1----1-----|2-------2---2---2---2---2------|
D|2-------2-----------2----2-----|2-------2---2---2---2---2------|
A|2-------2-----------2----2-----|0-------0---0---0---0---0------|
E|0-------0-----------0----0-----|-------------------------------|
  di-             di' n '     di.
e|------- ------- ------- -------|------- ------- ------- -------|
B|-------------------------------|-------------------------------|
G|-------------------------------|-------------------------------|
D|9---------------7-------6------|7------------------------------|
A|-------------------------------|-------------------------------|
E|7---------------5-------4------|5------------------------------|

  E
e|0------ 0------ ----0-- 0------|0------ 0------ ----0-- -------|
B|0-------0-----------0---0------|0-------0-----------0----------|
G|1-------1-----------1---1------|1-------1-----------1----------|
D|2-------2-----------2---2------|2-------2-----------2----------|
A|2-------2-----------2---2------|2-------2-----------2----------|
E|0-------0-----------0---0------|0-------0-----------0----------|
  Fallin',                                yes     I   am


  D
e|2------ 2------ 2---2-- 2------|2------ ----2-- ----2-- 2------|
B|3-------3-------3---3---3------|3-----------3-------3---3------|
G|2-------2-------2---2---2------|2-----------2-------2---2------|
D|0-------0-------0---0---0------|0-----------0-------0---0------|
A|-------------------------------|-------------------------------|
E|-------------------------------|-------------------------------|
  fallin'                                 and     she keeps

  A                               D
e|0------ 0------ ----0-- 0------|2------ 2------ ----2-- 2------|
B|2-------2-----------2---2------|3-------3-----------3---3------|
G|2-------2-----------2---2------|2-------2-----------2---2------|
D|2-------2-----------2---2------|0-------0-----------0---0------|
A|0-------0-----------0---0------|-------------------------------|
E|-------------------------------|-------------------------------|
  callin'                                 me      back    again

  A
e|0------ 0------ ----0-- 0------|0------ ----0-- ----0-- 0------|
B|2-------2-----------2---2------|2-----------2-------2---2------|
G|2-------2-----------2---2------|2-----------2-------2---2------|
D|2-------2-----------2---2------|2-----------2-------2---2------|
A|0-------0-----------0---0------|0-----------0-------0---0------|
E|-------------------------------|-------------------------------|


Solo
  A
e|------- ------- ------- -------|------- ------- ------- -------|
B|-------------------------------|-------------------------------|
G|-------------------------------|-------------------------------|
D|7---------------2--------------|7---------------2--------------|
A|-------------------------------|-------------------------------|
E|5---------------0--------------|5---------------0--------------|

e|0------ 0------ ----0-- 0------|0------ 0------ ----0-- 0------|
B|2-------2-----------2---2------|2-------2-----------2---2------|
G|2-------2-----------2---2------|2-------2-----------2---2------|
D|2-------2-----------2---2------|2-------2-----------2---2------|
A|0-------0-----------0---0------|0-------0-----------0---0------|
E|-------------------------------|-------------------------------|

e|------- ------- ------- -------|------- ------- ------- -------|
B|-------------------------------|-------------------------------|
G|-------------------------------|------------------------6------|
D|7-------7-------7-------9---9--|----7---7-------7--------------|
A|-------------------------------|------------------------4------|
E|5-------5-------5-------7---7--|----5---5-------5--------------|


e|------- ------- ------- -------|------- ------- ------- -------|
B|-------------------------------|-------------------------------|
G|-------------------------------|-------------------------------|
D|7---------------2--------------|7---------------6--------------|
A|-------------------------------|-------------------------------|
E|5---------------0--------------|5---------------4--------------|

e|0------ 0------ 0---0-- 0------|0------ 0------ ----0-- 0------|
B|2-------2-------2---2---2------|2-------2-----------2---2------|
G|2-------2-------2---2---2------|2-------2-----------2---2------|
D|2-------2-------2---2---2------|2-------2-----------2---2------|
A|0-------0-------0---0---0------|0-------0-----------0---0------|
E|-------------------------------|-------------------------------|

e|------- ------- ------- -------|------- ------- ------- -------|
B|-------------------------------|-------------------------------|
G|6-----------------------7------|7-------6-------6--------------|
D|--------7-------7--------------|------------------------9------|
A|4-----------------------5------|5-------4-------4--------------|
E|--------5-------5--------------|------------------------7------|


  F#m
e|------- ------- ------- -------|------- ------- ------- -------|
B|-------------------------------|-------------------------------|
G|----------------6--------------|-----------------6-------------|
D|4------------------------------|4------------------------------|
A|----------------4--------------|-----------------4-------------|
E|2------------------------------|2------------------------------|

e|2------ 2------ ----2-- 2------|2------ ----2-- ----2-- 2------|
B|2-------2-----------2---2------|2-----------2-------2---2------|
G|2-------2-----------2---2------|2-----------2-------2---2------|
D|4-------4-----------4---4------|4-----------4-------4---4------|
A|4-------4-----------4---4------|4-----------4-------4---4------|
E|2-------2-----------2---2------|2-----------2-------2---2------|

e|------- ------- ------- -------|------- ------- ------- -------|
B|-------------------------------|-------------------------------|
G|-------------------------------|------------------------6------|
D|7-------7-------7-------9---9--|----7---7-------7--------------|
A|-------------------------------|------------------------4------|
E|5-------5-------5-------7---7--|----5---5-------5--------------|

e|------- ------- ------- -------|------- ------- ------- -------|
B|-------------------------------|-------------------------------|
G|----------------6--------------|11--------------9--------------|
D|4------------------------------|-------------------------------|
A|----------------4--------------|-9--------------7--------------|
E|2------------------------------|-------------------------------|

e|2------ 2------ ----2-- 2------|2------ 2------ 2------ 2------|
B|2-------2-----------2---2------|2-------2-------2-------2------|
G|2-------2-----------2---2------|2-------2-------2-------2------|
D|4-------4-----------4---4------|4-------4-------4-------4------|
A|4-------4-----------4---4------|4-------4-------4-------4------|
E|2-------2-----------2---2------|2-------2-------2-------2------|

e|------- ------- ------- -------|------- ------- ------- -------|
B|-------------------------------|-------------------------------|
G|6-----------------------7------|7-------6-------6--------------|
D|--------7-------7--------------|------------------------9------|
A|4-----------------------5------|5-------4-------4--------------|
E|--------5-------5--------------|------------------------7------|


  D
e|------- ------- ------- -------|------- ------- ------- -------|
B|-------------------------------|-------------------------------|
G|7------------------------------|7---------------6--------------|
D|-------------------------------|-------------------------------|
A|5------------------------------|5---------------4--------------|
E|-------------------------------|-------------------------------|

e|2------ 2------ ----2-- 2------|2------ 2------ ----2-- 2------|
B|3-------3-----------3---3------|3-------3-----------3---3------|
G|2-------2-----------2---2------|2-------2-----------2---2------|
D|0-------0-----------0---0------|0-------0-----------0---0------|
A|-------------------------------|-------------------------------|
E|-------------------------------|-------------------------------|

e|------- ------- ------- -------|------- ------- ------- -------|
B|-------------------------------|-------------------------------|
G|-------------------------------|-------------------------------|
D|7------------------------------|9---------------7--------------|
A|-------------------------------|-------------------------------|
E|5------------------------------|7---------------5--------------|


  E                               A
e|------- ------- ------- -------|------- ------- ------- -------|
B|-------------------------------|-------------------------------|
G|-------------------------------|-------------------------------|
D|9---------------7-------6------|7------------------------------|
A|-------------------------------|-------------------------------|
E|7---------------5-------4------|5------------------------------|

e|0------ 0------ ----0-- -0-----|0------ 0------ ----0-- 0------|
B|0-------0-----------0----0-----|2-------2-----------2---2------|
G|1-------1-----------1----1-----|2-------2-----------2---2------|
D|2-------2-----------2----2-----|2-------2-----------2---2------|
A|2-------2-----------2----2-----|0-------0-----------0---0------|
E|0-------0-----------0----0-----|-------------------------------|

e|------- ------- ------- -------|------- ------- 5------ -------|
B|-------------------------------|----------------5--------------|
G|-------------------------------|----------------6--------------|
D|6---------------4-------6------|7------------------------------|
A|-------------------------------|-------------------------------|
E|4---------------2-------4------|5------------------------------|


  E
e|0------ 0------ ----0-- 0------|0------ 0------ ----0-- 0------|
B|0-------0-----------0---0------|0-------0-----------0---0------|
G|1-------1-----------1---1------|1-------1-----------1---1------|
D|2-------2-----------2---2------|2-------2-----------2---2------|
A|2-------2-----------2---2------|2-------2-----------2---2------|
E|0-------0-----------0---0------|0-------0-----------0---0------|
  Fallin',                                yes     I   am


  D
e|2------ 2------ ----2-- 2------|2------ 2------ ----2-- 2------|
B|3-------3-----------3---3------|3-------3-----------3---3------|
G|2-------2-----------2---2------|2-------2-----------2---2------|
D|0-------0-----------0---0------|0-------0-----------0---0------|
A|-------------------------------|-------------------------------|
E|-------------------------------|-------------------------------|
  fallin'                                 and     she keeps

  A                               D
e|0------ 0------ ----0-- 0------|2------ 2------ ----2-- 2------|
B|2-------2-----------2---2------|3-------3-----------3---3------|
G|2-------2-----------2---2------|2-------2-----------2---2------|
D|2-------2-----------2---2------|0-------0-----------0---0------|
A|0-------0-----------0---0------|-------------------------------|
E|-------------------------------|-------------------------------|
  callin'                                 me      back    again


  A
e|0------ 0------ 0---0-- 0------|0------ ----0-- ----0-- 0------|
B|2-------2-------2---2---2------|2-----------2-------2---2------|
G|2-------2-------2---2---2------|2-----------2-------2---2------|
D|2-------2-------2---2---2------|2-----------2-------2---2------|
A|0-------0-------0---0---0------|0-----------0-------0---0------|
E|-------------------------------|-------------------------------|


e|0------ 0------ ----0-- 0------|0------ 0------ ----0-- 0------|
B|2-------2-----------2---2------|2-------2-----------2---2------|
G|2-------2-----------2---2------|2-------2-----------2---2------|
D|2-------2-----------2---2------|2-------2-----------2---2------|
A|0-------0-----------0---0------|0-------0-----------0---0------|
E|-------------------------------|-------------------------------|
   I've    just    seen a      face,       I       can't   for....
e|------- ------- ------- -------|------- ------- ------- -------|
B|-------------------------------|-------------------------------|
G|6---------------7--------------|6------------------------------|
D|-------------------------------|----------------9--------------|
A|4---------------5--------------|4------------------------------|
E|-------------------------------|----------------7--------------|


e|0------ 0---0-- 0---0-- 0------|0------ 0---0-- 0---0-- 0---0--|
B|2-------2---2---2---2---2------|2-------2---2---2---2---2---2--|
G|2-------2---2---2---2---2------|2-------2---2---2---2---2---2--|
D|2-------2---2---2---2---2------|2-------2---2---2---2---2---2--|
A|0-------0---0---0---0---0------|0-------0---0---0---0---0---0--|
E|-------------------------------|-------------------------------|
  get     the time        or      place   where   we just
e|------- ------- ------- -------|------- ------- ------- -------|
B|-------------------------------|-------------------------------|
G|-------------------------------|-------------------------------|
D|7---------------2--------------|7---------------6--------------|
A|-------------------------------|-------------------------------|
E|5---------------0--------------|5---------------4--------------|


  F#m
e|2------ 2---2-- 2---2-- 2------|2------ 2---2-- 2---2-- 2------|
B|2-------2---2---2---2---2------|2-------2---2---2---2---2------|
G|2-------2---2---2---2---2------|2-------2---2---2---2---2------|
D|4-------4---4---4---4---4------|4-------4---4---4---4---4------|
A|4-------4---4---4---4---4------|4-------4---4---4---4---4------|
E|2-------2---2---2---2---2------|2-------2---2---2---2---2------|
   met.    She's   just    the girl        for me          and
e|------- ------- ------- -------|------- ------- ------- -------|
B|-------------------------------|-------------------------------|
G|----------------6--------------|----------------6--------------|
D|4------------------------------|4------------------------------|
A|----------------4--------------|----------------4--------------|
E|2------------------------------|2------------------------------|


e|2------ 2---2-- 2---2-- 2------|2------ 2---2-- 2------ 2------|
B|2-------2---2---2---2---2------|2-------2---2---2-------2------|
G|2-------2---2---2---2---2------|2-------2---2---2-------2------|
D|4-------4---4---4---4---4------|4-------4---4---4-------4------|
A|4-------4---4---4---4---4------|4-------4---4---4-------4------|
E|2-------2---2---2---2---2------|2-------2---2---2-------2------|
  I       want    all    the world        to see          we've
e|------- ------- ------- -------|------- ------- ------- -------|
B|-------------------------------|-------------------------------|
G|----------------6--------------|11--------------9--------------|
D|4------------------------------|-------------------------------|
A|----------------4--------------|-9--------------7--------------|
E|2------------------------------|-------------------------------|

  D
e|2------ 2---2-- 2---2-- 2------|2------ 2------ 2---2-- 2------|
B|3-------3---3---3---3---3------|3-------3-------3---3---3------|
G|2-------2---2---2---2---2------|2-------2-------2---2---2------|
D|0-------0---0---0---0---0------|0-------0-------0---0---0------|
A|-------------------------------|-------------------------------|
E|-------------------------------|-------------------------------|
  met                             Mmmmmmmmmmmmmmmmmmmmmmmmmmmmmmm
e|------- ------- ------- -------|------- ------- ------- -------|
B|-------------------------------|-------------------------------|
G|7------------------------------|7---------------6--------------|
D|-------------------------------|-------------------------------|
A|5------------------------------|5---------------4--------------|
E|-------------------------------|-------------------------------|


  E                               A
e|0------ 0------ 0---0-- -0-----|0------ 0------ ----0-- 0------|
B|0-------0-------0---0----0-----|2-------2-----------2---2------|
G|1-------1-------1---1----1-----|2-------2-----------2---2------|
D|2-------2-------2---2----2-----|2-------2-----------2---2------|
A|2-------2-------2---2----2-----|0-------0-----------0---0------|
E|0-------0-------0---0----0-----|-------------------------------|
  mmmmmmmmmmmmmmm di- di      di
e|------- ------- ------- -------|------- ------- ------- -------|
B|-------------------------------|-------------------------------|
G|-------------------------------|-------------------------------|
D|9---------------7-------6------|7------------------------------|
A|-------------------------------|-------------------------------|
E|7---------------5-------4------|5------------------------------|

  E
e|0------ 0------ ----0-- 0------|0------ ----0-- ----0-- 0------|
B|0-------0-----------0---0------|0-----------0-------0---0------|
G|1-------1-----------1---1------|1-----------1-------1---1------|
D|2-------2-----------2---2------|2-----------2-------2---2------|
A|2-------2-----------2---2------|2-----------2-------2---2------|
E|0-------0-----------0---0------|0-----------0-------0---0------|
  Fallin',                                yes     I   am


  D
e|2------ 2------ 3-P-2-- -------|2------ ------- 3------ -------|
B|3-------3-------3--------------|3---------------3--------------|
G|2-------2-------2--------------|2---------------2--------------|
D|0-------0-------0--------------|0---------------0--------------|
A|-------------------------------|-------------------------------|
E|-------------------------------|-------------------------------|
  fallin'                                 and     she keeps


  A                               D
e|0------ 0------ 0---0-- 0------|2------ 2------ ------- 3------|
B|2-------2-------2---2---2------|3-------3---------------3------|
G|2-------2-------2---2---2------|2-------2---------------2------|
D|2-------2-------2---2---2------|0-------0---------------0------|
A|0-------0-------0---0---0------|-------------------------------|
E|-------------------------------|-------------------------------|
  callin'                                 me      back    again


  A
e|0------ 0------ 0---0-- 0------|0------ ----0-- ----0-- 0------|
B|2-------2-------2---2---2------|2-----------2-------2---2------|
G|2-------2-------2---2---2------|2-----------2-------2---2------|
D|2-------2-------2---2---2------|2-----------2-------2---2------|
A|0-------0-------0---0---0------|0-----------0-------0---0------|
E|-------------------------------|-------------------------------|
                                                              Fa..


  E
e|0------ 0------ ----0-- 0------|0------ 0------ 0---0-- 0------|
B|0-------0-----------0---0------|0-------0-------0---0---0------|
G|1-------1-----------1---1------|1-------1-------1---1---1------|
D|2-------2-----------2---2------|2-------2-------2---2---2------|
A|2-------2-----------2---2------|2-------2-------2---2---2------|
E|0-------0-----------0---0------|0-------0-------0---0---0------|
  ........llin',                          yes     I   am


  D
e|2------ 2------ 3-P-2-- -------|2------ 2------ 2---2-- 2------|
B|3-------3-------3--------------|3-------3-------3---3---3------|
G|2-------2-------2--------------|2-------2-------2---2---2------|
D|0-------0-------0--------------|0-------0-------0---0---0------|
A|-------------------------------|-------------------------------|
E|-------------------------------|-------------------------------|
  fallin'                                 and     she keeps


  A                               D
e|0------ 0------ 0---0-- 0------|3-P-2-- ----2-- ----2-- 2------|
B|2-------2-------2---2---2------|3-----------3-------3---3------|
G|2-------2-------2---2---2------|2-----------2-------2---2------|
D|2-------2-------2---2---2------|0-----------0-------0---0------|
A|0-------0-------0---0---0------|-------------------------------|
E|-------------------------------|-------------------------------|
  callin'                                 me      back    again

  A
e|0------ 0------ ----0-- 0------|0------ ----0-- ----0-- 0---0--|
B|2-------2-----------2---2------|2-----------2-------2---2---2--|
G|2-------2-----------2---2------|2-----------2-------2---2---2--|
D|2-------2-----------2---2------|2-----------2-------2---2---2--|
A|0-------0-----------0---0------|0-----------0-------0---0---0--|
E|-------------------------------|-------------------------------|
                                                          Oh,
e|------- ------- ------- -------|------- ------- ------- -------|
B|-------------------------------|-------------------------------|
G|-------------------------------|-------------------------------|
D|-------------------------------|--------7-------6-------4------|
A|-------------------------------|-------------------------------|
E|-------------------------------|--------5-------4-------2------|


  E
e|0------ 0------ ----0-- 0------|0------ 0------ ----0-- 0------|
B|0-------0-----------0---0------|0-------0-----------0---0------|
G|1-------1-----------1---1------|1-------1-----------1---1------|
D|2-------2-----------2---2------|2-------2-----------2---2------|
A|2-------2-----------2---2------|2-------2-----------2---2------|
E|0-------0-----------0---0------|0-------0-----------0---0------|
          Fallin',                        yes     I   am
e|------- ------- ------- -------|------- ------- ------- -------|
B|-------------------------------|-------------------------------|
G|-------------------------------|-------------------------------|
D|2------------------------------|-------------------------------|
A|-------------------------------|-------------------------------|
E|0------------------------------|-------------------------------|

  D
e|2------ 2------ ----2-- 2------|2------ ----2-- ----2-- 2------|
B|3-------3-----------3---3------|3-----------3-------3---3------|
G|2-------2-----------2---2------|2-----------2-------2---2------|
D|0-------0-----------0---0------|0-----------0-------0---0------|
A|-------------------------------|-------------------------------|
E|-------------------------------|-------------------------------|
  fallin'                                 and     she keeps


  A                               D
e|0------ 0------ ----0-- 0------|2------ ------- ----2-- 2------|
B|2-------2-----------2---2------|3-------------------3---3------|
G|2-------2-----------2---2------|2-------------------2---2------|
D|2-------2-----------2---2------|0-------------------0---0------|
A|0-------0-----------0---0------|-------------------------------|
E|-------------------------------|-------------------------------|
  callin'                                 me      back    again


                                  E
e|2------ 2------ ----2-- 2------|0------ 0------ ----0-- 0------|
B|3-------3-----------3---3------|0-------0-----------0---0------|
G|2-------2-----------2---2------|1-------1-----------1---1------|
D|0-------0-----------0---0------|2-------2-----------2---2------|
A|-------------------------------|2-------2-----------2---2------|
E|-------------------------------|0-------0-----------0---0------|

e|------- ------- ------- -------|------- ------- ------- -------|
B|-------------------------------|-------------------------------|
G|7---------------6--------------|-------------------------------|
D|-------------------------------|9---------------7-------6------|
A|5---------------4--------------|-------------------------------|
E|-------------------------------|7---------------5-------4------|

  A
e|0------ ------- ------- -------|------- ------- ------- -------|
B|2------------------------------|-------------------------------|
G|2------------------------------|-------------------------------|
D|2------------------------------|-------------------------------|
A|0------------------------------|-------------------------------|
E|-------------------------------|-------------------------------|
                 (.
e|------- ------- 5------ -------|------- ------- ------- -------|
B|----------------5--------------|-------------------------------|
G|----------------6--------------|-------------------------------|
D|7------------------------------|-------------------------------|
A|-------------------------------|-------------------------------|
E|5------------------------------|-------------------------------|




        B  Bend
        R  Release
        /  slide up
        \  slide down
        H  hammer-on
        P  pull-off
        ~  vibrato
        +  harmonic
        x  Mute note
        . - play note like a dot in standard notation
        ^ - ties two notes together
        (. Pause


  ------------------------------------------------------------

  THE BEATLES - YESTERDAY (Lennon/McCartney) from HELP album.
                Released on August 6th 1965.

  ------------------------------------------------------------

  Tabbed by: PJVillanueva

  Obviously Paul tuned his guitar a whole step down to sing the
  song more comfortably. The chord shapes are unmistakeable. So
  he did play it in the key of G (he couldn't by any means have
  played it in the key of F!).


  Yesterday, all my troubles seemed so far away
  Now it looks as though they're here to stay
  Oh, I believe in yesterday.

  Suddenly,I'm not half the man I used to be
  There's a shadow hanging over me
  Oh, yesterday came suddenly.

  Why she had to go I don't know she wouldn't say.
  I said something wrong, now I long for yesterday.

  Yesterday, love was such an easy game to play.
  Now I need a place to hide away.
  Oh, I believe in yesterday.

  Why she had to go I don't know she wouldn't say.
  I said something wrong, now I long for yesterday.

  Yesterday, love was such an easy game to play.
  Now I need a place to hide away.
  Oh, I believe in yesterday.

  Mm mm mm mm mm mm mm.

    G
  e|----3-- 3---3-- ----3-- 3---3--|----3-- 3---3-- ----3-- 3---3--|
  B|----3---3---3-------3---3---3--|----3---3---3-------3---3---3--|
  G|----0---0---0-------0---0---0--|----0---0---0-------0---0---0--|
  D|-------------------------------|-------------------------------|
  A|-------------------------------|-------------------------------|
  E|3---------------3--------------|3---------------3--------------|

    00:05
                                    F#m             B7
  e|----3-- 3---3-- ----3-- 3------|----2-- 2---2-- ----2-- 2---2--|
  B|----3---3---3-------3---3------|----2---2---2-------0---0---0--|
  G|----0---0---0-------0---0------|----2---2---2-------2---2---2--|
  D|-------------------------------|-------------------------------|
  A|-------------------------------|----------------2--------------|
  E|3---------------3-----------0--|2------------------------------|
    Yesterday                               all my  troubles    so
                                                            seem

    Em                      Em7     Cmaj7           D7
  e|----0-- 0---0-- ----0-- ----0--|----0-- 0---0-- ----2-- 2---2--|
  B|----0---0---0-------0-------0--|----0---0---0-------1---1---1--|
  G|----0---0---0-------0-------0--|----0---0---0-------2---2---2--|
  D|2---------------2-------0------|----------------0--------------|
  A|-------------------------------|3------------------------------|
  E|-------------------------------|-------------------------------|
    far     away                            Now it looks    though
                                                        as      they're

    G                       Gmaj7   Em7             A
  e|----3-- 3---3-- ----3-- ----3--|------- ------- ----0-- 0------|
  B|----3---3---3-------3-------3--|----3---3---3-------2---2------|
  G|----0---0---0-------0-------0--|----0---0---0-------2---2------|
  D|-------------------------------|----2---2---2------------------|
  A|-------------------------------|----------------0--------------|
  E|3---------------3-------2------|0------------------------------|
    here    to  stay            Oh  I       believe             in

                                    00:22
    C       G
  e|0------ 3---3-- ----3-- 3---3--|----3-- 3---3-- ----3-- 3------|
  B|1-------3---3-------3---3---3--|----3---3---3-------3---3------|
  G|0-------0---0-------0---0---0--|----0---0---0-------0---0------|
  D|-------------------------------|-------------------------------|
  A|3------------------------------|-------------------------------|
  E|--------3-------3--------------|3---------------3-----------0--|
    yesterday                       Suddenly


    F#m             B7              Em                      Em7
  e|----2-- 2---2-- ----2-- 2---2--|----0-- 0---0-- ----0-- ----0--|
  B|----2---2---2-------0---0---0--|----0---0---0-------0-------0--|
  G|----2---2---2-------2---2---2--|----0---0---0-------0-------0--|
  D|-------------------------------|2---------------2-------0------|
  A|----------------2--------------|-------------------------------|
  E|2------------------------------|-------------------------------|
            I'm not half  man   I   used  be
                                        to
                        the

    Cmaj7           D7              G                       Gmaj7
  e|----0-- 0---0-- ----2-- 2---2--|----3-- 3---3-- ----3-- ----3--|
  B|----0---0---0-------1---1---1--|----3---3---3-------3-------3--|
  G|----0---0---0-------2---2---2--|----0---0---0-------0-------0--|
  D|----------------2--------------|-------------------------------|
  A|3------------------------------|-------------------------------|
  E|-------------------------------|3---------------3-------2------|
            there's         hanging             me              oh
                a shadow        over

    Em7             A               C       G
  e|------- ------- ----0-- 0------|0------ 3---3-- ----3-- -------|
  B|----3---3---3-------2---2------|1-------3---3-------3-------0--|
  G|----0---0---0-------2---2------|0-------0---0-------0-------0--|
  D|----2---2---2------------------|-------------------------------|
  A|----------------0--------------|3------------------------------|
  E|0------------------------------|--------3---------------3------|
    yesterday                  came suddenly

    00:40
    F#m             B7
  e|----2-- 2---2-- ----2-- 2---2--|0------ 2------ 3------ 2---0--|
  B|----2---2---2-------0---0---0--|-------------------------------|
  G|----2---2---2-------2---2---2--|-------------------------------|
  D|-------------------------------|2-------0----------------------|
  A|----------------2--------------|----------------3-------2------|
  E|2------------------------------|-------------------------------|
    Why             she             had     to      go      I   don't


    Am              D7              G
  e|----0-- 0---0-- ----0-- 0---0--|----3-- 3---3-- ----3-- 3------|
  B|----1---1---1-------1---1---1--|----3---3---3-------3---3------|
  G|----2---2---2-------0---0---0--|----0---0---0-------0---0------|
  D|----------------0--------------|-------------------------------|
  A|0------------------------------|-------------------------------|
  E|-------------------------------|3---------------3-----------0--|
        know    she wouldn't    say


    F#m             B7              Em
  e|----2-- 2---2-- ----2-- 2---2--|0------ 2------ 3------ 2---0--|
  B|----2---2---2-------0---0---0--|-------------------------------|
  G|----2---2---2-------2---2---2--|-------------------------------|
  D|-------------------------------|2-------0----------------------|
  A|----------------2--------------|----------------3-------2------|
  E|2------------------------------|-------------------------------|
    I               said            something       wrong   now I


    Am              D7              G
  e|----0-- 0---0-- ----0-- 0---0--|------- ------- ------- -------|
  B|----1---1---1-------1---1---1--|-------------------------------|
  G|----2---2---2-------2---2---2--|-------------------------------|
  D|----------------0--------------|-------------------------------|
  A|0------------------------------|-------------------------------|
  E|-------------------------------|3------------------------------|
    long        for yes.....ter.....day

    01:00
    G                               F#m             B7
  e|3------ 3---3-- ----3-- 3------|----2-- 2------ ----2-- 2---2--|
  B|3-------3---3-------3---3------|----2---2-----------0---0---0--|
  G|0-------0---0-------0---0------|----2---2-----------2---2---2--|
  D|-------------------------------|-------------------------------|
  A|-------------------------------|----------------2--------------|
  E|3---------------3-----------0--|2------------------------------|
    Yesterday                               love    such  easy
                                                was     an

    Em                      Em7     C               D7
  e|----0-- 0---0-- ----0-- ----0--|----0-- 0---0-- ----2-- 2---2--|
  B|----0---0---0-------0-------0--|----1---1---1-------1---1---1--|
  G|----0---0---0-------0-------0--|----0---0---0-------2---2---2--|
  D|2---------------2-------0------|----------------0--------------|
  A|-------------------------------|3------------------------------|
  E|-------------------------------|-------------------------------|
    game    to  play                        now I need  a   place
                                                                to

    G                       Gmaj7   Em7             A
  e|----3-- 3---3-- ----3-- ----3--|------- ------- ----0-- 0---0--|
  B|----3---3---3-------3-------3--|----3---3---3-------2---2---2--|
  G|----0---0---0-------0-------0--|----0---0---0-------2---2---2--|
  D|-------------------------------|----2---2---2------------------|
  A|-------------------------------|----------------0--------------|
  E|3---------------3-------2------|0------------------------------|
    hide    away            oh      I       believe             in

                                    01:17
    C       G                       F#m             B7
  e|0------ 3---3-- ----3-- 3------|----2-- 2---2-- ----2-- 2---2--|
  B|1-------3---3-------3---3------|----2---2---2-------0---0---0--|
  G|0-------0---0-------0---0------|----2---2---2-------2---2---2--|
  D|-------------------------------|-------------------------------|
  A|3------------------------------|----------------2--------------|
  E|--------3-------------------0--|2------------------------------|
    yesterday                       Why             she


    Em                              Am              D7
  e|0------ 2------ 3------ 2---0--|----0-- 0---0-- ----0-- 0---0--|
  B|-------------------------------|----1---1---1-------1---1---1--|
  G|-------------------------------|----2---2---2-------2---2---2--|
  D|2-------0----------------------|----------------0--------------|
  A|----------------3-------2------|0------------------------------|
  E|-------------------------------|-------------------------------|
    had     to      go      I   don't           she wouldn't    say
                                   know

    G                               F#m             B7
  e|----3-- 3---3-- ----3-- 3------|----2-- 2---2-- ----2-- 2---2--|
  B|----3---3---3-------3---3------|----2---2---2-------0---0---0--|
  G|----0---0---0------------------|----2---2---2-------2---2---2--|
  D|-------------------------------|-------------------------------|
  A|-------------------------------|----------------2--------------|
  E|3---------------3-----------0--|2------------------------------|
                                    I               said


    Em                              Am              D7
  e|0------ 2------ 3------ 2---0--|----0-- 0---0-- ----2-- 2---2--|
  B|-------------------------------|----1---1---1-------1---1---1--|
  G|-------------------------------|----2---2---2-------2---2---2--|
  D|2-------0----------------------|----------------0--------------|
  A|----------------3-------2------|0------------------------------|
  E|-------------------------------|-------------------------------|
    something       wrong   now I   long        for yes.....ter....

                                    01:37
    G                               G
  e|3------ ------- ------- -------|3------ 3---3-- ----3-- 3------|
  B|3------------------------------|3-------3---3-------3---3------|
  G|-------------------------------|0-------0---0-------0---0------|
  D|-------------------------------|-------------------------------|
  A|-------------------------------|-------------------------------|
  E|3------------------------------|3---------------3-----------0--|
    day                             Yesterday


    F#m             B7              Em                      Em7
  e|----2-- 2---2-- ----2-- 2---2--|----0-- 0---0-- ----0-- ----0--|
  B|----2---2---2-------0---0---0--|----0---0---0-------0-------0--|
  G|----2---2---2-------2---2---2--|----0---0---0-------0-------0--|
  D|-------------------------------|2---------------2-------0------|
  A|----------------2--------------|-------------------------------|
  E|2------------------------------|-------------------------------|
            love    such  easy      game    to  play
                was     an

    C               D7              G                       Gmaj7
  e|----0-- 0---0-- ----2-- 2---2--|----3-- 3---3-- ----3-- ----3--|
  B|----1---1---1-------1---1---1--|----3---3---3-------3-------3--|
  G|----0---0---0-------2---2---2--|----0---0---0-------0-------0--|
  D|----------------0--------------|-------------------------------|
  A|3------------------------------|-------------------------------|
  E|-------------------------------|3---------------3-------2------|
            now I need  a   place   hide    away                oh
                                to

    Em7             A               C       G
  e|------- ------- ----0-- 0---0--|0------ 3---3-- ----3-- 3---3--|
  B|----3---3---3-------2---2---2--|1-------3---3-------3---3---3--|
  G|----0---0---0-------2---2---2--|0-------0---0-------0---0---0--|
  D|----2---2---2------------------|-------------------------------|
  A|----------------0--------------|3------------------------------|
  E|0------------------------------|--------3----------------------|
    I       believe             in  yesterday

    01:55                                      (.
    G               A7              C       G
  e|3---3-- 3---3-- 3---3-- 3---3--|0------ 3---3-- ------- -------|
  B|3---3---3---3---2---2---2---2--|1-------3---3------------------|
  G|0---0---0---0---0---0---0---0--|0-------0---0------------------|
  D|-------------------------------|-------------------------------|
  A|----------------0--------------|3------------------------------|
  E|3------------------------------|--------3---3------------------|
    mmmmmmmmmmmmmmmmmmmmmmmmmmmmmmmmmmmmmmmmmmmmmmmmmmmmmm




        B  Bend
        R  Release
        /  slide up
        \  slide down
        H  hammer-on
        P  pull-off
        ~  vibrato
        +  harmonic
        x  Mute note
        . - play note like a dot in standard notation
        ^ - ties two notes together
        (. Pause


    --------------------------------------------------------

    BEATLES - DIZZY MISS LIZZY (L Williams) From HELP album.
              Released on August, 6th, 1965.

    --------------------------------------------------------

    Tabbed by:PJVillanueva

    As you all know, the guitar riff is doubled the whole song
    through. I have tabbed both tracks just when any differing
    nuances were produced. Jonn can be seen playing DIZZY live
    on his Rickenbacker at the Shea Stadium, surely he played
    it on guitar at other venues too, but on the recording he
    had played Hammond organ instead. In the verses George plays
    almost in unison with the bass line, as well live as on the
    recording, but the last uses the guitar riff more profusely.


    Owwww!
    You make me dizzy Miss Lizzy
    The way you rock'n'roll
    You make me dizzy Miss Lizzy
    When you do the stroll
    Come on Miss Lizzy
    love me 'fore I grow too old

    Come on give me fever
    Put your little hand in mine
    You make me dizzy dizzy Lizzy
    Oh girl you look so fine
    Just a-rockin' and a-rollin'
    Girl I said I wish you were mine

    Aaaahh! Owwww! Woo!

    You make me dizzy Miss Lizzy
    When you call my name
    Ooooh baby
    Say you're driving me insane
    Come on come on come on come on baby
    I want to be your loving man

    Aaaahh! Ooh! Ooh! Owww!

    Run and tell your mama
    I want you to be my bride
    Run and tell your brother
    Baby don't run and hide
    You make me dizzy Miss Lizzy
    Girl I want to marry you

    Come on give me fever
    Put your little hand in mine girl
    You make me dizzy dizzy Lizzy
    Girl you look so fine
    You're just a-rockin' and a-rollin'
    Woo! I Said I wish you were mine

    INTRO

  e|------- ------- ------- -------|------- ------- ------- -------|
  B|-------------------------------|----12--121313--131210--12-B14-|
  G|-------------------------------|----------B-------R------------|
  D|-------------------------------|-------------------------------|
  A|-------------------------------|-------------------------------|
  E|-------------------------------|-------------------------------|


    A7
  e|------- ------- ------- -------|------- ------- ------- -------|
  B|8-------8---8---8---8---8---8--|8-------8---8---8---8---8---8--|
  G|6-------6---6---6---6---6---6--|6-------6---6---6---6---6---6--|
  D|7-------7---7---7---7---7---7--|7-------7---7---7---7---7---7--|
  A|-------------------------------|-------------------------------|
  E|-------------------------------|-------------------------------|

  e|------- ------- ------- -------|------- ------- ------- -------|
  B|-------------------------------|-------------------------------|
  G|-------------------------------|-------------------------------|
  D|-------------------------------|-------------------------------|
  A|----------------7---7---9---7--|----------------7---7---9---7--|
  E|5---5---8---9------------------|5---5---8---9------------------|

  e|------- ------- ------- -------|------- ------- ------- -------|
  B|10-~---------------------------|----12--121313--131210--12-B14-|
  G|-------------------------------|----------B-------R------------|
  D|-------------------------------|-------------------------------|
  A|-------------------------------|-------------------------------|
  E|-------------------------------|-------------------------------|

  e|------- ------- ------- -------|------- ------- ------- -------|
  B|8-------8---8---8---8---8---8--|8-------8---8---8---8---8---8--|
  G|6-------6---6---6---6---6---6--|6-------6---6---6---6---6---6--|
  D|7-------7---7---7---7---7---7--|7-------7---7---7---7---7---7--|
  A|-------------------------------|-------------------------------|
  E|-------------------------------|-------------------------------|

  e|------- ------- ------- -------|------- ------- ------- -------|
  B|-------------------------------|-------------------------------|
  G|-------------------------------|-------------------------------|
  D|-------------------------------|-------------------------------|
  A|----------------7---7---9---7--|----------------7---7---9---7--|
  E|5---5---8---9------------------|5---5---8---9------------------|

  e|------- ------- ------- -------|------- ------- ------- -------|
  B|10-~---------------------------|----12--121313--131210--12-B14-|
  G|-------------------------------|----------B-------R------------|
  D|-------------------------------|-------------------------------|
  A|-------------------------------|-------------------------------|
  E|-------------------------------|-------------------------------|


    00:08
    D7
  e|8---8-- 8---8-- 8---8-- 8---8--|8------ 8---8-- 8---8-- 8---8--|
  B|7---7---7---7---7---7---7---7--|7-------7---7---7---7---7---7--|
  G|7---7---7---7---7---7---7---7--|7-------7---7---7---7---7---7--|
  D|-------------------------------|-------------------------------|
  A|-------------------------------|-------------------------------|
  E|-------------------------------|-------------------------------|

  e|------- ------- ------- -------|------- ------- ------- -------|
  B|-------------------------------|-------------------------------|
  G|-------------------------------|-------------------------------|
  D|----------------7---7---9---7--|----------------7---7---9---7--|
  A|5---5---8---9------------------|5---5---8---9------------------|
  E|-------------------------------|-------------------------------|

  e|------- ------- ------- -------|------- ------- ------- -------|
  B|10-~---------------------------|----12--121313--131210--12-B13-|
  G|-------------------------------|----------B-------R------------|
  D|-------------------------------|-------------------------------|
  A|-------------------------------|-------------------------------|
  E|-------------------------------|-------------------------------|


    A7
  e|------- ------- ------- -------|------- ------- ------- -------|
  B|8-------8---8---8---8---8---8--|8-------8-------8---8---8---8--|
  G|6-------6---6---6---6---6---6--|6-------6-------6---6---6---6--|
  D|7-------7---7---7---7---7---7--|7-------7-------7---7---7---7--|
  A|-------------------------------|-------------------------------|
  E|-------------------------------|-------------------------------|

  e|------- ------- ------- -------|------- ------- ------- -------|
  B|-------------------------------|-------------------------------|
  G|-------------------------------|-------------------------------|
  D|-------------------------------|-------------------------------|
  A|----------------7---7---9---7--|----------------7---7---9---7--|
  E|5---5---8---9------------------|5---5---8---9------------------|

  e|------- ------- ------- -------|------- ------- ------- -------|
  B|10-~---------------------------|----12--121313--131210--12-B14-|
  G|-------------------------------|----------B-------R------------|
  D|-------------------------------|-------------------------------|
  A|-------------------------------|-------------------------------|
  E|-------------------------------|-------------------------------|
    Owwww!


    00:15
    E7                              D7
  e10--10--10--10--10--10--10--10--|8---8-- 8---8-- 8---8-- 8---8--|
  B|9---9---9---9---9---9---9---9--|7---7---7---7---7---7---7---7--|
  G|9---9---9---9---9---9---9---9--|7---7---7---7---7---7---7---7--|
  D|-------------------------------|-------------------------------|
  A|-------------------------------|-------------------------------|
  E|-------------------------------|-------------------------------|

  e|------- ------- ------- -------|------- ------- ------- -------|
  B|-------------------------------|-------------------------------|
  G|-------------------------------|-------------------------------|
  D|----------------9---9---11--9--|----------------7---7---9---7--|
  A|7---7---10--11-----------------|5---5---8---9------------------|
  E|-------------------------------|-------------------------------|

  e|------- ------- ------- -------|------- ------- ------- -------|
  B|12-~---------------------------|----12--121313--131210--12-B14-|
  G|-------------------------------|----------B-------R------------|
  D|-------------------------------|-------------------------------|
  A|-------------------------------|-------------------------------|
  E|-------------------------------|-------------------------------|


    A7                                  E7
  e|------- ------- ------- -------|---10--10--10--10--10-- 10-\---|
  B|8---8---8-------8---8---8---8--|----9---9---9---9---9----9-\---|
  G|6---6---6-------6---6---6---6--|----9---9---9---9---9----9-\---|
  D|7---7---7-------7---7---7---7--|-------------------------------|
  A|-------------------------------|-------------------------------|
  E|-------------------------------|-------------------------------|

  e|------- ------- ------- -------|------- ------- ------- -------|
  B|-------------------------------|5-------5---5---5---5---5------|
  G|-------------------------------|7-------7---7---7---7---7------|
  D|-------------------------------|6-------6---6---6---6---6------|
  A|----------------7---7---9---7--|7-------7---7---7---7---7------|
  E|5---5---8---9------------------|-------------------------------|

  e|------- ------- ------- -------|------- ------- ------- -------|
  B|10-~---------------------------|-------------------------------|
  G|-------------------------------|-------------------------------|
  D|-------------------------------|-------------------------------|
  A|-------------------------------|-------------------------------|
  E|-------------------------------|-------------------------------|
                                        You make    dizzy   Miss
                                                me
    VERSE
    00:22

  e|------- ------- ------- -------|------- ------- ------- -------|
  B|8-------8---8---8---8---8---8--|8---8---8---8---8---8---8---8--|
  G|6-------6---6---6---6---6---6--|6---6---6---6---6---6---6---6--|
  D|7-------7---7---7---7---7---7--|7---7---7---7---7---7---7---7--|
  A|-------------------------------|-------------------------------|
  E|-------------------------------|-------------------------------|

  e|------- ------- ------- -------|------- ------- ------- -------|
  B|-------------------------------|-------------------------------|
  G|-------------------------------|-------------------------------|
  D|-------------------------------|-------------------------------|
  A|----------------7---7---9---7--|----------------7---7---9---7--|
  E|5-------8---9------------------|----5---8---9------------------|

  e|------- ------- ------- -------|------- ------- ------- -------|
  B|--------121313--131210--12-B13-|10-~---------------------------|
  G|----------B-------R------------|-------------------------------|
  D|-------------------------------|-------------------------------|
  A|-------------------------------|-------------------------------|
  E|-------------------------------|-------------------------------|
    Lizzy                               The way you rock        roll
                                                        and

  e|------- ------- ------- -------|------- ------- ------- -------|
  B|8---8---8---8---8---8---8---8--|8---8---8---8---8---8---8---8--|
  G|6---6---6---6---6---6---6---6--|6---6---6---6---6---6---6---6--|
  D|7---7---7---7---7---7---7---7--|7---7---7---7---7---7---7---7--|
  A|-------------------------------|-------------------------------|
  E|-------------------------------|-------------------------------|

  e|------- ------- ------- -------|------- ------- ------- -------|
  B|-------------------------------|-------------------------------|
  G|-------------------------------|-------------------------------|
  D|-------------------------------|-------------------------------|
  A|----------------7---7---9---7--|----------------7---7---9---7--|
  E|5-------8---9------------------|5---5---8---9------------------|

  e|------- ------- ------- -------|------- ------- ------- -------|
  B|----12--121313--131210--12-B13-|10-~---------------------------|
  G|----------B-------R------------|-------------------------------|
  D|-------------------------------|-------------------------------|
  A|-------------------------------|-------------------------------|
  E|-------------------------------|-------------------------------|

  e|------- ------- ------- -------|------- ------- ------- -------|
  B|--------121313--131210--12-B13-|10-~---------------------------|
  G|----------B-------R------------|-------------------------------|
  D|-------------------------------|-------------------------------|
  A|-------------------------------|-------------------------------|
  E|-------------------------------|-------------------------------|
                                        You make    dizzy   Miss
                                                me

  e|8---8-- 8---8-- 8---8-- 8---8--|8---8-- 8---8-- 8---8-- 8---8--|
  B|7---7---7---7---7---7---7---7--|7---7---7---7---7---7---7---7--|
  G|7---7---7---7---7---7---7---7--|7---7---7---7---7---7---7---7--|
  D|-------------------------------|-------------------------------|
  A|-------------------------------|-------------------------------|
  E|-------------------------------|-------------------------------|

  e|------- ------- ------- -------|------- ------- ------- -------|
  B|-------------------------------|-------------------------------|
  G|-------------------------------|-------------------------------|
  D|----------------7---7---9---7--|----------------7---7---9---7--|
  A|5---5---8---9------------------|5---5---8---9------------------|
  E|-------------------------------|-------------------------------|

  e|------- ------- ------- -------|------- ------- ------- -------|
  B|----12--121313--131210--12-B13-|10-~---------------------------|
  G|----------B-------R------------|-------------------------------|
  D|-------------------------------|-------------------------------|
  A|-------------------------------|-------------------------------|
  E|-------------------------------|-------------------------------|
    Lizzy                                   When    do      the stroll
                                                you

  e|------- ------- ------- -------|------- ------- ------- -------|
  B|8---8---8---8---8-------8------|8---8---8---8---8---8---8------|
  G|6---6---6---6---6-------6------|6---6---6---6---6---6---6------|
  D|7---7---7---7---7-------7------|7---7---7---7---7---7---7------|
  A|-------------------------------|-------------------------------|
  E|-------------------------------|-------------------------------|

  e|------- ------- ------- -------|------- ------- ------- -------|
  B|-------------------------------|-------------------------------|
  G|-------------------------------|-------------------------------|
  D|-------------------------------|-------------------------------|
  A|----------------7---7---9---7--|----------------7---7---9---7--|
  E|5-------8---9------------------|5---5---8---9------------------|

  e|------- ------- ------- -------|------- ------- ------- -------|
  B|----12--121313--131210--12-B13-|10-~---------------------------|
  G|----------B-------R------------|-------------------------------|
  D|-------------------------------|-------------------------------|
  A|-------------------------------|-------------------------------|
  E|-------------------------------|-------------------------------|

  e|------- ------- ------- -------|------- ------- ------- -------|
  B|----1213----13--131210--12-B13-|10-~---------------------------|
  G|------B---B-------R------------|-------------------------------|
  D|-------------------------------|-------------------------------|
  A|-------------------------------|-------------------------------|
  E|-------------------------------|-------------------------------|
                                            Come                Miss
                                                on

  e10--10--10--10--10--10--10--10--|8---8-- 8---8-- 8---8-- 8---8--|
  B|9---9---9---9---9---9---9---9--|7---7---7---7---7---7---7---7--|
  G|9---9---9---9---9---9---9---9--|7---7---7---7---7---7---7---7--|
  D|-------------------------------|-------------------------------|
  A|-------------------------------|-------------------------------|
  E|-------------------------------|-------------------------------|

  e|------- ------- ------- -------|------- ------- ------- -------|
  B|-------------------------------|-------------------------------|
  G|-------------------------------|-------------------------------|
  D|-------------------------------|----------------7---7---9---7--|
  A|----------------2---2---4---2--|----5---8---9------------------|
  E|----0---3---4------------------|-------------------------------|

  e|------- ------- ------- -------|------- ------- ------- -------|
  B|--------121313--131210--12-B13-|10-~---------------------------|
  G|----------B-------R------------|-------------------------------|
  D|-------------------------------|-------------------------------|
  A|-------------------------------|-------------------------------|
  E|-------------------------------|-------------------------------|
    Lizzy                           love   'fore        grow    too
                                        me      I

  e|------- ------- ------- -------|---10--10--10--10--10--10--10--|
  B|8---8---8---8---8---8---8---8--|----9---9---9---9---9---9---9--|
  G|6---6---6---6---6---6---6---6--|----9---9---9---9---9---9---9--|
  D|7---7---7---7---7---7---7---7--|-------------------------------|
  A|-------------------------------|-------------------------------|
  E|-------------------------------|-------------------------------|

  e|------- ------- ------- -------|------- ------- ------- -------|
  B|-------------------------------|----5---5---5---5---5---5------|
  G|-------------------------------|----7---7---7---7---7---7------|
  D|-------------------------------|----6---6---6---6---6---6------|
  A|----------------7---7---9---7--|----7---7---7---7---7---7------|
  E|5-------8---9------------------|-------------------------------|

  e|------- ------- ------- -------|------- ------- ------- -------|
  B|----12--121313--131210--12-B14-|10-~---------------------------|
  G|----------B-------R------------|-------------------------------|
  D|-------------------------------|-------------------------------|
  A|-------------------------------|-------------------------------|
  E|-------------------------------|-------------------------------|

  e|------- ------- ------- -------|------- ------- ------- -------|
  B|--------121313--131210--12-B14-|10-~---------------------------|
  G|----------B-------R------------|-------------------------------|
  D|-------------------------------|-------------------------------|
  A|-------------------------------|-------------------------------|
  E|-------------------------------|-------------------------------|
    old                                     Come            give
                                                on              me

    VERSE
    00:43

  e|------- ------- ------- -------|------- ------- ------- -------|
  B|8---8---8---8---8---8---8---8--|8---8---8---8---8---8---8---8--|
  G|6---6---6---6---6---6---6---6--|6---6---6---6---6---6---6---6--|
  D|7---7---7---7---7---7---7---7--|7---7---7---7---7---7---7---7--|
  A|-------------------------------|-------------------------------|
  E|-------------------------------|-------------------------------|

  e|------- ------- ------- -------|------- ------- ------- -------|
  B|-------------------------------|-------------------------------|
  G|-------------------------------|-------------------------------|
  D|-------------------------------|-------------------------------|
  A|----------------7-------9---7--|----------------7---7---9---7--|
  E|5-------9----------------------|5-------8---9------------------|

  e|------- ------- ------- -------|------- ------- ------- -------|
  B|--------121313--131210--12-B13-|10-~---------------------------|
  G|----------B-------R------------|-------------------------------|
  D|-------------------------------|-------------------------------|
  A|-------------------------------|-------------------------------|
  E|-------------------------------|-------------------------------|
    fever                                   Put your    hand    mine
                                                    little  in

  e|------- ------- ------- -------|------- ------- ------- -------|
  B|8---8---8---8---8---8---8---8--|8---8---8---8---8---8---8---8--|
  G|6---6---6---6---6---6---6---6--|6---6---6---6---6---6---6---6--|
  D|7---7---7---7---7---7---7---7--|7---7---7---7---7---7---7---7--|
  A|-------------------------------|-------------------------------|
  E|-------------------------------|-------------------------------|

  e|------- ------- ------- -------|------- ------- ------- -------|
  B|-------------------------------|-------------------------------|
  G|-------------------------------|-------------------------------|
  D|-------------------------------|-------------------------------|
  A|----------------7---7---9---7--|----------------7---7---9---7--|
  E|5-------8---9------------------|5---5---8---9------------------|

  e|------- ------- ------- -------|------- ------- ------- -------|
  B|----12--121313--131210--12-B13-|10-~---------------------------|
  G|----------B-------R------------|-------------------------------|
  D|-------------------------------|-------------------------------|
  A|-------------------------------|-------------------------------|
  E|-------------------------------|-------------------------------|
                                        You make    dizzy   dizzy
                                                me

  e|8---8-- 8---8-- 8---8-- 8---8--|8---8-- 8---8-- 8---8-- 8---8--|
  B|7---7---7---7---7---7---7---7--|7---7---7---7---7---7---7---7--|
  G|7---7---7---7---7---7---7---7--|7---7---7---7---7---7---7---7--|
  D|-------------------------------|-------------------------------|
  A|-------------------------------|-------------------------------|
  E|-------------------------------|-------------------------------|

  e|------- ------- ------- -------|------- ------- ------- -------|
  B|-------------------------------|-------------------------------|
  G|-------------------------------|-------------------------------|
  D|----------------7---7---9---7--|----------------7---7---9---7--|
  A|5---5---8---9------------------|5---5---8---9------------------|
  E|-------------------------------|-------------------------------|

  e|------- ------- ------- -------|------- ------- ------- -------|
  B|----12--121313--131210--12-B13-|10-~---------------------------|
  G|----------B-------R------------|-------------------------------|
  D|-------------------------------|-------------------------------|
  A|-------------------------------|-------------------------------|
  E|-------------------------------|-------------------------------|

  e|------- ------- ------- -------|------- ------- ------- -------|
  B|--------121313--131210--12-B13-|10-~---------------------------|
  G|----------B-------R------------|-------------------------------|
  D|-------------------------------|-------------------------------|
  A|-------------------------------|-------------------------------|
  E|-------------------------------|-------------------------------|
    Lizzy                               Oh      girl    you look
                                                                so

  e|------- ------- ------- -------|------- ------- ------- -------|
  B|8-------8---8---8---8---8---8--|8---8---8---8---8---8---8---8--|
  G|6-------6---6---6---6---6---6--|6---6---6---6---6---6---6---6--|
  D|7-------7---7---7---7---7---7--|7---7---7---7---7---7---7---7--|
  A|-------------------------------|-------------------------------|
  E|-------------------------------|-------------------------------|

  e|------- ------- ------- -------|------- ------- ------- -------|
  B|-------------------------------|-------------------------------|
  G|-------------------------------|-------------------------------|
  D|-------------------------------|-------------------------------|
  A|----------------7---7---9---7--|----------------7---7---9---7--|
  E|5-------8---9------------------|5---5---8---9------------------|

  e|------- ------- ------- -------|------- ------- ------- -------|
  B|----12--121313--131210--12-B13-|10-~---------------------------|
  G|----------B-------R------------|-------------------------------|
  D|-------------------------------|-------------------------------|
  A|-------------------------------|-------------------------------|
  E|-------------------------------|-------------------------------|
    fine                                    Just    rockin' and a
                                                a

  e10--10--10--10-- ---10--10--10--|8---8-- 8---8-- 8---8-- 8---8--|
  B|9---9---9---9-------9---9---9--|7---7---7---7---7---7---7---7--|
  G|9---9---9---9-------9---9---9--|7---7---7---7---7---7---7---7--|
  D|-------------------------------|-------------------------------|
  A|-------------------------------|-------------------------------|
  E|-------------------------------|-------------------------------|

  e|------- ------- ------- -------|------- ------- ------- -------|
  B|-------------------------------|-------------------------------|
  G|-------------------------------|-------------------------------|
  D|----------------9---9---11--9--|----------------7---7---9---7--|
  A|7-------10--11-----------------|5-------8---9------------------|
  E|-------------------------------|-------------------------------|

  e|------- ------- ------- -------|------- ------- ------- -------|
  B|----12--121313--131210--12-B13-|10-~---------------------------|
  G|----------B-------R------------|-------------------------------|
  D|-------------------------------|-------------------------------|
  A|-------------------------------|-------------------------------|
  E|-------------------------------|-------------------------------|

  e|------- ------- ------- -------|------- ------- ------- -------|
  B|--------121313--131210--12-B13-|10-~---------------------------|
  G|----------B-------R------------|-------------------------------|
  D|-------------------------------|-------------------------------|
  A|-------------------------------|-------------------------------|
  E|-------------------------------|-------------------------------|
    rollin'                         Girl    said    wish    were
                                        I       I       you     mine

  e|------- ------- ------- -------|---10--10--10--10------ 10-----|
  B|8---8---8---8---8---8---8---8--|----9---9---9---9--------9-----|
  G|6---6---6---6---6---6---6---6--|----9---9---9---9--------9-----|
  D|7---7---7---7---7---7---7---7--|-------------------------------|
  A|-------------------------------|-------------------------------|
  E|-------------------------------|-------------------------------|

  e|------- ------- ------- -------|------- ------- ------- -------|
  B|-------------------------------|----5---5---5---5---5---5------|
  G|-------------------------------|----7---7---7---7---7---7------|
  D|-------------------------------|----6---6---6---6---6---6------|
  A|----------------7---7---9---7--|----7---7---7---7---7---7------|
  E|5---5---8---9------------------|-------------------------------|

  e|------- ------- ------- -------|------- ------- ------- -------|
  B|-------------------------------|----12--121313--1312----12-B14-|
  G|-------------------------------|----------B-------R------------|
  D|-------------------------------|-------------------------------|
  A|-------------------------------|-------------------------------|
  E|-------------------------------|-------------------------------|
                                        Aaaaaaaaaaaaaaaaawwww!


    INSTRUMENTAL BREAK
    01:04 ............


    01:22

  e|------- ------- ------- ---10--|---10--10--10--10--10-- 10-----|
  B|8---8---8---8---8---8---8---9--|----9---9---9---9---9----9-----|
  G|6---6---6---6---6---6---6---9--|----9---9---9---9---9----9-----|
  D|7---7---7---7---7---7---7------|-------------------------------|
  A|-------------------------------|-------------------------------|
  E|-------------------------------|-------------------------------|

  e|------- ------- ------- -------|------- ------- ------- -------|
  B|-------------------------------|5-------5---5---5---5---5------|
  G|-------------------------------|7-------7---7---7---7---7------|
  D|-------------------------------|6-------6---6---6---6---6------|
  A|----------------7---7---9------|7-------7---7---7---7---7------|
  E|5---5---8---9---------------9--|-------------------------------|

  e|------- ------- ------- -------|10----- ------- ------- -------|
  B|10-~---------------------------|--13\12---------10-------------|
  G|-------------------------------|-------------------------------|
  D|-------------------------------|-------------------1213--------|
  A|-------------------------------|---------------------B---------|
  E|-------------------------------|-------------------------------|
                                        You make   dizzy    Miss
                                                me              Lizzy
    VERSE
    01:25

  e|------- ------- ------- -------|------- ------- ------- -------|
  B|8---8---8---8---8---8---8---8--|8---8---8---8---8---8---8---8--|
  G|6---6---6---6---6---6---6---6--|6---6---6---6---6---6---6---6--|
  D|7---7---7---7---7---7---7---7--|7---7---7---7---7---7---7---7--|
  A|-------------------------------|-------------------------------|
  E|-------------------------------|-------------------------------|

  e|------- ------- ------- -------|------- ------- ------- -------|
  B|-------------------------------|-------------------------------|
  G|-------------------------------|-------------------------------|
  D|-------------------------------|-------------------------------|
  A|----------------7-------9---7--|----------------7---7---9---7--|
  E|5-------9----------------------|5-------8---9------------------|

  e|------- ------- ------- -------|------- ------- ------- -------|
  B|-------------------------------|-------------------------------|
  G|-------------------------------|-------------------------------|
  D|10-----------------------------|-------------------------------|
  A|----------------12-------------|-------------------------------|
  E|-------------------------------|-------------------------------|

  e|------- ------- ------- -------|------- ------- ------- -------|
  B|-------------------------------|----12-B13--13--131210--12-B14-|
  G|-------------------------------|------------------R------------|
  D|-------------------------------|-------------------------------|
  A|-------------------------------|-------------------------------|
  E|-------------------------------|-------------------------------|
                                            When    call        name
                                                you     my

  e|------- ------- ------- -------|------- ------- ------- -------|
  B|8---8---8---8---8---8---8---8--|8---8---8---8---8---8---8---8--|
  G|6---6---6---6---6---6---6---6--|6---6---6---6---6---6---6---6--|
  D|7---7---7---7---7---7---7---7--|7---7---7---7---7---7---7---7--|
  A|-------------------------------|-------------------------------|
  E|-------------------------------|-------------------------------|

  e|------- ------- ------- -------|------- ------- ------- -------|
  B|-------------------------------|-------------------------------|
  G|-------------------------------|-------------------------------|
  D|-------------------------------|-------------------------------|
  A|----------------7---7---9---7--|----------------7---7---9---7--|
  E|5-------8---9------------------|5---5---8---9------------------|

  e|------- ------- ------- -------|------- ------- ------- -------|
  B|10-~---------------------------|-------------------------------|
  G|-------------------------------|-------------------------------|
  D|-------------------------------|-------------------------------|
  A|-------------------------------|-------------------------------|
  E|-------------------------------|-------------------------------|

  e|------- ------- ------- -------|------- ------- ------- -------|
  B|----12--121313--131210--12-B13-|10-~---------------------------|
  G|----------B-------R------------|-------------------------------|
  D|-------------------------------|-------------------------------|
  A|-------------------------------|-------------------------------|
  E|-------------------------------|-------------------------------|
                                            Ooooooooooooooohh   baby


  e|8---8-- 8---8-- 8---8-- 8---8--|8---8-- 8---8-- 8---8-- 8---8--|
  B|7---7---7---7---7---7---7---7--|7---7---7---7---7---7---7---7--|
  G|7---7---7---7---7---7---7---7--|7---7---7---7---7---7---7---7--|
  D|-------------------------------|-------------------------------|
  A|-------------------------------|-------------------------------|
  E|-------------------------------|-------------------------------|

  e|------- ------- ------- -------|------- ------- ------- -------|
  B|-------------------------------|-------------------------------|
  G|-------------------------------|-------------------------------|
  D|----------------7---7---9---7--|----------------7---7---9---7--|
  A|5---5---8---9------------------|5---5---8---9------------------|
  E|-------------------------------|-------------------------------|

  e|------- ------- ------- -------|------- ------- ------- -------|
  B|--------121313--131210--12-B13-|10-~---------------------------|
  G|----------B-------R------------|-------------------------------|
  D|-------------------------------|-------------------------------|
  A|-------------------------------|-------------------------------|
  E|-------------------------------|-------------------------------|
                                    Say you're      me      insane
                                            driving

  e|------- ------- ------- -------|------- ------- ------- -------|
  B|8-------8---8---8---8---8---8--|8---8---8---8---8---8---8---8--|
  G|6-------6---6---6---6---6---6--|6---6---6---6---6---6---6---6--|
  D|7-------7---7---7---7---7---7--|7---7---7---7---7---7---7---7--|
  A|-------------------------------|-------------------------------|
  E|-------------------------------|-------------------------------|

  e|------- ------- ------- -------|------- ------- ------- -------|
  B|-------------------------------|-------------------------------|
  G|-------------------------------|-------------------------------|
  D|-------------------------------|-------------------------------|
  A|----------------7---7---9---7--|----------------7---7---9---7--|
  E|5-------8---9------------------|5---5---8---9------------------|

  e|------- ------- ------- -------|------- ------- ------- -------|
  B|----12--121313--131210--12-B13-|10-~---------------------------|
  G|----------B-------R------------|-------------------------------|
  D|-------------------------------|-------------------------------|
  A|-------------------------------|-------------------------------|
  E|-------------------------------|-------------------------------|

  e|------- ------- ------- -------|------- ------- ------- -------|
  B|--------121313--131210--12-B13-|10-~---------------------------|
  G|----------B-------R------------|-------------------------------|
  D|-------------------------------|-------------------------------|
  A|-------------------------------|-------------------------------|
  E|-------------------------------|-------------------------------|
                                        Come    come    come    come
                                          on      on      on      on

  e10--10--10--10-- ---10--10--10--|8---8-- 8---8-- 8---8-- 8---8--|
  B|9---9---9---9-------9---9---9--|7---7---7---7---7---7---7---7--|
  G|9---9---9---9-------9---9---9--|7---7---7---7---7---7---7---7--|
  D|-------------------------------|-------------------------------|
  A|-------------------------------|-------------------------------|
  E|-------------------------------|-------------------------------|

  e|------- ------- ------- -------|------- ------- ------- -------|
  B|-------------------------------|-------------------------------|
  G|-------------------------------|-------------------------------|
  D|----------------9---9---11--9--|----------------7---7---9---7--|
  A|7-------10--11-----------------|5-------8---9------------------|
  E|-------------------------------|-------------------------------|

  e|------- ------- ------- -------|------- ------- ------- -------|
  B|----12--121313--131210--12-B13-|10-~---------------------------|
  G|----------B-------R------------|-------------------------------|
  D|-------------------------------|-------------------------------|
  A|-------------------------------|-------------------------------|
  E|-------------------------------|-------------------------------|

  e|------- ------- ------- -------|------- ------- ------- -------|
  B|--------121313--131210--12-B13-|12-~---------------------------|
  G|----------B-------R------------|-------------------------------|
  D|-------------------------------|-------------------------------|
  A|-------------------------------|-------------------------------|
  E|-------------------------------|-------------------------------|
    baby                        I   want    be  your            man
                                        to          loving

  e|------- ------- ------- -------|---10--10--10--10------10------|
  B|8---8---8---8---8---8---8---8--|----9---9---9---9-------9------|
  G|6---6---6---6---6---6---6---6--|----9---9---9---9-------9------|
  D|7---7---7---7---7---7---7---7--|-------------------------------|
  A|-------------------------------|-------------------------------|
  E|-------------------------------|-------------------------------|

  e|------- ------- ------- -------|------- ------- ------- -------|
  B|-------------------------------|----5---5---5---5---5---5------|
  G|-------------------------------|----7---7---7---7---7---7------|
  D|-------------------------------|----6---6---6---6---6---6------|
  A|----------------7---7---9---7--|----7---7---7---7---7---7------|
  E|5---5---8---9------------------|-------------------------------|

  e|------- ------- ------- -------|------- ------- ------- -------|
  B|----12--121313--131210--12-B13-|----12--121313--1312----12-B14-|
  G|----------B-------R------------|----------B-------R------------|
  D|-------------------------------|-------------------------------|
  A|-------------------------------|-------------------------------|
  E|-------------------------------|-------------------------------|

  e|------- ------- ------- -------|------- ------- ------- -------|
  B|--------121313-131210----------|----12--121313--1312----12-B14-|
  G|----------B------R-------------|----------B-------R------------|
  D|-------------------------------|-------------------------------|
  A|-------------------------------|-------------------------------|
  E|-------------------------------|-------------------------------|
                                        Aaaaaaaaaaaaaaaaaawwww!


    INSTRUMENTAL BREAK
    01:46

  e|------- ------- ------- -------|------- ------- ------- -------|
  B|10-~---------------------------|----12--121313--131210--12-B14-|
  G|-------------------------------|----------B-------R------------|
  D|-------------------------------|-------------------------------|
  A|-------------------------------|-------------------------------|
  E|-------------------------------|-------------------------------|

  e|------- ------- ------- -------|------- ------- ------- -------|
  B|-----10-~----------------------|----12-B13--13--131210--12-B14-|
  G|-------------------------------|-------------------------------|
  D|-------------------------------|-------------------------------|
  A|-------------------------------|-------------------------------|
  E|-------------------------------|-------------------------------|  ....

    02:04

  e|------- ------- ------- -------10--10--10--10--10--10--10-\----|
  B|8---8---8---8---8---8---8---8--|9---9---9---9---9---9---9-\----|
  G|6---6---6---6---6---6---6---6--|9---9---9---9---9---9---9-\----|
  D|7---7---7---7---7---7---7---7--|-------------------------------|
  A|-------------------------------|-------------------------------|
  E|-------------------------------|-------------------------------|

  e|------- ------- ------- -------|------- ------- ------- -------|
  B|----------------------------5--|----5---5---5---5---5---5------|
  G|----------------------------7--|----7---7---7---7---7---7------|
  D|----------------------------6--|----6---6---6---6---6---6------|
  A|----------------7---7---9---7--|----7---7---7---7---7---7------|
  E|5---5---8---9------------------|-------------------------------|

  e|-----10 ------- ------- -------|------- ------- ------- -------|
  B|10---------13-\-12------10-----|-------------------------------|
  G|-------------------------------|-------------------------------|
  D|---------------------------12B13---R12-------------------------|
  A|-------------------------------|-------------------------------|
  E|-------------------------------|-------------------------------|

  e|------- 10----- ------- -------|------- ------- ------- -------|
  B|10--------13\12---------10-----|-------------------------------|
  G|-------------------------------|-------------------------------|
  D|---------------------------12B14---R12-------------------------|
  A|-------------------------------|-------------------------------|
  E|-------------------------------|-------------------------------|
                                    Run and tell    your
                                                        mama

    VERSE
    02:07

    I want you to be my bride
    Run and tell your brother
    Baby don't run and hide
    You make me dizzy Miss Lizzy
    Girl I want to marry you

    Come on give me ...

    VERSE
    02:29

  e|------- ------- ------- -------|------- ------- ------- -------|
  B|--------8-------8---8---8---8--|8---8---8-------8---8---8------|
  G|--------6-------6---6---6---6--|6---6---6-------6---6---6------|
  D|--------7-------7---7---7---7--|7---7---7-------7---7---7------|
  A|-------------------------------|-------------------------------|
  E|-------------------------------|-------------------------------|

  e|------- ------- ------- -------|------- ------- ------- -------|
  B|-------------------------------|-------------------------------|
  G|-------------------------------|-------------------------------|
  D|-------------------------------|-------------------------------|
  A|----------------7---7---9---7--|----------------7---7---9---7--|
  E|5-------9---5------------------|5---5---9----------------------|

  e|------- ------- ------- -------|------- ------- ------- -------|
  B|--------121313--131210--12-B13-|10-~---------------------------|
  G|----------B-------R------------|-------------------------------|
  D|-------------------------------|-------------------------------|
  A|-------------------------------|-------------------------------|
  E|-------------------------------|-------------------------------|
    fever                                   Put your    hand    mine
                                                    little  in

  e|------- ------- ------- -------|------- ------- ------- -------|
  B|8---8---8-------8---8---8---8--|8---8---8---8---8---8---8---8--|
  G|6---6---6-------6---6---6---6--|6---6---6---6---6---6---6---6--|
  D|7---7---7-------7---7---7---7--|7---7---7---7---7---7---7---7--|
  A|-------------------------------|-------------------------------|
  E|-------------------------------|-------------------------------|

  e|------- ------- ------- -------|------- ------- ------- -------|
  B|-------------------------------|-------------------------------|
  G|-------------------------------|-------------------------------|
  D|-------------------------------|-------------------------------|
  A|----------------7---7---9---7--|----------------7---7---9---7--|
  E|5-------9---5------------------|5---5---9----------------------|

  e|------- ------- ------- -------|------- ------- ------- -------|
  B|----12--121313--131210--12-B13-|10-~---------------------------|
  G|----------B-------R------------|-------------------------------|
  D|-------------------------------|-------------------------------|
  A|-------------------------------|-------------------------------|
  E|-------------------------------|-------------------------------|
                                        You make    dizzy   dizzy
                                                me

  e|8---8-- 8---8-- 8-8-8-- 8-8-8--|8-8-8-- 8-8-8-- 8---8-- 8-\----|
  B|7---7---7---7---7-7-7---7-7-7--|7-7-7---7-7-7---7---7---7-\----|
  G|7---7---7---7---7-7-7---7-7-7--|7-7-7---7-7-7---7---7---7-\----|
  D|-------------------------------|-------------------------------|
  A|-------------------------------|-------------------------------|
  E|-------------------------------|-------------------------------|

  e|------- ------- ------- -------|------- ------- ------- -------|
  B|-------------------------------|-------------------------------|
  G|-------------------------------|-------------------------------|
  D|----------------7---7---9---7--|----------------7---7---9---7--|
  A|5---5---9---9------------------|5---5---9---5------------------|
  E|-------------------------------|-------------------------------|

  e|------- ------- ------- -------|------- ------- ------- -------|
  B|----12--121313--131210--12-B13-|10-~---------------------------|
  G|----------B-------R------------|-------------------------------|
  D|-------------------------------|-------------------------------|
  A|-------------------------------|-------------------------------|
  E|-------------------------------|-------------------------------|

  e|------- ------- ------- -------|------- ------- ------- -------|
  B|--------121313--131210--12-B13-|10-~---------------------------|
  G|----------B-------R------------|-------------------------------|
  D|-------------------------------|-------------------------------|
  A|-------------------------------|-------------------------------|
  E|-------------------------------|-------------------------------|
    Lizzy                               Girl    you look        fine
                                                        so

  e|------- ------- ------- -------|------- ------- ------- -------|
  B|--------8---8---8-8-8---8-8-8--|8---8---8---8---8---8---8---8--|
  G|--------6---6---6-6-6---6-6-6--|6---6---6---6---6---6---6---6--|
  D|--------7---7---7-7-7---7-7-7--|7---7---7---7---7---7---7---7--|
  A|-------------------------------|-------------------------------|
  E|-------------------------------|-------------------------------|

  e|------- ------- ------- -------|------- ------- ------- -------|
  B|-------------------------------|-------------------------------|
  G|-------------------------------|-------------------------------|
  D|-------------------------------|-------------------------------|
  A|----------------7---7---9---7--|----------------7---7---9---5--|
  E|5-------9---5------------------|5---5---9----------------------|

  e|------- ------- ------- -------|------- ------- ------- -------|
  B|----1213----x---131210--12-B13-|10-~---------------------------|
  G|------B-----------R------------|-------------------------------|
  D|-------------------------------|-------------------------------|
  A|-------------------------------|-------------------------------|
  E|-------------------------------|-------------------------------|

  e|------- ------- ------- -------|------- ------- ------- -------|
  B|----1213----13--131210--12-B13-|10-~---------------------------|
  G|------B-----------R------------|-------------------------------|
  D|-------------------------------|-------------------------------|
  A|-------------------------------|-------------------------------|
  E|-------------------------------|-------------------------------|
                                        You're  a   rockin'  and
                                            just   a            a

  e10------10--10--10--10--10--10--|8---8-- 8---8-- 8---8-- 8---8--|
  B|9-------9---9---9---9---9---9--|7---7---7---7---7---7---7---7--|
  G|9-------9---9---9---9---9---9--|7---7---7---7---7---7---7---7--|
  D|-------------------------------|-------------------------------|
  A|-------------------------------|-------------------------------|
  E|-------------------------------|-------------------------------|

  e|------- ------- ------- -------|------- ------- ------- -------|
  B|-------------------------------|-------------------------------|
  G|-------------------------------|-------------------------------|
  D|----------------9---9---11--9--|----------------7---7---9---7--|
  A|7---7---11--7------------------|5---5---9---5------------------|
  E|-------------------------------|-------------------------------|

  e|------- ------- ------- -------|------- ------- ------- -------|
  B|------------13--131210--12-B13-|10-~---------------------------|
  G|------------------R------------|-------------------------------|
  D|-------------------------------|-------------------------------|
  A|-------------------------------|-------------------------------|
  E|-------------------------------|-------------------------------|

  e|------- ------- ------- -------|------- ------- ------- -------|
  B|----1213----13--131210--12-B13-|10-~---------------------------|
  G|------B-----------R------------|-------------------------------|
  D|-------------------------------|-------------------------------|
  A|-------------------------------|-------------------------------|
  E|-------------------------------|-------------------------------|
    rollin'                         Girl    said    wish    were
                                        I       I       you     mine


    02:46                          (.

  e|------- ------- ------- -------|------- ------- ------- -------|
  B|8---8---8---8---8-------8---8--|8------------------------------|
  G|6---6---6---6---6-------6---6--|6------------------------------|
  D|7---7---7---7---7-------7---7--|7------------------------------|
  A|-------------------------------|-------------------------------|
  E|-------------------------------|-------------------------------|

  e|------- ------- ------- -------|2------ ------- ------- -------|
  B|-------------------------------|2------------------------------|
  G|-------------------------------|2------------------------------|
  D|------------------------4-/-7--|2------------------------------|
  A|--------4-------7---7----------|0------------------------------|
  E|5---5-------5------------------|-------------------------------|

  e|10----- ------- ------- -------|------- ------- ------- -------|
  B|--13\12---------10-------------|-------------------------------|
  G|-------------------------------|-------------------------------|
  D|--------------------121312P11--|-------------------------------|
  A|----------------------B-R------|12-----------------------------|
  E|-------------------------------|-------------------------------|



        B  Bend
        R  Release
        /  Slide up
        \  Slide down
        H  Hammer-on
        P  Pull-off
        ~  Vibrato
        +  Harmonic
        x  Mute note
        .  Play note like a dot in standard notation
        ^  Ties two notes together
        (. Pause
3 comments total.
0 reply
anymower wrote on October 22 2008, 03:38 pm

Nice! Good to have all songs from the album at one place. Thank you!!

0 reply
aig91 wrote on October 22 2008, 05:06 pm

Perfect tabs, as always. :)

0 reply
ApocalypseKurtz wrote on October 24 2008, 11:13 am

Absolutely perfect. Thanks!

I want to post or [tab]
guest
You may want to rate the tab now too:
select rating
Please do not post tabs as comments. Select "correction" instead!