Oops, an error
Loading. Please wait.

Hey Bulldog Bass Tab

ver3
ver3

Whole song

Interactive

More versions @911Tabs.com
58,605 views 129 this week
2 commentsread comments
1 2 3 4 5
excellent!
x 14
Autoscroll
+/-
esc
set tempo
stop
Contributor
Hey! There's an official Ultimate Guitar app which is ideal
for learning songs when you're away from computer. Get the app
WARNING: You are trying to view
                                    content from Ultimate-Guitar.com
                                    in an unauthorized application,
                                    which is prohibited.

                                    Please use an official Ultimate
                                    Guitar Tabs application for iPhone,
                                    iPad or Android to access legitimate
                                    chords, guitar, bass, and drum tabs
                                    from Ultimate-Guitar.com database.

                                    Type "ultimate guitar tabs" in Apple
                                    App Store's or Android Market's
                                    search to find the application.
    ----------------------------------------------------------

    THE BEATLES - HEY BULLDOG (Lennon& McCartney). from YELLOW 
                  SUBMARINE album. Released January 17th 1969.

    ----------------------------------------------------------

    Bass tab by:PJVillanueva





    Sheep dog standing in the rain 
    Bull frog doing it again 
    Some kind of happiness is measured out in miles 
    What makes you think you're something special when you smile 

    Childlike no on understands 
    Jack knife in your sweaty hands 
    Some kind of innocence is measured out in years 
    You don't know what it's like to listen to you fears 

    You can talk to me 
    You can talk to me 
    You can talk to me 
    If you're lonely, you can talk to me 

               SOLO

    Big man walking in the park 
    Wigwam frightened of the dark 
    Some kind of solitude is measured out in you 
    You think you know but you haven't got a clue 

    You can talk to me 
    You can talk to me 
    You can talk to me 
    If you're lonely, you can talk to me 

    Hey
    Wowwwwww wohoww!

    Hey, bulldog
    Woww!
    Hey, Bulldog (Hey Bulldog)
    Hey, Bulldog (Hey Bulldog)
    Hey, Bulldog (Hey Bulldog)

    Hey, man
    What's up brother?
    Woof!
    Whad'you say?
    I say, ... Woof!
    You know any more?
    Wowwwwww woh!
    Aaaaahhh haha 
    You got it, that's it, you had it!
    That's it man, Wooohooo, That's it, you got it!
    Woooohahawohahahahh
    Look at me man, I only had ten children
    Aaaahooo Aaaaahaha hahahhahahaha
    Quiet, man! Quiet! 
    OK ... 
    Hey, Bulldog
    Hey, Bulldog





    PIANO AND GUITAR INTRO

  G|------- ------- ------- -------|------- ------- ------- -------|
  D|-------------------------------|-------------------------------|
  A|-------------------------------|-------------------------------|
  E|-------------------------------|-------------------------------|





  G|------- ------- ------- -------|------- ------- ------- -------|
  D|-------------------------------|-------------------------------|
  A|-------------------------------|-------------------------------|
  E|-------------------------------|-------------------------------|




    00:09

  G|------- 7-----9 ---x-10 ----11\|------- 7----11 ----10- ----9P7|
  D|9---9-------9------------------|9---9-------9------------------|
  A|-------------------------------|-------------------------------|
  E|-------------------------------|-------------------------------|



    VERSE
    00:13

  G|------- ------- ------- -------|------- ------- ------- -------|
  D|9---9-9-9-9-9-9-9-9-7---6------|------------7-9---7-9---9---7--|
  A|----------------------------10-|9------------------------------|
  E|-------------------------------|-------------------------------|
        Sheep                       standing   
            dog                         in  rain
                                          the


  G|------- ------- ------- -------|------- ------- ------- ----9--|
  D|9---9-----9-9-9---9-7----------|--------7---9-7---9-7---9/11---|
  A|------------------------7---8--|9---9--------------------------|
  E|-------------------------------|-------------------------------|
        Bull                        doing again 
            frog                        it



  G|------- ------- ------- -------|------- ------- ------- -------|
  D|7---------7-7------------------|----------------6---------0-6--|
  A|--------7-------9---9-------9--|7---7-------9-------7-9--------|
  E|------------------------9------|-------------------------------|
        Some    of  happiness   is  measured    in miles 
            kind                        out



  G|------- ------- ------- -------|------- ------- ------- -------|
  D|7---7-----0-7------------------|-------------------------------|
  A|--------7-------9---9----------|--------9---9-----------9---9/-|
  E|------------------------9---8--|7---7---------7---7-7----------|
        What makes  think   something   when  you smile 
                you     you're      special


    VERSE
    00:32

  G|------- ------- ------- -------|------- ------- ------- -------|
  D|9---9-------9-9---9-9---9-7-6--|------------7-9---7-9---7---9--|
  A|--------9----------------------|9---9---9----------------------|
  E|-------------------------------|-------------------------------|
        Childlike                   no  understands
                                      one



  G|------- ------- ------- -------|------- ------- ------- ----9\-|
  D|9---9---9-9-9-9---7-6----------|--------7---9-7---9-7---9/11---|
  A|------------------------9---7--|9---9--------------------------|
  E|-------------------------------|-------------------------------|
        Jack                        in  sweaty  
            knife                     your  hands



  G|------- ------- ------- -------|------- ------- ------- -------|
  D|7---7-----7-7------------------|----------------6-----------6--|
  A|--------7-------9---9-------9--|7---7-------9-------7---9------|
  E|------------------------9------|-------------------------------|
        Some    of  innocence   is  measured  in  years 
            kind                        out



  G|------- ------- ------- -------|------- ------- ------- -------|
  D|7---7-----7-7------------------|-------------------------------|
  A|--------7-------9---9----------|--------9---9-----------9------|
  E|------------------------9---8--|7---7-----------7---7-------2/-|
        You don't   what  like  to  listen    your   
                know  it's                to      fears


    CHORUS
    00:52
    (hold the note on the 2nd fret with you index finger and slide up
     just to reach and hit the 7th fret note with your small finger)
  G|------- ------- ------- -------|------- ------- ------- -------|
  D|-------------------------------|-------------------------------|
  A|-------------------------------|-------------------------------|
  E|7---7---7---2-/-7---7---7---2-/|7---7---2-/-7---7---2-/-7---7--|
    You can     talk        to  me                  You     talk  me
                                                      can       to


    (slide up in a slighter way)
  G|------- ------- ------- -------|------- ------- ------- -------|
  D|-------------------------------|-------------------------------|
  A|7---7---7---2-/-7---7---7---2-/|7---7---2-2/7---7---2-/-7---7--|
  E|-------------------------------|-------------------------------|
                                    You     talk  me        If  you're
                                      can       to



  G|------- ------- ------- -------|
  D|-------------------------------|
  A|------------5-/-7---7---7---7--|
  E|7---7---7----------------------|
    lonely  you can talk    to  me



    01:03

  G|------- ------- ------- -------|------- ------- ------- -------|
  D|-------------------------------|-------------------------------|
  A|--------5-----7-------8-----9\-|--------5-----9\------8-----7--|
  E|7---7-------7-------7----------|7---7-------7-------7----------|





  G|------- ------- ------- -------|------- ------- ------- -------|
  D|-------------------------------|-------------------------------|
  A|--------5-----7-------8-----9--|--------5-----9-------8-----7--|
  E|7---7-------7------------------|7---7-------7------------------|


    SOLO
    01:13

  G|------- ------- ------- -------|------- ------- ------- -------|
  D|--------9-9---9-9-9-9-9-9-7-6--|--------------------7-9---7-9--|
  A|-------------------------------/9---9---9---9---9--------------|
  E|7---7--------------------------|-------------------------------|





  G|------- ------- ------- -------|------- ------- ------- 9------|
  D|9---9---9---9-9---7-6----------|--------7-----7---9/11----11\9-|
  A|------------------------9---7--|9---9-------9------------------|
  E|-------------------------------|-------------------------------|





  G|------- ------- ------- -------|------- ------- ------- -------|
  D|7---7-------7-7----------------|-------------------------------|
  A|--------7-------9---9-------9--|7---7-------7-9---7-9---9/11-7-|
  E|------------------------9------|-------------------------------|





  G|------- ------- ------- -------|------- ------- ------- -------|
  D/7---7-----7-6------------------|----------------------------4/-|
  A|----------------9---9----------|--------9---9-----------9------|
  E|------------------------9---8--|7---7-----------7---7----------|


    VERSE
    01:32

  G|------- ------- ------- -------|------- ------- ------- ----9--|
  D|9-9-9-----------9-9-9-9-9-7-6--|------------------7-9---9/11---|
  A|--------9---9------------------/9---9---9---9-9----------------|
  E|-------------------------------|-------------------------------|
        Big man                     walking park 
                                        in 
                                          the


  G|------- ------- ------- -------|------- ------- ------- 9------|
  D|9---9---9-9-9-9---7-6----------|--------7---9-7---9/11-----11\9|
  A|------------------------7---8--|9---9--------------------------|
  E|-------------------------------|-------------------------------|
        Wigwam                      frightened 
                                        of  dark
                                          the


  G|------- ------- ------- -------|------- ------- ------- -------| 
  D|7---7-----7-6------------------|--------------------6----------|
  A|--------7-------9---9-------9--|7---7-------7-----9-------7-7--|
  E|------------------------9------|-------------------------------|
        Some kind of solitude is measured out in you 




  G|------- ------- ------- -------|------- ------- ------- -------|
  D|6---7-------7-6----------------|-------------------------------|
  A|--------7-------9---9----------|--------9---9-----------9------|
  E|------------------------9-9-8--|7---7-----------7---7-------2/-|
        You think you know but you haven't got a clue 


    CHORUS
    01:51

  G|------- ------- ------- -------|------- ------- ------- -------|
  D|-------------------------------|-------------------------------|
  A|-------------------------------|-------------------------------|
  E|7---7---7---2-/-7---7---7---2-/|7---7---2-/-7---7---2-/-7---7--|
    You can     talk        to  me                  You     talk  me
                                                      can       to


 
  G|------- ------- ------- -------|------- ------- ------- -------|
  D|-------------------------------|-------------------------------|
  A|7---7---7\------7---7---7\--2-/|7---7---2-/-7---7---2-/-7---7--|
  E|------------7------------------|-------------------------------|
                                    You     talk  me        If  you're
                                      can       to



  G|------- ------- ------- -------|
  D|-------------------------------|
  A|----------------7---7---7---5--|
  E|7---7---7----------------------|
    lonely  you can talk    to  me



    02:03

  G|------- ------- ------- -------|------- ------- ------- -------|
  D|-------------------------------|-------------------------------|
  A|--------5-----7-------8-----9--|--------5-----9-------8-----7P5|
  E|7---7-------7-------7----------|7---7-------7-------7----------|
                                Hey




  G|------- ------- ------- -------|------- ------- ------- -------|
  D|-------------------------------|-------------------------------|
  A|--------5-----7-------8-----9\-|--------5-----9-------8-----7--|
  E|7---7-------7-------7----------|7---7-------7-------7----------|
                        Wowwwwwwwww wohoww!


    CODA
    02:12

  G|------- ------- ------- -------|------- ------- ------- -------|
  D|--------9-9-9-9-9-9-9-9-9---9--|----------------------7-9---9--|
  A|-------------------------------|9---9-------9-------9----------|
  E|7---7--------------------------|-------------------------------|
                                                        Hey,  bulldog




  G|------- ------- ------- -------|------- ------- ------- -------|
  D|9---9---9-----7---9-7---9---7--|-------------------------------|
  A|-------------------------------|9---9-------7---9-9-9----------|
  E|-------------------------------|--------9---------------9------|
                                                        Hey,  bulldog
                            Woww!                       Hey,  bulldog



  G|------- ------- ------- -------|------- ------- ------- -------|
  D|9---9-------7---9-9-9-------7--|------------------------7------|
  A|--------9-9-------------9------|9---9-------7---9---9-------9--|
  E|-------------------------------|--------9----------------------|
                                                        Hey,  bulldog
                                                        Hey,  bulldog



  G|------- ------- ------- -------|------- ------- ------- -------|
  D|9---9-------7---9-9-9-------7--|------------------------7------|
  A|--------9---------------9------|9---9-------7---9---9-------9--|
  E|-------------------------------|--------9----------------------|
                                                        Hey,  bulldog
                                                        Hey,  bulldog


    02:31

  G|------- ------- ------- -------|------- -111111 ------- 111111-|
  D|9-9-9---9-9-9-9---9-9---9---9--|-------------------------------|
  A|-------------------------------|9-9-9-------------9-9----------|
  E|-------------------------------|-------------------------------|
                                        What's brother?         
                                            up  
                        Hey,                                   Woof!
                          man ...


  G|------- ------- ------- -------|------- -111111 ------- 111111-|
  D|9---9---9-9-9-9----------------|-------------------------------|
  A|-------------------------------/9---9-------------9-9----------|
  E|------------------7-7---7---7--|-------------------------------|
          What  say?                                         You any
            d'you                                              know
                              I say, ...            Woof!



  G|------- ------- ------- -------|------- 11111111------- ----11-|
  D|9---9-------------9-9---9---9--|-------------------------------|
  A|-------------------------------|9---9-------------9-9---9------|
  E|----------7---7-7--------------|-------------------------------|
    more?                                           Aaaahhhhhhhh haha 
                                Wowwwwwwww  woh!                                    


    02:44

  G|------- ------- ------- -------|------- ------- ------- -------|
  D|-------------------------------|--------7----------------------|
  A|------------------------5---7--|9---9-------9-------9---9---9--|
  E|7---7---5---5-------7----------|-------------------------------|
                                  Ha  ha     ha ha ha   Woooohoooo!
      You it, that's    you had     That's 
        got       it,         it!       it, man



  G|------- ------- ------- -------|------- ------- ------- -------|
  D|9---9---------------7----------|-------------------------------|
  A|----------------------------5--/9--/9---9---9------/9---9---9--|
  E|--------7---5-----------5------|-------------------------------|
                       Woohahawoohahahahh
     That's     you   it!                   Look me, I only ten 
          it,     got                        at  man,   had children



  G|------- ------- ------- -------|------- ------- ------- -------|
  D|-------------------------------|-------------------------------|
  A|-------------------------------|-------------------------------|
  E|7---7-------5-------5-------5--|----4-------2-------2---2/9----|
                 Aaaaaahaha       hahahhahahahahahaha
    Aaaahoooo!                                        Quiet,  Quiet!
                                                          man!

    02:59

  G|------- ------- ------- -------|------- ------- ------- -------|
  D|-------------------------------|--------------------7-------7--|
  A|--------------------5---6---7--|8---9---9---9-9-9-------9------|
  E|----7---7---7---7--------------|-------------------------------|
          OK                                    Hey,        bulldog
                                                            bulldog
                                    ............ Fade out .........



  G|------- ------- ------- -------|------- 11111111-----11 ----11-|
  D|9---9---9---9-9-9-9-9-----9-9--|------------------9H11--9H11---|
  A|-------------------------------|9---9--------------------------|
  E|-------------------------------|-------------------------------|
                                                    Hey       bulldog
                                                    Hey       bulldog
    ...............................................................




  G|------- ------- ------- -------|------- ------- ------- -------|
  D|9------------------------------|-------------------------------|
  A|-------------------------------|-------------------------------|
  E|-------------------------------|-------------------------------|
    ................








        B  Bend
        R  Release
        /  slide up
        \  slide down
        H  hammer-on
        P  pull-off
        ~  vibrato
        +  harmonic
        x  Mute note
        . - play note like a dot in standard notation
        ^ - ties two notes together
        (.  Pause


comments
print report bad tab
2 comments total.
0 reply
FedericoVT wrote on January 9 2009, 03:22 pm

Very good! much better than the other tabs for this song, good job!

+6 reply
Trojan Virus wrote on April 30 2009, 06:41 pm

damn that mccartney such a good bassist

I want to post or [tab]
guest
You may want to rate the tab now too:
select rating
Please do not post tabs as comments. Select "correction" instead!