Oops, an error
Loading. Please wait.

I Am The Walrus Bass Tab

ver3
ver3

Whole song

Interactive

More versions @911Tabs.com
22,094 views 132 this week
no commentswrite comment
1 2 3 4 5
excellent!
x 9
Autoscroll
+/-
esc
set tempo
stop
Contributor
WARNING: You are trying to view
                                    content from Ultimate-Guitar.com
                                    in an unauthorized application,
                                    which is prohibited.

                                    Please use an official Ultimate
                                    Guitar Tabs application for iPhone,
                                    iPad or Android to access legitimate
                                    chords, guitar, bass, and drum tabs
                                    from Ultimate-Guitar.com database.

                                    Type "ultimate guitar tabs" in Apple
                                    App Store's or Android Market's
                                    search to find the application.
I AM THE WALRUS

Written by John Lennon


INTRO

  00:00

  t=85
G|---------------------------------|-----------------|
D|---------------------------------|-----------------|
A|---------------------------------|-----------------|
E|---------------------------------|-----------------|



G|---------------------------------|---------------------------------|
D|---------------------------------|---------------------------------|
A|---------------------------------|---------------------------------|
E|---------------------------------|---------------------------------|



G|---------------------------------|---------------------------1214\-|
D|---------------------------------|-------------------------14------|
A|---------------------------------|---------------------------------|
E|---------------------------------|---------------------------------|


  00:15

G|---------------------------------|---------------------------------|
D|---------------------------------|-----------------------------5---|
A|-5---5---5-------5---5---5-------|-5---5-------5---5---5---7-------|
E|---------------5---------------5-|---------------------------------|


VERSE

  00:21

G|---------------------------------|---------------------------------|
D|-7-------7-------5-------5-------|-----------------------------5---|
A|---------------------------------|-3-------3-------5---5---7-------|
E|---------------------------------|---------------------------------|



G|---------------------------------|---------------------------------|
D|-7-------7-------5---5---5-------|---------------------------------|
A|---------------------------------|-3---3---3-------3---3---3---3---|
E|---------------------------------|---------------------------------|



G|---------------------------------|---------------------------------|
D|---------------------------------|-7-------------------------------|
A|-5---5---5-------5---5---5---5---|---------------------------------|
E|---------------------------------|---------------------------------|


VERSE

  00:38

G|---------------------------------|---------------------------------|
D|-7---7---7---7---5---5---5-------|-4---4---4-------3---3---5-------|
A|---------------------------------|---------------------------------|
E|---------------------------------|---------------------------------|



G|---------------------------------|---------------------------------|
D|-7---7---7-------5---5---5-------|-3---3---3---3---3---3---3---3---|
A|---------------------------------|---------------------------------|
E|---------------------------------|---------------------------------|



G|---------------------------------|---------------------------------|
D|---------------------------------|---------------------------------|
A|-2---2---2---2---2-------0---2---|-2---2---2---2---2-------2---3---|
E|---------------------2-----------|---------------------2-----------|


CHORUS

  00:55

G|---------------------------------|---------------------------------|
D|---------------------------------|---------------------------------|
A|-3---3---3-------3-------3-------|-5---5---5---5---3---2---0---5---|
E|-------------3-------3-------3---|---------------------------------|



G|---------------------------------|
D|---------------------------------|
A|-7---7-----------7---7-------7---|
E|---------7---7-----------7-------|


VERSE

  01:04

G|---------------------------------|---------------------------------|
D|-7---7---7-------5---------------|-----------------------------5---|
A|-------------------------7---5---|-3-------3-------5---5---7-------|
E|---------------------------------|---------------------------------|



G|---------------------------------|---------------------------------|
D|-7---7---7-------5---5-----------|---------------------------------|
A|-------------------------7---5---|-3---3-----------3---3-------3---|
E|---------------------------------|---------3---3-----------3-------|



G|---------------------------------|---------------------------------|
D|-----------------------------5---|-7-------7---7---7---5-----------|
A|-5---5-----------5---5---5-------|-------------------------7-------|
E|---------5---5-------------------|-----------------------------8---|


  01:20

G|---------------------------------|---------------------------------|
D|---------------------------------|---------------------------------|
A|-5-------5---5---5---5---5---5---|-5---5---5---5---5---5---5---5---|
E|---------------------------------|-----------5---5-----------------|



G|---------------------------------|---------------------------------|
D|---------------------------------|---------------------------------|
A|---------------------------------|-------------------------7-6-5---|
E|-5---5---5---5-3-5---5---5---4---|-0---0---0---0---0---0-----------|



G|---------------------------------|*-------------------------------*|
D|-------------------------4-------|-------------------------5-------|
A|-5---5---5---5---3-2-0-------5---|-5---5---5---5---5---5-----7-5---|
E|---------------------------------|---------------------------------|


VERSE

  01:35

G|---------------------------------|---------------------------------|
D|-7-------7-------5---5---5-------|-4---4---4-------3---3---5---5---|
A|---------------------------------|---------------------------------|
E|---------------------------------|---------------------------------|



G|---------------------------------|---------------------------------|
D|-7---7---7-------5---5---5-------|-3---3---3---3---3---3---3---3---|
A|---------------------------------|---------------------------------|
E|---------------------------------|---------------------------------|



G|---------------------------------|---------------------------------|
D|---------------------------------|---------------------------------|
A|-2---2---2---2---2-------0---2---|-2---2---2---2---2---2-------2---|
E|---------------------2-----------|-------------------------2-------|


CHORUS

  01:51

G|---------------------------------|---------------------------------|
D|---------------------------------|---------------------------------|
A|-3---3---3-------3---3-------3---|-5---5---5-------3---2---0---5---|
E|-------------3-----------3-------|-------------5-------------------|



G|---------------------------------|---------------------------------|
D|---------------------------------|---------------------------------|
A|-7-------7-------7-------7-------|---------------------------------|
E|-----7-------7-------7-------7---|---------------------------------|


INTERLUDE

  02:02

G|---------------------------------|---------------------------------|
D|---------------------------------|---------------------------------|
A|---------------------------------|---------------------------------|
E|---------------------------------|---------------------------------|



G|---------------------------------|
D|---------------------------------|
A|---------------------------------|
E|---------------------------------|


BRIDGE

  02:11

G|---------------------------------|---------------------------------|
D|---------------------------------|---------------------------------|
A|-2---2---2---2---0-------0---0---|---------------------------------|
E|---------------------------------|-3---3---3---3---1---1---1---1---|



G|---------9---9-\-----------------|---------------------------------|
D|---------------------------------|---------------------------------|
A|---------------------------------|-2---2-------0---2---2-------0---|
E|-0---------------1-------1---1---|---------2---------------2-------|



G|---------------------------------|
D|---------------------------------|
A|-2---2-----------2-------0---2---|
E|---------2---2-------2-----------|


CHORUS

  02:24

G|---------------------------------|---------------------------------|
D|---------------------------------|---------------------------------|
A|-3---3-------3---3-------3-------|-5---5---5---5---5-------5-------|
E|---------3-----------3-------3---|---------------------5-------5---|



G|---------------------------------|---------------------------------|
D|---------------------------------|---------------------------------|
A|-7---7---7-------7---7-------7---|-5---5-----------5---5-------7---|
E|-------------7-----------7-------|---------5---5-----------5-------|


VERSE

  02:35

G|---------------------------------|---------------------------------|
D|-7-------7-------5-------5-------|-----------------------------5---|
A|-----------------------------5---|-3---3---3-------5---5---7-------|
E|---------------------------------|---------------------------------|



G|---------------------------------|---------------------------------|
D|-7---7---7---7---5---5---5---5---|---------------------------------|
A|---------------------------------|-3---3-----------3---3-------3---|
E|---------------------------------|---------3---3-----------3-------|



G|---------------------------------|---------------------------------|
D|---------------------------------|-7-------7---7---7---7---7---7---|
A|-5---5-----------5---5-------7---|---------------------------------|
E|---------5---5-----------5-------|---------------------------------|


VERSE

  02:52

G|---------9---------------7-------|---------------------------------|
D|-7---7-------7---5---5-------5---|-4---4---4---4---3---3---5---5---|
A|---------------------------------|---------------------------------|
E|---------------------------------|---------------------------------|



G|---------------------------------|---------------------------------|
D|-7---7---7---7---5---5---5---5---|-3---3-----------3---3-------3---|
A|---------------------------------|---------3---3-----------3-------|
E|---------------------------------|---------------------------------|



G|---------------------------------|---------------------------------|
D|---------------------------------|---------------------------------|
A|-2---2-----------2---2-------0---|-2---2-----------2-------2-------|
E|---------2---2-----------2-------|---------2---2-------2-------2---|


CHORUS

  03:08

G|---------------------------------|---------------------------------|
D|---------------------------------|---------------------------------|
A|-3---3-----------3---3-------3---|-5---5-----------5---5-------5---|
E|---------3---------------3-------|---------5---------------5-------|



G|---------------------------------|---------------------------------|
D|---------------------------------|---------------------------------|
A|-7-------7-------7-------7-------|-5---5---5-------5---5-------5---|
E|-----7-------7-------7-------7---|-------------5-----------5-------|



G|---------------------------------|---------------------------------|
D|---------------------------------|---------------------------------|
A|-3-------3-------3-------3-------|-2-------2-------2---2---2---2---|
E|-----3-------3-------3-------3---|-----2-------2-------------------|


OUTRO

  03:24

G|---------------------------------|-----7---7---7-------------------|
D|---------------------7-----------|---------------------------------|
A|---------------------------------|-----------------5---------------|
E|-5---5---5---5---5-------5---5---|-3-------------------3---3---3---|



G|-----------------5---------------|-----------------9-8-7-----------|
D|---------------------------------|-------------------------9-------|
A|---------------------------------|-----------------------------7---|
E|-1---1---1---1-------1---1---1---|-0---0---0---0-------------------|


  03:35

G|---------------------------------|---------------------------------|
D|---------------------------------|---------------------2---5-------|
A|-5---5---5---5---5---5---5---5---|-3---3---3---3---3-----------5---|
E|---------------------------------|---------------------------------|



G|---------------------------------|---------------------------------|
D|---------------------------------|-------------7-------------------|
A|-2---2---2---2---2---2---2---2---|---------------------------------|
E|---------------------------------|-5---5---5-------5---5---5---5---|



G|---------------------------------|---------------------------------|
D|---------------------------------|---------------------------------|
A|---------------------------------|---------------------------------|
E|-3---3---3---3---3---3---3---3---|-1---1---1---1---1---1---1---1---|



G|---------------------------------|---------------------------------|
D|---------------------------------|---------------------------------|
A|---------------------------------|-5---5---5---5---5---5---5---5---|
E|-0---0---0---0---0---0---0---0---|---------------------------------|



G|---------------------------------|---------------------------------|
D|---------------------------------|---------------------------------|
A|-3---3---3---3---3---3---3---3---|-2---2---2---2---2---2---2---2---|
E|---------------------------------|---------------------------------|



G|---------------------------------|---------------------------------|
D|---------------------------------|---------------------------------|
A|---------------------------------|---------------------------------|
E|-5---5---5-----------5---5---5---|-3---3---3-----------3---3---3---|



G|---------------------------------|---------------------------------|
D|---------------------------------|---------------------------------|
A|---------------------------------|---------7---7-----------7-------|
E|-1---1---1-----------1---1---1---|-0---0-----------0---0-------0---|


  04:12

G|---------------------------------|---------------------------------|
D|---------------------------------|---------------------2---5---2---|
A|-5---5---5-----------5---5-------|-3---3---3-------3---------------|
E|---------------------------------|---------------------------------|



G|---------------------------------|---------------------------------|
D|---------4---6---7---6---4-------|-------------4---5---4-----------|
A|-2---6-----------------------6---|-----4---7---------------7---4---|
E|---------------------------------|-5-------------------------------|



G|---------------------------------|---------------------------------|
D|---------0---2---3---2---0-------|---------------------------------|
A|-----2-----------------------2---|-------------3-------0---3-------|
E|-3-------------------------------|-1---1-----------1-----------1---|



G|---------------------------------|---------------------------------|
D|---------------------------------|---------------------------------|
A|---------7---------------2-------|---------------------------------|
E|-0---------------0---4-------0---|---------------------------------|
                                                             FADE OUT
comments
print report bad tab
I want to post or [tab]
guest
You may want to rate the tab now too:
select rating
Please do not post tabs as comments. Select "correction" instead!