Oops, an error
Loading. Please wait.

I Am The Walrus Tab

ver3
ver3

Whole song

Interactive

More versions @911Tabs.com
11,510 views 6 this week
1 commentread comment
1 2 3 4 5
excellent!
x 3
Autoscroll
+/-
esc
set tempo
stop
Contributor
Tabbers playing skills
advanced
WARNING: You are trying to view
                                    content from Ultimate-Guitar.com
                                    in an unauthorized application,
                                    which is prohibited.

                                    Please use an official Ultimate
                                    Guitar Tabs application for iPhone,
                                    iPad or Android to access legitimate
                                    chords, guitar, bass, and drum tabs
                                    from Ultimate-Guitar.com database.

                                    Type "ultimate guitar tabs" in Apple
                                    App Store's or Android Market's
                                    search to find the application.
----------------------------------------------------------------------------
                     I am the Walrus (Cello) - Beatles
----------------------------------------------------------------------------

Tabbed by: Dave S.
Email: Dlgibson@netscape.com

Tuning: Standard


I have arranged the Cello For guitar, it is pretty simple and accurate.


e|-------------14---|------------------|----------------|---------------|
B|---16----14-------|---12---------15--|-12------14--15-|---------12--13|
G|------------------|---------14-------|----------------|--14-----------|
D|------------------|------------------|----------------|---------------|
A|------------------|------------------|----------------|---------------|
E|------------------|------------------|----------------|---------------|


e|------------------|------------------|----------------|----------------|
B|------------------|------------------|----------------|----------------|
G|--2---2---0---0---|--5---5---7---9---|--2---9-8-9-8---|---5----5---5---|
D|------------------|------------------|----------------|----------------|
A|------------------|------------------|----------------|----------------|
E|------------------|------------------|----------------|----------------|


e|----------------|------------------|--------------8---|----------------|
B|----------------|------------------|---------8-10---10|----------------|
G|-7---7-4-2-2--7-|---2---9-8-9-8----|9-8-9-8-9---------|--11----14--16--|
D|----------------|------------------|------------------|--12----15--17--|
A|----------------|------------------|------------------|----------------|
E|----------------|------------------|------------------|----------------|


e|----------------|------------------|-----------------------------------|
B|-----15-14------|--6-6-6-6-6-6-6-6-|---10-12-10-12--10-12-10-12---10-12|
G|---12-----14--12|------------------|-11-----------11------------11-----|
D|-14-------------|------------------|-----------------------------------|
A|----------------|------------------|-----------------------------------|
E|----------------|------------------|-----------------------------------|

e|----------------|
B|--10-12-10------|
G|-----------11---|
D|----------------|
A|----------------|
E|----------------|

e|----------------|------------------|------------------|
B|----------------|------------------|------------------|
G|--12---\---5----|--14---\---7------|--16---\---9----9-|
D|----------------|------------------|------------------|
A|----------------|------------------|------------------|
E|----------------|------------------|------------------|

e|------------------|------------------|----------------|----------------|
B|------------------|------------------|----------------|----------------|
G|--2---2---0---0---|--5---5---7---9---|--2---9-8-9-8---|---5----5---5---|
D|------------------|------------------|----------------|----------------|
A|------------------|------------------|----------------|----------------|
E|------------------|------------------|----------------|----------------|

e|----------------------------------|----------------|-------------------|
B|----------------------------------|----------------|-------------------|
G|---14-13-12-11-10-9-8-7-6-5-4-3---|--2-------------|7-7-7-7-12-11-12-11|
D|----------------------------------|----------------|-------------------|
A|----------------------------------|----------------|-------------------|
E|----------------------------------|----------------|-------------------|

e|---------------------------|-----------------|-----------------|
B|---------------------------|-----------------|-----------------|
G|-12-11-12-11-12-11-12-11-7-|--2--2--0--------|-----------------|
D|---------------------------|-----------------|--2--------------|
A|---------------------------|-----------------|-----------------|
E|---------------------------|-----------------|-----------------|

e|----------------|--------------8---|------------------|----------------|
B|----------------|----------8-10-10-|------------------|-----15-14------|
G|-------------2--|-9-8-9-8-9--------|--11----14--16----|---12-----14--12|
D|--0------4------|------------------|--12----15--17----|-14-------------|
A|----------------|------------------|------------------|----------------|
E|----------------|------------------|------------------|----------------|

e|----------------|------------------------------------------------------|
B|-6-6-6-6-6-6-6-6|----10-12-10-12--10-12-10-12---10-12-10-12-10---------|
G|----------------|--11-----------11------------11---------------11------|
D|----------------|------------------------------------------------------|
A|----------------|------------------------------------------------------|
E|----------------|------------------------------------------------------|

e|----------------|------------------|------------------|
B|----------------|------------------|------------------|
G|--12---\---5----|--14---\---7------|--16---\---9----9-|
D|----------------|------------------|------------------|
A|----------------|------------------|------------------|
E|----------------|------------------|------------------|

e|----------------|------------------|------------------|----------------|
B|----------------|------------------|------------------|----------------|
G|---4-------2----|---0--------------|------------------|----------------|
D|----------------|-----------3------|---2--------------|---9-------7----|
A|----------------|------------------|------------------|----------------|
E|----------------|------------------|------------------|----------------|

e|----------------|------------------|-----------------|-----------------|
B|----------------|------------------|-----------------|-----------------|
G|----------------|------------------|-4-4-4-4-4-4-4-4-|--4-4-4-4-4-4-4-4|
D|---5------3-----|---2--------3-----|-----------------|-----------------|
A|----------------|------------------|-----------------|-----------------|
E|----------------|------------------|-----------------|-----------------|

e|----------------|------------------|------------------|----------------|
B|----------------|------------------|------------------|----------------|
G|-5-5-5-5-5-5-5-5|-7-7-7-7-7-7-7-7--|-9-9-9-9-9-9-9-9--|-7-7-7-7-7-7-7-7|
D|----------------|------------------|------------------|----------------|
A|----------------|------------------|------------------|----------------|
E|----------------|------------------|------------------|----------------|

e|------------------|------------------|----------------|----------------|
B|------------------|------------------|----------------|----------------|
G|--2---2---0---0---|--5---5---7---9---|--2---9-8-9-8---|---5----5---5---|
D|------------------|------------------|----------------|----------------|
A|------------------|------------------|----------------|----------------|
E|------------------|------------------|----------------|----------------|

e|----------------|------------------|--------------8---|----------------|
B|----------------|------------------|---------8-10---10|----------------|
G|-7---7-4-2-2--7-|---2---9-8-9-8----|9-8-9-8-9---------|--11----14--16--|
D|----------------|------------------|------------------|--12----15--17--|
A|----------------|------------------|------------------|----------------|
E|----------------|------------------|------------------|----------------|

e|----------------|------------------|-----------------------------------|
B|-----15-14------|--6-6-6-6-6-6-6-6-|---10-12-10-12--10-12-10-12---10-12|
G|---12-----14--12|------------------|-11-----------11------------11-----|
D|-14-------------|------------------|-----------------------------------|
A|----------------|------------------|-----------------------------------|
E|----------------|------------------|-----------------------------------|

e|----------------|
B|--10-12-10------|
G|-----------11---|
D|----------------|
A|----------------|
E|----------------|

e|----------------|------------------|------------------|
B|----------------|------------------|------------------|
G|--12---\---5----|--14---\---7------|--16---\---9----9-|
D|----------------|------------------|------------------|
A|----------------|------------------|------------------|
E|----------------|------------------|------------------|

e|----------------|------------------|------------------|----------------|
B|----------------|------------------|------------------|----------------|
G|-7-7-7-7-7-7-7-7|-5-5-5-5-5-5-5-5--|-4-4-4-4-4-4-4-4--|-2-2-2-2-2-2-2-2|
D|----------------|------------------|------------------|----------------|
A|----------------|------------------|------------------|----------------|
E|----------------|------------------|------------------|----------------|


e|----------------|------------------|------------------|----------------|
B|----------------|------------------|------------------|----------------|
G|-0-0-0-0-0-0-0-0|------------------|------------------|----------------|
D|----------------|--3-3-3-3-3-3-3-3-|-2-2-2-2-2-2-2-2--|-0-0-0-0-0-0-0-0|
A|----------------|------------------|------------------|----------------|
E|----------------|------------------|------------------|----------------|

e|----------------|------------------|------------------|----------------|
B|----------------|------------------|------------------|----------------|
G|----------------|------------------|-2-2-2-2-2-2-2-2--|-0-0-0-0-0-0-0-0|
D|----------------|------------------|------------------|----------------|
A|-3-3-3-3-3-3-3-3|-2-2-2-2-2-2-2-2--|------------------|----------------|
E|----------------|------------------|------------------|----------------|

e|------------------|------------------|----------------|
B|------------------|------------------|----------------|
G|------------------|------------------|----------------|
D|--3-3-3-3-3-3-3-3-|-2-2-2-2-2-2-2-2--|-0-0-0-0-0-0-0-0|
A|------------------|------------------|----------------|
E|------------------|------------------|----------------|

e|----------------|------------------|------------------|----------------|
B|----------------|------------------|------------------|----------------|
G|----------------|------------------|------------------|----------------|
D|----------------|------------------|------------------|----------------|
A|-3-3-3-3-3-3-3-3|-2-2-2-2-2-2-2-2--|------------------|----------------|
E|----------------|------------------|------------------|----------------|



| /  slide up
| \  slide down
| h  hammer-on
| p  pull-off
| ~  vibrato
| +  harmonic
| x  Mute note
===========================================================================
comments
We did not receive enough feedback on this tab! Please rate:
print report bad tab
1 2 3 4 5
1 comment total.
0 reply
aig91 wrote on November 2 2007, 02:11 pm

Nice tab man! I love this Beatles song :)

I want to post or [tab]
guest
You may want to rate the tab now too:
select rating
Please do not post tabs as comments. Select "correction" instead!