Oops, an error
Loading. Please wait.

I Am The Walrus Tab

ver4
ver4

Whole song

Interactive

More versions @911Tabs.com
68,805 views 51 this week
4 commentsread comments
1 2 3 4 5
excellent!
x 19
Autoscroll
+/-
esc
set tempo
stop
Contributor
Hey! There's an official Ultimate Guitar app which is ideal
for learning songs when you're away from computer. Get the app
WARNING: You are trying to view
                                    content from Ultimate-Guitar.com
                                    in an unauthorized application,
                                    which is prohibited.

                                    Please use an official Ultimate
                                    Guitar Tabs application for iPhone,
                                    iPad or Android to access legitimate
                                    chords, guitar, bass, and drum tabs
                                    from Ultimate-Guitar.com database.

                                    Type "ultimate guitar tabs" in Apple
                                    App Store's or Android Market's
                                    search to find the application.
   ---------------------------------------------------------------

   THE BEATLES - I AM THE WALRUS (Lennon & McCartney) Released on 
                 24th November 1967 as flip side to HELLO GOODBYE 
                 single.

   ---------------------------------------------------------------

   Tabbed by:PJVillanueva





   There were eight violins, four celli, a bass clarinet and three
   horns in this song. As ever, the string glissandos could never be 
   achieved with a guitar, not even using a slide, due to the guitar 
   fretting & the different tone and stringing of those instruments,
   but I think that a couple of guitars or even just one could get
   an interesting rendition of this song. 
   Don't miss the Mike Sammes Singers in the Coda, a vocal group with 
   eight men and eight wonen, who perform in unison the ho ho hoo he 
   he hee ha ha haa and some woooohs and strange things, besides that 
   ending choir after John's first Oompah oompah.

    



   I am he as you are he as you are me and we are all together.
   See how they run like pigs from a gun, see how they fly.
   I'm crying.

   Sitting on a cornflake, waiting for the van to come.
   Corporation tee-shirt, stupid bloody Tuesday.
   Man, you been a naughty boy, you let your face grow long.
   I am the eggman, they are the eggmen, I am the walrus,
   Goo goo goo joob

   Mister City P'liceman sitting
   Pretty little p'licemen in a row.
   See how they fly like Lucy in the Sky, see how they run.
   I'm crying, I'm crying.
   I'm crying, I'm crying.

   Yellow matter custard, dripping from a dead dog's eye.
   Crabalocker fishwife, pornographic priestess,
   Boy, you been a naughty girl you let your knickers down.
   I am the eggman, they are the eggmen, I am the walrus,
   Goo goo goo joob.

   Sitting in an English garden waiting for the sun.
   If the sun don't come, you get a tan
   From standing in the English rain.
   I am the eggman, they are the eggmen,I am the walrus,
   Goo goo g'joob, goo goo g'joob.

   Expert textpert choking smokers,
   Don't you think the joker laughs at you?
   See how they smile like pigs in a sty, See how they sny.
   I'm crying.

   Semolina pilchard, climbing up the Eiffel Tower.
   Elementary penguin singing Hare Krishna.
   Man, you should have seen them kicking Edgar Allan Poe.
   I am the eggman, they are the eggmen, I am the walrus,
   goo goo a'joob, g' goo goo g'joob, (goo goo goo joob 
   goo goo goo joob goo goo gooooooooooooo joooooooob)





    B                      
  e|------- ------- ------- -------|------- -------|
  B|7-------7-------7-------7------|7-------7------|
  G|8-------8-------8-------8------|8-------8------|
  D|----9-------9-------9-------9--|----9-------9--|
  A|-------------------------------|---------------|
  E|-------------------------------|---------------|

  e|------- ------- ------- -------|------- -------|
  B|4------------------------------|---------------|
  G|4------------------------------|---------------|
  D|4------------------------------|---------------|
  A|6------------------------------|---------------|
  E|7------------------------------|---------------|




                    A               G+5maj7         F6         
  e|------- ------- ------- -------|2------ 2------ ------- -------|
  B|7-------7-------5-------5------|4-------4---------------3------|
  G|8-------8-------6-------6------|----0-------0---2--------------|
  D|----9-------9-------7-------7--|----------------3---3-------3--|
  A|-------------------------------|-------------------------------|
  E|-------------------------------|-------------------------------|

  e|------- ------- ------- -------|------- ------- ------- -------|
  B|-------------------------------|------------------------3------|
  G/8--------------\6------/11----\|4---------------2--------------|
  D|-------------------------------|-------------------------------|
  A|-------------------------------|-------------------------------|
  E/7--------------\5------/10----\|3---------------1--------------|



                                                  x x x x   X x x
    E                            E6 E7
  e|------- ------- ------- -------|------- ------- ------- -------|
  B|0-------0-------0-------0----2-|3-------3-------3-------3------|
  G|1-------1-------1-------1----1-|4-------4-------4-------4------|
  D|----2-------2-------2-------2--|----2-------2-------2-------2--|
  A|-------------------------------|-------------------------------|
  E|-------------------------------|-------------------------------|

  e|------- ------- ------- -------|------- ------- ------- -------|
  B|0-----------------------------2/3------------------------------|
  G|1------------------------------|-------------------------------|
  D|-------------------------------|-------------------------------|
  A|-------------------------------|--------2-----------2----------|
  E|0-------0-------0-------0------|0---4-------0---4-------4---0--|



    00:15
    D                           Db7 D7
  e|------- ------- ------- -------|------- ------- ------- -------|
  B|-------------------------------|-------------------------------|
  G|2-------2-------2-------2----4-|5-------5-------5-------5------|
  D|4-------4-------4-------4----6-|7-------7-------7-------7------|
  A|----5-------5-------5-------5--|----5-------5-------5-------5--|
  E|-------------------------------|-------------------------------|

  e|------- ------- ------- -------|------- ------- ------- -------|
  B|------------------------------0|1------------------------------|
  G|2-------2-------2-------2------|2---------------2------/5------|
  D|0-------0-------0-------0------|0-------4-------0--------------|
  A|-------------------------------|-------------------------------|
  E|-------------------------------|-------------------------------|



    00:21
    A               A7              C               D
  e|------- ------- ------- -------|------- ------- ------- -------|
  B|2-------2-------2-------2------|-------------------------------|
  G|2-------2-------2-------2------|0-------0-------2-------2------|
  D|2-------2-------2-------2------|2-------2-------4-------4------|
  A|0-------0----------------------|3-------3-------5-------5------|
  E|----------------3-------3------|-------------------------------|

  e|------- ------- ------- -------|------- ------- ------- -------|
  B|-------------------------------|-------------------------------|
  G|-------------------------------|-------------------------------|
  D|-------------------------------|-------------------------------|
  A|-------------------------------|-------------------------------|
  E|5-------5-------3-------3-----/|8--------8------10------12----\|
    I   am  he  as  you are he  as  you     me  and we are  all together. 
                                        are



    A               A7              C                 
  e|------- ------- ------- -------|------- ------- ------- -------|
  B|2-------2-------2-------2------|-------------------------------|
  G|2-------2-------2-------2------|0---0---0-------0---0---0------|
  D|2-------2-------2-------2------|2---2---2-------2---2---2------|
  A|0-------0----------------------|3---3---3-------3---3---3------|
  E|----------------3-------3------|-------------------------------|

  e|------- ------- ------- -------|------- ------- ------- -------|
  B|-------------------------------|-------------------------------|
  G|-------------------------------|-------------------------------|
  D|-------------------------------|-------------------------------|
  A|-------------------------------|----------------3-------3------|
  E|5---------------12-\11--12-\11-|12-\8--------------------------|
                                    See     run like    from    see 
                                      how           pigs  a gun, 
                                         they

                                   (.                       x x x
    D                               A
  e|------- ------- ------- -------|------- ------- ------- -------|
  B|-------------------------------|2------------------------------|
  G|2---2---2-------2-------2------|2------------------------------|
  D|4---4---4-------4-------4------|2------------------------------|
  A|5---5---5-------5-------5------|4------------------------------|
  E|-------------------------------|5------------------------------|

  e|------- ------- ------- -------|------- ------- ------- -------|
  B|-------------------------------|-------------------------------|  
  G|-------------------------------|-------------------------------|
  D|-------------------------------|-------------------------------|
  A|5-------5-3-------------5------|----------------7-\-6---7-\-6--|
  E|------------5-3-5--------------|5------------------------------|

  e|------- ------- ------- 8-10---|12----- ------- ------- -------|
  B|---------------10------10-12---|14-----------------------------|
  G|----------------9H11-----------|-------------------------------|
  D|-------------------------------|-------------------------------|
  A|-------------------------------|-------------------------------|
  E|-------------------------------|-------------------------------|   
    how they                    I'm crying
          fly


    00:38                                                 
    A               A7              Dmaj7           F       G
  e|------- ------- ------- -------|------- ------- ------- -------|
  B|2-------2-------2-------2------|3---3---3-------1-------3---3--|
  G|2-------2-------2-------2------|2---2---2-------2-------4---4--|
  D|2-------2-------2-------2------|0-------0-------3-------5---5--| 
  A|0-------0----------------------|0-------0-------3-------5---5--|
  E|----------------3-------3------|2-------2-------1-------3---3--|

  e|------- ------- ------- -------|------- ------- ------- -------|
  B|-------------------------------|3---------------1-------0------|
  G|----------------------5--------|2---------------2-------0------|
  D|------------------5-7---7------|4---------------3-------0------|
  A|7-\-6---7-\-6---7--------------|-------------------------------|
  E|-------------------------------|-------------------------------|
    Sitting cornflake                               waiting van to  
        on a                                            for       come.
                                                          the

    A               A7              F
  e|------- ------- ------- -------|------- ------- ------- -------|
  B|2---2---2---2---2---2---2---2--|-------------------------------|
  G|2---2---2---2---2---2---2---2--|2-------2-------2-------2------|
  D|2---2---2---2---2---2---2---2--|3-------3-------3-------3------|
  A|0-------0----------------------|3-------3-------3-------3------|
  E|----------------3-------3------|1-------1-------1-------1------|

  e|------- ------- ------- -------|------- ------- ------- -------|
  B|-------------------------------|-------------------------------|
  G|----7-6------------------------|-------------------------------|
  D|--5-----7-------5--------------|3---3---3---3---3---3---3---3--|
  A|7------------------------------|-------------------------------|
  E|-------------------------------|-------------------------------|
                                    Corporation     stupid  Tuesday.     
                                            t - shirt,  bloody    Man,


    B5
  e|------- ------- ------- -------|------- ------- ------- -------|
  B|-------------------------------|-------------------------------|
  G|4-------4-------4-------4------|4-------4-----4-4---4---4------|
  D|4-------4-------4-------4------|4-------4-----4-4---4---4------|
  A|2---2---2---2---2---2---2---2--|2---2---2---2-2-2-2-2---2------|
  E|2-------2-------2-------2------|2-------2-----2-2---2---2------|

  e|------- ------- ------- -------|------- ------- ------- -------|
  B|-------------------------------|-------------------------------|
  G|--2-4-2-4-----2-4-2-4-----2-4-2|4-2-4-2------------------------|
  D|4-----------4-----------4------|--------4----------------------|
  A|-------------------------------|------------------------10-----|
  E|-------------------------------|-------------------------------|
      you a naughty   you your  grow                        I am  the
        been      boy,  let face    long


    C                               D
  e|------- ------- ------- -------|------- ------- ------- -------|
  B|-------------------------------|-------------------------------|
  G|0-------0-------0-------0------|2-------2-------2-------2------|
  D|2-------2-------2-------2------|4-------4-------4-------4------|
  A|3-----------3-------3---3------|5-----------5-------5---5------|
  E|-------------------------------|-------------------------------|

  e|------- ------- ------- -------|------- ------- ------- -------|
  B|-------------------------------|-------------------------------|
  G|-------------------------------|-------------------------------|
  D|-------------------------------|-------------------------------|
  A|--------\-------3--------------|12------\-------5--------------|
  E|-------------------------------|-------------------------------|
    eggman,                 they  the                       I am  the
                              are   eggmen
                    Wooooooooooahh                  Woooooooooooahh


    E
  e|------- ------- ------- -------|
  B|-------------------------------|
  G|1-------1-------1-------1------|
  D|2-------2-------2-------2------|
  A|2-------2-------2-------2------|
  E|0-------0-------0-------0------|

  e|------- ------- ------- -------|
  B|-------------------------------|
  G|-------------------------------|
  D|-------------------------------|
  A|14------\-------7--------------|
  E|----------------------------12\|
    Walrus          Googooo joob
                         goo


    01:04

  e|------- ------- ------- -------|------- ------- ------- -------|
  B|2-------2-------2-------2------|-------------------------------|
  G|2-------2-------2-------2------|0-0-----0-------2-------2------|
  D|2-------2-------2-------2------|2-2-----2-------4-------4------|
  A|0-------0----------------------|3-3-----3-------5-------5------|
  E|----------------3-------3------|-------------------------------| 

  e|------- ------- ------- -------|------- ------- ------- -------|
  B|-------------------------------|-------------------------------|
  G|-------------------------------|-------------------------------|
  D|-------------------------------|-------------------------------|
  A|-------------------------------|3-------3-------5-------7------|
  E|5-------5-------3-------3------|-------------------------------|

  e|------- ------- ------- -------|5------ ------- ------- -------|
  B|5-------5-------5---3---3------|5-------5-------5---3---3------|
  G|6-------6-------6---4---4------|6-------6-------4---4---4------|
  D|7-------7-------7---5---5------|--------7-------5---5---5------|
  A|-------------------------------|-------------------------------|
  E|-------------------------------|-------------------------------|
    Mister  City    P'liceman       Pretty  little  p'licemen   row.             
                            sitting                         in a 



  e|------- ------- ------- -------|------- ------- ------- -------|
  B|2-------2-------2-------2------|-------------------------------|
  G|2-------2-------2-------2------|0-------0-------0-------0------|
  D|2-------2-------2-------2------|2-------2-------2-------2------|
  A|0-------0----------------------|3-------3-------3-------3------|
  E|----------------3-------3------|-------------------------------|

  e|------- ------- ------- -------|------- ------- ------- -------|
  B|-------------------------------|-------------------------------|
  G|--------------4-----------4----|-------------------------------|
  D|------5-7-------7-----5-7---7--|-------------------------------|
  A|7-------------------7----------|-------------------------------|
  E|-------------------------------|-------------------------------|

  e|------- ------- ------- -------|3------ 3------ 3------ 3------|
  B|5-------5-------5--------------|5-------5-------5-------5------|
  G|6-------6-------6--------------|5-------5-------5-------5------|
  D|7-------7-------7--------------|-------------------------------|
  A|-------------------------------|-------------------------------|
  E|-------------------------------|-------------------------------|
                                    See   they  like    in  sky see
                                      how   fly     Lucy  the 


   
  e|------- ------- ------- -------|------- ------- ------- -------| 
  B|-------------------------------|2-----------2---2---2---2---2--|
  G|2-------2-------2-------2------|2-----------2---2---2---2---2--|
  D|4-------4-------4-------4------|2-----------2---2---2---2---2--|
  A|5-------5-------5-------5------|4------------------------------|
  E|-------------------------------|5------------------------------|

  e|------- ------- ------- -------|------- ------- ------- -------|
  B|-------------------------------|-------------------------------|
  G|-------------------------------|-------------------------------|
  D|---7--5-4--3--2----------------|--------7---7---7---7---7---7--|
  A|----------------5--5--4-3--2--1|0------------------------------|
  E|-------------------------------|-------------------------------|

  e|5------ 5---5-- 5---5-- 5------|------- ------- ------- -------|
  B|7-------7---7---7---7---7------|5-------5---5---5---5---5---5--|
  G|7-------7---7---7---7---7------|6-------6---6---6---6---6---6--|
  D|-------------------------------|7-------7---7---7---7---7---7--|
  A|-------------------------------|-------------------------------|
  E|-------------------------------|-------------------------------|
    how they                    I'm crying                      I'm
          run


    01:21                                       X   x x x x x x x
    D                               Dsus4           D
  e|------- ------- ------- -------|------- ------- ------- -------|
  B|-------------------------------|-------------------------------|
  G|2-------2---------------2------|2-------2---2---2---2-------2--|
  D|4-------4---------------4------|5-------5---5---4---4-------4--|
  A|5-------5---------------5------|5-------5---5---5---5-------5--|
  E|----------------------------5--|-------------------------------|

  e|------- ------- ------- -------|------- ------- ------- -------|
  B|-------------------------------|-------------------------------|
  G|-------------------------------|-------------------------------|
  D|----------------5-\-4---5-\-4--|5-\-4---5-\-4---5-\-4---5-4----|
  A|5---5---5---5------------------|----------------------------5--|
  E|-------------------------------|-------------------------------|

  e|5---5-- 5---5-- 5---5-- 5---5--|5---5-- 5---5-- 5---5-- 5---5--|
  B|7---7---7---7---7---7---7---7--|8---8---8---8---8---8---8---7--|
  G|7---7---7---7---7---7---7---7--|7---7---7---7---7---7---7---7--|
  D|-------------------------------|-------------------------------|
  A|-------------------------------|-------------------------------|
  E|-------------------------------|-------------------------------|
    crying                                                      I'm
                    Wooooooooooooooooooooooooooooooooooeyy


    A                               E
  e|------- 0---0-- 0---0-- 0---0--|------- ------- ------- -------|
  B|--------2---2---2---2---2---2--|-------------------------------|
  G|2-------2---2---2---2---2---2--|1-------1-------1-------1------|
  D|2------------------------------|2-------2-------2-------2------|
  A|4------------------------------|2-------2-------2-------2------|
  E|5------------------------------|0-------0-------0-------0------|

  e|------- ------- ------- -------|------- ------- ------- -------|
  B|-------------------------------|-------------------------------|
  G|-------------------------------|-------------------------------|
  D|-------------------------------|-------------------------------|
  A|5---4--------------------------|-------------------------------|
  E|--------3----------------------|0---------------4--------------|

  e|------- ------- ------- -------|------- ------- ------- -------|
  B|5-------5-------5-------5------|5------------------------------|
  G|6-7-6---6-------6-7-6---6------|4------------------------------|
  D|--------7---------------7------|6------------------------------|
  A|-------------------------------|-------------------------------|
  E|-------------------------------|-------------------------------|
    crying                      I'm crying
                                            Woooooooooooooooooooooo ..


    D
  e|------- ------- ------- -------|
  B|-------------------------------|
  G|2-------2-------2-------2------|
  D|4-------4-------4-------4------|
  A|5-----------5-------5-------5--|
  E|-------------------------------|


  e|------- ------- ------- -------|
  B|-------------------------------|
  G|-------------------------------|
  D|-------------------------------|
  A|-------------------------------|
  E|5---------------2--------------|

  e|------- ------- ------- -------|
  B|7------------------------------|
  G|7------------------------------|
  D|7------------------------------|
  A|-------------------------------|
  E|-------------------------------|
   
    eyy!


    01:35

  e|------- ------- ------- -------|------- ------- ------- -------|
  B|2-------2-------2-------2------|2-------2----------------------|
  G|2-------2-------2-------2------|2-------2-------2-------4------|
  D|2-------2-------2-------2------|0-------0-------3-------5------| 
  A|0-------0----------------------|0-------0-------3-------5------|
  E|----------------3-------3------|2-------2-------1-------3------|

  e|------- ------- ------- -------|------- ------- ------- -------|
  B|-------------------------------|-------------------------------|
  G|--------------------5----------|2---------------0-------5-4----|
  D|------------------7-----7------|4---------------2-----------5--|
  A|7-\-6-\-7-\-6---7--------------|5---------------3--------------| 
  E|-------------------------------|-------------------------------|

  e|5------ ------- 5---8-- ----5--|------- ------- 5---8-- ----5--|
  B|--------5---7------------------|--------5---7------------------|
  G|-------------------------------|-------------------------------|
  D|-------------------------------|-------------------------------|
  A|-------------------------------|-------------------------------|
  E|-------------------------------|-------------------------------|
    Yellow  custard,                                dripping dead     
        matter                                          from    dog's 
                                                          a               

   
  e|------- ------- ------- -------|------- ------- ------- -------|
  B|2-------2-------2-------2------|-------------------------------|
  G|2-------2-------2-------2------|2-------2-----2-2---2---2------|
  D|2-------2-------2-------2------|3-------3-----3-3---3---3------|
  A|0-------0----------------------|3-------3-----3-3---3---3------|
  E|0-------0-------3-------3------|1-------1-----1-1---1---1------|

  e|------- ------- ------- -------|------- ------- ------- -------|
  B|-------------------------------|-------------------------------|
  G|----7-6------------------------|-------------------------------|
  D|--5-----7-------5--------------|3---3---3---3---3---3---3---3--|
  A|7------------------------------|-------------------------------|
  E|-------------------------------|-------------------------------|

  e|------- ------- 5---8-- ----5--|------- ------- ------- -------|
  B|--------5---7------------------|-------------------------------|
  G|-------------------------------|-------------------------------|
  D|-------------------------------|-------------------------------|
  A|-------------------------------|-------------------------------|
  E|-------------------------------|-------------------------------|
    eye                             Crabalocker     pornographic      
                                            fishwife,       priestess,    


   
  e|------- ------- ------- -------|------- ------- ------- -------|
  B|-------------------------------|-------------------------------|
  G|4-------4-------4-----4-4-4----|4-------4-------4-------4------|
  D|4-------4-------4-----4-4-4----|4-------4-------4-------4------|
  A|2-------2-------2-----2-2-2----|2-------2-------2-------2------|
  E|2-------2-------2-----2-2-2----|2-------2-------2-------2------|

  e|------- ------- ------- -------|------- ------- ------- -------|
  B|-------------------------------|-------------------------------|
  G|-------------------------------|-------------------------------|
  D|9-7-9-7-9-----7-9-7-9-----7-9-7|9-7-9-7------------------------|
  A|------------9-----------9------|--------9---------------10-----|
  E|-------------------------------|-------------------------------| 

  e|------- ------- ------- -------|------- ------- ------- -------|
  B|4-------4-------4-------4------|4---4---4---4---4---4---4---4--|
  G|4-------4-------4-------4------|4---4---4---4---4---4---4---4--|
  D|4-------4-------4-------4------|4---4---4---4---4---4---4---4--|
  A|-------------------------------|-------------------------------|
  E|-------------------------------|-------------------------------|
    Boy,  a naughty   you your  down                        I am  the
      you         girl  let knickers   
        been 


  e|------- ------- ------- -------|------- ------- ------- -------|
  B|-------------------------------|-------------------------------|
  G|0-------0-------0-------0------|2-------2-------2-------2------|
  D|2-------2-------2-------2------|4-------4-------4-------4------|
  A|3-----------3-------3---3------|5-----------5-------5---5------|
  E|-------------------------------|-------------------------------|

  e|------- ------- ------- -------|------- ------- ------- -------|
  B|-------------------------------|-------------------------------|
  G|-------------------------------|-------------------------------|
  D|-------------------------------|-------------------------------|
  A|10------\-------3--------------|12------\-------5--------------|
  E|-------------------------------|-------------------------------| 

  e|3------ 3------ 3------ 3------|5------ 5------ 5------ 5------|
  B|5-------5-------5-------5------|7-------7-------7-------7------|
  G|5-------5-------5-------5------|7-------7-------7-------7------|
  D|-------------------------------|-------------------------------|
  A|-------------------------------|-------------------------------|
  E|-------------------------------|-------------------------------|  
    eggman                  they  the                       I am  the   
                              are   eggmen
                    Wooooooooooahh                  Woooooooooooahh

                                    X
    
  e|------- ------- ------- -------|------- ------- ------- -------| 
  B|0-------0-----0-0-------0------|-------------------------------|
  G|1-------1-----1-1-------1------|-------------------------------|
  D|2-------2-----2-2-------2------|-------------------------------|
  A|2-------2-----2-2-------2------|-------------------------------|
  E|0-------0-----0-0-------0------|-------------------------------|

  e|------- ------- ------- -------|------- ------- ------- -------|
  B|-------------------------------|-------------------------------|
  G|-------------------------------|-------------------------------|
  D|-------------------------------|----------!-!-!-!-!-!----------|
  A|14------\-------7--------------|-------------------------------|
  E|-------------------------------|-------------------------------|

  e|7------ 7------ 7-----7 7------|------- ------- ------- -------|
  B|9-------9-------9-----9-9------|-------------------------------|
  G|9-------9-------9-----9-9------|-------------------------------|
  D|-------------------------------|-------------------------------|
  A|-------------------------------|-------------------------------|
  E|-------------------------------|-------------------------------|
    Walrus          Googooo joob                       What's   Ringo?
                          g'                             the  with
                                                           matter


    02:02

    B               A               G               F
  e|------- ------- ------- -------|------- ------- ------- -------|  
  B|-------------------------------|-------------------------------|
  G|-------------------------------|-------------------------------|
  D|4---------------2--------------|0---------------3--------------|
  A|6---------------4--------------|2---------------3--------------|
  E|7---------------5--------------|3---------------1--------------|
   
  e|------- ------- ------- -------|------- ------- 5------/10-\7--|
  B|4-------2---4---7------/12-----|----------------6--------------|
  G|4---------------6--------------|12--------------5--------------|
  D|4---------------7--------------|12-----------------------------|
  A|-------------------------------|-------------------------------|
  E|-------------------------------|-------------------------------|




    E
  e|------- ------- ------- -------|
  B|-------------------------------|
  G|-------------------------------|
  D|2------------------------------|
  A|2------------------------------|
  E|0------------------------------|

  e|------- ------- ------- -------|
  B|9------------------------------|
  G|9------------------------------|
  D|-------------------------------|
  A|-------------------------------|
  E|-------------------------------|




    02:11
    B               A               G+5maj7         F       F6
  e|------- ------- ------- -------|2------ 2------ ------- -------|
  B|7-------7--------5------5------|4-------4---------------3------|
  G|8-------8--------6------6------|0-------0-------2-------2------|
  D|9-------9--------7------7------|----------------3-------3------|
  A|-------------------------------|-------------------------------|
  E|-------------------------------|-------------------------------|

  e|------- ------- ------- -------|------- ------- ------- -------|  
  B|-------------------------------|-------------------------------|
  G|-------------------------------|-------------------------------|
  D|4---------------2--------------|0---------------3--------------|
  A|6---------------4--------------|2---------------3--------------|
  E|7---------------5--------------|3---------------1--------------|

  e|11--11- 11--11- 9------/14--11-|------- ------- ------- -------|
  B|-------------------------------|----12--12--12--10-----/15--12-|
  G|-------------------------------|-------------------------------|
  D|-------------------------------|-------------------------------|
  A|-------------------------------|-------------------------------|
  E|-------------------------------|-------------------------------|
    Sitting in  an  english     garden      waiting for     the sun

 


    E               F         
  e|------- ------- ------- -------|
  B|0-------0-------1-------1------|
  G|1-------1-------2-------2------|
  D|2-------2-------3-------3------|
  A|-------------------------------|
  E|-------------------------------|

  e|------- ------- ------- -------|
  B|-------------------------------|
  G|-------------------------------|
  D|2---------------3--------------|
  A|2---------------3--------------|
  E|0---------------1--------------|

  e|------- ------- ------- ----10-|
  B|-------------------1012-13-----|
  G|-------------------------------|
  D|-------------------------------|
  A|-------------------------------|
  E|-------------------------------|
                        If  sun don't
                          the       
                                                          

    B5
  e|------- ------- ------- -------|------- ------- ------- -------|
  B|-------------------------------|-------------------------------|
  G|4-------4-------4-------4------|4-------4-------4-------4------|
  D|4-------4-------4-------4------|4-------4-------4-------4------|
  A|2-------2-------2-------2------|2-------2-------2-------2------|
  E|2-------2-------2-------2------|2-------2-------2-------2------| 

  e|------- ------- ------- -------|------- ------- ------- -------|
  B|-------------------------------|-------------------------------|
  G|-------------------------------|-------------------------------|
  D|-------------------------------|-------------------------------|
  A|2---2---2---2---2---2---2---2--|2-2-2---2-2-2---2-2-2---2---2--|
  E|2---2---2---2---2---2---2---2--|2-2-2---2-2-2---2-2-2---2---2--|

  e|------- ------- ------- -------|------- ------- ------- -------|
  B12101210-12---10-121012---10121012101210------------------------|
  G|------------------------9------|--------9----------------------|
  D|-------------------------------|-------------------------------|
  A|-------------------------------|-------------------------------|
  E|-------------------------------|-------------------------------|
    come    tan     standing    rain                        I am  the
      you a     from   in   english                                  
        get               the

    02:24

  e|------- ------- ------- -------|------- ------- ------- -------|
  B|----------------1-------1------|----------------3-------3------|
  G|0-------0-------0-------0------|2-------2-------2-------2------|
  D|2-------2-------2-------2------|4-------4-------4-------4------|
  A|3-------3-------3-------3------|5-------5-------5-------5------|
  E|-------------------------------|-------------------------------|

  e|------- ------- ------- -------|------- ------- ------- -------|
  B|-------------------------------|-------------------------------|
  G|-------------------------------|-------------------------------|
  D|2---2---2---2---2---2---2---2--|0---0---0---0---0---0---0---0--|
  A|3---3---3---3---3---3---3---3--|0---0---0---0---0---0---0---0--|
  E|3---3---3---3---3---3---3---3--|2---2---2---2---2---2---2---2--| 
    eggman                  they  the                       I am  the
                              are   eggmen
        Now,    sir [what are you?]     A     made      to     (blows)
          good,                           man   tame        fortune's


  e|------- ------- ------- -------|------- ------- ------- -------|
  B|0-------0-------0----0--0------|-------------------------------|
  G|1-------1-------1----1--1------|2---2---2---2---2-------2------|
  D|2-------2-------2----2--2------|4---4---4---4---4-------4------|
  A|2-------2-------2----2--2------|5---5---5---5---5-------5------|
  E|0-------0-------0----0--0------|-------------------------------|

  e|------- ------- ------- -------|------- ------- ------- -------|
  B|-------------------------------|-------------------------------|
  G|-------------------------------|-------------------------------|
  D|2---2---2---2---2---2---2---2--|0---0---0---0---0---0---0---0--|
  A|2---2---2---2---2---2---2---2--|0---0---0---0---0---0---0---0--|
  E|0---0---0---0---0---0---0---0--|2---2---2---2---2---2---2---2--|
    Walrus          Googooo joob  gooogooo  joob
                          g'    g'        g'
 

    02:35
    A               A7              C               D
  e|------- ------- ------- -------|------- ------- ------- -------|
  B|2-------2-------2-------2------|-------------------------------|
  G|2-------2-------2-------2------|0-------0-------2-------2------|
  D|2-------2-------2-------2------|2-------2-------4-------4------|
  A|0-------0----------------------|3-------3-------5-------5------|
  E|----------------3-------3------|-------------------------------|  

  e|------- ------- ------- -------|------- ------- ------- -------|
  B|5-------5-------5-------5------|1-------1-------3-------3------|
  G|6-------6-------6-------6------|0-------0-------2-------2------|
  D|7-------7-------5-------5------|2-------2-------4-------4------|
  A|-------------------------------|-------------------------------|
  E|-------------------------------|-------------------------------|
    Expert  textpert        smokers Don't   think   joker   laughs
                    choking             you     the            at



  e|------- ------- ------- -------|------- ------- ------- -------|
  B|2-------2-------2-------2------|1-------1-------1-------1------|
  G|2-------2-------2-------2------|0-------0-------0-------0------|
  D|2-------2-------2-------2------|2-------2-------2-------2------|
  A|0-------0----------------------|3-------3-------3-------3------|
  E|----------------3-------3------|-------------------------------| 

  e|------- ------- ------- -------|------- ------- ------- -------|
  B|5-------5-------5-------5------|1-------1-------1-------1------|
  G|6-------6-------6-------6------|0-------0-------0-------0------|
  D|7-------7-------5-------5------|2-------2-------2-------2------|
  A|-------------------------------|-------------------------------|
  E|-------------------------------|-------------------------------|
    you?                            See   they  like    in  sty See
                                      how   smile   pigs  a
            Hohohoo hehehee hahahaa
                            
                                   (.

  e|------- ------- ------- -------|------- ------- ------- -------|
  B|3-------3-------3-------3------|2------------------------------|
  G|2-------2-------2-------2------|2------------------------------|
  D|4-------4-------4-------4------|2------------------------------|
  A|5-------5-------5-------5------|4------------------------------|
  E|-------------------------------|5------------------------------|

  e|------- ------- ------- -------|0------ ------- ------- -------|
  B|3-------3-------3-3-----3-3----|2------------------------------|
  G|2-------2-------2-2-----2-2----|2------------------------------|
  D|4-------4-------4-4-----4-4----|-------------------------------|
  A|-------------------------------|-------------------------------|
  E|-------------------------------|-------------------------------|
    how they                    I'm crying
            snied  

    02:52

  e|------- ------- ------- -------|------- ------- ------- -------|
  B|2-------2-------2-------2------|2-------2----------------------|
  G|2-------2-------2-------2------|2-------2-------2-------4------|
  D|2-------2-------2-------2------|0-------0-------3-------5------|
  A|0-------0----------------------|0-------0-------3-------5------|
  E|----------------3-------3------|2-------2-------1-------3------|
    (Left hand-Index finger barre & ring finger / Right hand-thumb, 
     index & ring fingers. The middle octave gives a richer sound,
     but you can play just the low one.)
  e|5------ 0---2-- 5-/-8-- -\--5--|------- 0---2-- 5-/-8-- -\--5--|
  B|-------------------------------|-------------------------------|
  G|-------------------------------|-------------------------------|
  D|7-------2---4---7-/10----\--7--|--------2---4---7-/10----\--7--|
  A|-------------------------------|-------------------------------|
  E|5-------0---2---5-/-8----\--5--|--------0---2---5-/-8-----\-5--|
    Semolina                                        climbing Eiffel 
            pilchard                                    up
                                                          the


  e|------- ------- ------- -------|------- ------- ------- -------|
  B|2-------2-------2-------2------|-------------------------------|
  G|2-------2-------2-------2------|2-------2-------2-------2------|
  D|2-------2-------2-------2------|3-------3-------3-------3------|
  A|0-------0----------------------|3-------3-------3-------3------|
  E|----------------3-------3------|1-------1-------1-------1------|

  e|------- 0---2-- 5-/-8-- -\--5--|------- ------- ------- -------|
  B|-------------------------------|-------------------------------| 
  G|-------------------------------|-------------------------------|
  D|--------2---4---7-/10----\--7--|-------------------------------|
  A|-------------------------------|-------------------------------|
  E|--------0---2---5-/-8----\--5--|-------------------------------|

  e|------- ------- ------- -------10-810-8 10--8--10-810-8 10--811|
  B|-------------------------------12101210-12-10--12101210-12-1012|
  G|-------------------------------|-------------------------------|
  D|-------------------------------|-------------------------------|
  A|-------------------------------|-------------------------------|
  E|-------------------------------|-------------------------------|
    Tower.                          Elementary      singing Krishna.
                                            penguin     Hare    


                                                    x x x X x x x

  e|------- ------- ------- -------|------- ------- ------- -------|
  B|-------------------------------|-------------------------------|
  G|4-------4-------4-------4------|4---4---4-------4-------4------|
  D|4-------4-------4-------4------|4---4---4-------4-------4------|
  A|2-------2-------2-------2------|2---2---2-------2-------2------|
  E|2-------2-------2-------2------|2---2---2-------2-------2------|

  e|--911-9 11--911 --911-9 11-9---|------- ------- ------- -------|
  B|-101210-12-1012--101210-121010-|-------------------------------|
  G|----------------------------11-|11-----------------------------|
  D|-------------------------------|-------------------------------|
  A|-------------------------------|-------------------------------|
  E|-------------------------------|-------------------------------|
      you   seen  kicking   Allan Poe.                      I am  the
    Man should  them    Edgar
           have

   
  e|------- ------- ------- -------|------- ------- ------- -------|
  B|1-------1-------1-------1------|3-------3-------3-------3------|
  G|0-------0-------0-------0------|2-------2-------2-------2------|
  D|2-------2-------2-------2------|4-------4-------4-------4------|
  A|3-------3-------3-------3------|5-------5-------5-------5------|
  E|-------------------------------|-------------------------------|

  e|------- 15-\--- ------- -------|------- 17-\--- ------- -------|
  B|-------------------------------|-------------------------------|
  G|--------12-\-------------------|--------14-\-------------------|
  D|-------------------------------|-------------------------------|
  A|-------------------------------|-------------------------------|
  E|-------------------------------|-------------------------------|
    eggman                  they  the                       I am  the
                                are eggmen
                    Woooooooooooahh                 Woooooooooooahh

    CODA
    03:14
    E                               D
  e|------- ------- ------- -------|------- ------- ------- -------|
  B|0-------0-------0-------0------|3-------3-------3-------3------|
  G|1-------1-------1-------1------|2-------2-------2-------2------|
  D|2-------2-------2-------2------|4-------4-------4-------4------|
  A|2-------2-------2-------2------|5-------5-------5-------5------|
  E|0-------0-------0-------0------|-------------------------------|

  e|------- 19-\--- ------- -------|------- ------- ------- -------| 
  B|-------------------------------|-------------------------------|
  G|--------16-\-------------------|-------------------------------|
  D|-------------------------------|-------------------------------|
  A|-------------------------------|-------------------------------|
  E|-------------------------------|-------------------------------|
    walrus          Googooo jooo  goooogooo joob
                           g'   g'        g'
                    Woooooooooooooooooooooooooooooooooooooooooooahh

                                                    X X X X x x x
    C                               B5
  e|------- ------- ------- -------|------- ------- ------- -------|
  B|1---1---1--1----1-------1------|4-------4-------4-------4------|
  G|0---0---0--0----0-------0------|4-------4-------4-------4------|
  D|2---2---2--2----2-------2------|2-------2-------2-------2------|
  A|3---3---3--3----3-------3------|2-------2-------2-------2------|
  E|-------------------------------|-------------------------------|
    Googooo joogoogooogoooo joob  goooooo               joo joo joo
           g'              g'   g'                        g'  g'  g'
               Wooooooooooooooooooooooooooooooooooooooooooooooooooo


    The following is a curious circling chord sequence A, G, F, E, D, 
    C, and B5, in which some instruments keep ascending while others 
    descend. It is repeated several times and then fades out.

    03:24
    A                               G
  e|------- ------- ------- -------|------- ------- ------- -------|
  B|2---2---2---2---2-------2------|-------------------------------|
  G|2---2---2---2---2-------2------|4-------4-------4-------4------|
  D|2---2---2---2---2-------2------|5-------5-------5-------5------|
  A|0-------0-------0-------0------|5-------5-------5-------5------|
  E|-------------------------------|3-------3-------3-------3------|

  e|-9----- -9----- -9----- -9-----|7------ 7------ 7------ 7------|
  B|10------10------10------10-----|8-------8-------8-------8------|
  G|-------------------------------|-------------------------------|
  D|-------------------------------|-------------------------------|
  A|-------------------------------|-------------------------------|
  E|-------------------------------|-------------------------------|
                joo     joo     joo     joo joo             joo joo
                  g'      g'      g'      g'  g'              g'  g'
    ooahh

    F                               E
  e|------- ------- ------- -------|------- ------- ------- -------|
  B|-------------------------------|-------------------------------|
  G|2-------2-------2-------2------|1-------1-------1-------1------|
  D|3-------3-------3-------3------|2-------2-------2-------2------|
  A|3-------3-------3-------3------|2-------2-------2-------2------|
  E|1-------1-------1-------1------|0-------0-------0-------0------|

  e|8------ 8------ 8------ 8------|10----- 10----- 10----- 10-----|
  B|6-------6-------6-------6------|-------------------------------|
  G|-------------------------------|-9-------9-------9-------9-----|
  D|-------------------------------|-------------------------------|
  A|-------------------------------|-------------------------------|
  E|-------------------------------|-------------------------------|
                        joo joo
                          g'  g'
                                    Oompah  oompah stick    jumper
                                                    it up your

    D                               C
  e|------- ------- ------- -------|------- ------- ------- -------|
  B|3-------3-------3-------3------|1-------1-------1-------1------|
  G|2-------2-------2-------2------|0-------0-------0-------0------|
  D|4-------4-------4-------4------|2-------2-------2-------2------|
  A|5-------5-------5-------5------|3-------3-------3-------3------|
  E|-------------------------------|-------------------------------|

  e|12--12- 12--12- 12--12- 12--12-|14--14- 14--14- 14--14- 14--14-|
  B|-------------------------------|-------------------------------|
  G|-------------------------------|-------------------------------|
  D|12--12--12--12--12--12--12--12-|10--10--10--10--10--10--10--10-|
  A|-------------------------------|-------------------------------|
  E|-------------------------------|-------------------------------|
    Oompah  oompah stick    jumper  Oompah  oompah stick    jumper
                    it up your                      it up your
                                    Everybody's one everybody's one
                                            got
            
    B5                              A
  e|------- ------- ------- -------|------- ------- ------- -------|
  B|-------------------------------|2-------2-------2-------2------|
  G|4-------4-------4-------4------|2-------2-------2-------2------|
  D|4-------4-------4-------4------|2-------2-------2-------2------|
  A|2-------2-------2-------2------|0-------0-------0-------0------|
  E|2-------2-------2-------2------|-------------------------------| 
                                                                     ...
  e|15--15- 15--15- 15--15- 15--15-|17--17- 17--17- 17--17- 17--17-|
  B|-------------------------------|-------------------------------|
  G|-------------------------------|-------------------------------|
  D|-------------------------------|-------------------------------|
  A|14--14--14--14--14--14--14--14-|-------------------------------|
  E|-------------------------------|17--17--17--17--17--17--17--17-|
    Oompah  oompah stick    jumper  Oompah  oompah stick    jumper
                    it up your                      it up your      
    Everybody's one everybody's one Everybody's one everybody's one
            got             got             got             got




    The final master was an editing of remixes 10 and 22. The voices
    heard on the Coda were supposedly fed live by John on Wednesday
    September, 29th, 1967, from a BBC radio broadcast, Shakespeare's 
    "The Tragedy Of King Lear", scheduled for 7:30 to 10:40 pm that 
    day, while they were performing remix 22. In the fragment, Edgar, 
    the older, legitimate son of Gloucester stabs Oswald, steward in 
    the house of Goneril, Lear's ruthless, oldest daughter: 
    
  
                 02:24
    Gloucester - Now, goo, sir [what are you?]

    Edgar      - A [most poor] man made tame to fortune's [blows]



                 03:46 
                 Aaaaaaaaaaahh!
               
                 Oooooh
    Oswald     - Thou have slain me! 
                 Villain, take my purse.

                 If thou ever [wilt thrive,] bury my body

                 And give the letters which thou findst about me
                 To Edmund, Earl of Gloucester. 
                 Seek him out upon the British party.
                 Oh, untimely death!         

    Edgar      - I know thee well, a serviceable villain,
                 as duteous to the vices of thy mistress
                 As badness would desire!

    Gloucester - What, is he dead?

    Edgar      - Sit you down, father, rest you.



    
    I think some voices might have been taken live from that broadcast, 
    but I suppose that anybody'll hear at least three different voices 
    embodying Oswald, so I think they might have used some from maybe a 
    couple of other shows or played some themselves.






        B  Bend
        R  Release
        /  Slide up
        \  Slide down
        H  Hammer-on
        P  Pull-off
        ~  Vibrato
        +  Harmonic
        x  Mute note
        .  Play note like a dot in standard notation
        ^  Ties two notes together
        (. Pause



comments
print report bad tab
4 comments total. Showing first comments.
+1 reply
stoneman44 wrote on May 11 2009, 01:30 am

how the hell did u decipher or get that info about the voices in the broadcast? i though i knew shit loads about the beatles and espeacially lennon, but u my friend are quite knowledgable

0 reply
PJVILL wrote on January 9 2014, 02:14 am

Thanks,mate. That´s very kind. Best regards!

0 reply
awesomeperson1 wrote on April 24 2010, 12:41 pm

wow. ur a really good tabber. u did the i want you(she's so heavy) tab too didn't u? well ur awesome thanx! u really know ur beatles.

I want to post or [tab]
guest
You may want to rate the tab now too:
select rating
Please do not post tabs as comments. Select "correction" instead!