Oops, an error
Loading. Please wait.

I Just Dont Understand Tab

ver2
ver2

Whole song

More versions @911Tabs.com
2,598 views 6 this week
no commentswrite comment
1 2 3 4 5
please rate
Autoscroll
+/-
esc
set tempo
stop
Contributor
NEW! There's an official Ultimate Guitar app which is ideal
for learning songs when you're away from computer. Get the app
WARNING: You are trying to view
                                    content from Ultimate-Guitar.com
                                    in an unauthorized application,
                                    which is prohibited.

                                    Please use an official Ultimate
                                    Guitar Tabs application for iPhone,
                                    iPad or Android to access legitimate
                                    chords, guitar, bass, and drum tabs
                                    from Ultimate-Guitar.com database.

                                    Type "ultimate guitar tabs" in Apple
                                    App Store's or Android Market's
                                    search to find the application.
    ------------------------------------------------------------

     THE BEATLES – I JUST DON'T UNDERSTAND (Marijohn Wilkins & 
                   Kent Westberry) From LIVE AT THE BBC album.
                   Released on 30th November 1994.

    ------------------------------------------------------------





   Well you call me your baby
   When you hold in my hand
   But the way that you hurt me
   I just don't understand

   Well you say that you need me
   Like an ocean needs sand
   But the way you deceive me
   I just don't understand

   Well you know that I love you
   More than anyone can
   But a one-sided love
   I just don't understand

      GUITAR SOLO

   Well you know that I love you
   More than anyone can
   But a one-sided love
   I just don't understand

   Well you call me your baby
   When you hold in my hand
   Oh how you can hurt me
   I just don't understand





     INTRO


   e|-------------------------------|-------------------------------|
   B|-------------------------------|-------------------------------|
   G|-------------------------------|-------------------------------|
   D|---------------------------2---|-0-----------------------------|
   A|---------------------2---------|-----------2---------0---------|
   E|-------------------------------|---------------------------3---|

   e|-------------------------------|-------------------------------|
   B|-------------------------------|-------------------------------|
   G|-------------------------------|-------------------------------|
   D|---------------------------2---|-0-----------------------------|
   A|---------------------2---------|-----------2---------0---------|
   E|-------------------------------|---------------------------3---|





   e|-------------------------------|-------------------------------|
   B|-------------------------------|-------------------------------|
   G|-------------------------------|-------------------------------|
   D|-------------------------------|-------------------------------|
   A|-------------------------------|0H2-------0H2--------0---------|
   E|-0-------------------0-----3---|---------------------------3---|

   e|-------------------------------|-------------------------------|
   B|-------------------------------|-------------------------------|
   G|-------------------------------|-------------------------------|
   D|---------------------------5---|7/9--------9--------9\7----5---|
   A|---------------------7---------|-------------------------------|
   E|-0-----------------------------|-------------------------------|





   e|-------------------------------|-------------------------------|
   B|-------------------------------|-------------------------------|
   G|-------------------------------|-------------------------------|
   D|---------------------------2---|-0-----------------------------|
   A|---------------------2---------|-----------2---------0---------|
   E|-0-----------------------------|---------------------------3---|

   e|-------------------------------|-------------------------------|
   B|-------------------------------|-------------------------------|
   G|---------------------------9---|-7-----------------------------|
   D|---------------------9---------|-----------9---------7-----5---|
   A|-7-----------------------------|-------------------------------|
   E|-------------------------------|-------------------------------|





   e|-------------------------------|-------------------------------|
   B|-------------------------------|-------------------------------|
   G|-------------------------------|-------------------------------|
   D|-------------------------------|-------------------------------|
   A|-------------------------------|0H2-------0H2--------0---------|
   E|-0-------------------0-----3---|---------------------------3---|

   e|-------------------------------|-------------------------------|
   B|-------------------------------|-------------------------------|
   G|-------------------------------|-------------------------------|
   D|---------------------------5---|7/9--------9--------9\7----5---|
   A|-7-------------------7---------|-------------------------------|
   E|-------------------------------|-------------------------------|





   e|-------------------------------|-------------------------------|
   B|-------------------------------|-------------------------------|
   G|-------------------------------|-------------------------------|
   D|-------------------------------|-------------------------------|
   A|-------------------------------|-------------------------------|
   E|-0-----------------------------|-------------------------------|
                     Well you         call      me        your
   e|-------------------------------|-------------------------------|
   B|-------------------------------|-------------------------------|
   G|-------------------------------|-------------------------------|
   D|-------------------------------|-------------------------------|
   A|-7-----------------------------|-------------------------------|
   E|-------------------------------|-------------------------------|





     VERSE

      Em
   e|-------------------------------|-------------------------------|
   B|-------------------------------|-------------------------------|
   G|-------------------------------|-------------------------------|
   D|---------------------------5---|7/9--------9--------9\7----5---|
   A|--------------------5H7--------|-------------------------------|
   E|-------------------------------|-------------------------------|
      baby
   e|-0---------0---------0-----0---|-0---------0---------0-----0---|
   B|-0---------0---------0-----0---|-0---------0---------0-----0---|
   G|-0---------0---------0-----0---|-0---------0---------0-----0---|
   D|-2---------2---------2-----2---|-2---------2---------2-----2---|
   A|-2---------2---------2-----2---|-2---------2---------2-----2---|
   E|-0---------0---------0-----0---|-0---------0---------0-----0---|





   e|-------------------------------|-------------------------------|
   B|-------------------------------|-------------------------------|
   G|-------------------------------|-------------------------------|
   D|-------------------------------|-------------------------------|
   A|-7-----------------------------|-------------------------------|
   E|-------------------------------|-------------------------------|
                     When you         hold      in        my
   e|-0---------0---------0-----0---|-0---------0---------0---------|
   B|-0---------0---------0-----0---|-0---------0---------0---------|
   G|-0---------0---------0-----0---|-0---------0---------0---------|
   D|-2---------2---------2-----2---|-2---------2---------2---------|
   A|-2---------2---------2-----2---|-2---------2---------2---------|
   E|-0---------0---------0-----0---|-0---------0---------0---------|





   e|-------------------------------|-------------------------------|
   B|-------------------------------|-------------------------------|
   G|-------------------------------|-------------------------------|
   D|---------------------------5---|7/9--------9--------9\7----5---|
   A|--------------------5H7--------|-------------------------------|
   E|-------------------------------|-------------------------------|
      hand
   e|-0---------0---------0---------|-0---------0---------0-----0---|
   B|-0---------0---------0---------|-0---------0---------0-----0---|
   G|-0---------0---------0---------|-0---------0---------0-----0---|
   D|-2---------2---------2---------|-2---------2---------2-----2---|
   A|-2---------2---------2---------|-2---------2---------2-----2---|
   E|-0---------0---------0---------|-0---------0---------0-----0---|





   e|-------------------------------|-------------------------------|
   B|-------------------------------|-------------------------------|
   G|-------------------------------|-------------------------------|
   D|-------------------------------|-------------------------------|
   A|-7-----------------------------|-------------------------------|
   E|-------------------------------|-------------------------------|
                     But  the         way       that      you
   e|-0--------------0--------------|-0---------0---------0-----0---|
   B|-0--------------0--------------|-0---------0---------0-----0---|
   G|-0--------------0--------------|-0---------0---------0-----0---|
   D|-2--------------2--------------|-2---------2---------2-----2---|
   A|-2--------------2--------------|-2---------2---------2-----2---|
   E|-0--------------0--------------|-0---------0---------0-----0---|




      Am
   e|-------------------------------|-------------------------------|
   B|-------------------------------|-------------------------------|
   G|-------------------------------|-------------------------------|
   D|---------------------------5---|7/9--------9--------9\7----5---|
   A|--------------------5H7--------|-------------------------------|
   E|-------------------------------|-------------------------------|
      hurt      me
   e|-0---------0---------0-----0---|-0--------------0--------------|
   B|-1---------1---------1-----1---|-1--------------1--------------|
   G|-2---------2---------2-----2---|-2--------------2--------------|
   D|-2---------2---------2-----2---|-2--------------2--------------|
   A|-0---------0---------0-----0---|-0--------------0--------------|
   E|-------------------------------|-------------------------------|





   e|-------------------------------|-------------------------------|
   B|-------------------------------|-------------------------------|
   G|-------------------------------|-------------------------------|
   D|-7-----------------------------|-------------------------------|
   A|-------------------------------|-------------------------------|
   E|-------------------------------|-------------------------------|
                          I    just   don't     understand
   e|-0--------------0--------------|-0---------0---------0---------|
   B|-1--------------1--------------|-1---------1---------1---------|
   G|-2--------------2--------------|-2---------2---------2---------|
   D|-2--------------2--------------|-2---------2---------2---------|
   A|-0--------------0--------------|-0---------0---------0---------|
   E|-------------------------------|-------------------------------|




      Em
   e|-------------------------------|-------------------------------|
   B|-------------------------------|-------------------------------|
   G|---------------------------9---|-7-----------------------------|
   D|---------------------9---------|-----------9---------7-----5---|
   A|-------------------------------|-------------------------------|
   E|-------------------------------|-------------------------------|

   e|-0---------0---------0---------|-0---------0---------0---------|
   B|-0---------0---------0---------|-0---------0---------0---------|
   G|-0---------0---------0---------|-0---------0---------0---------|
   D|-2---------2---------2---------|-2---------2---------2---------|
   A|-2---------2---------2---------|-2---------2---------2---------|
   E|-0---------0---------0---------|-0---------0---------0---------|





   e|-------------------------------|-------------------------------|
   B|-------------------------------|-------------------------------|
   G|-------------------------------|-------------------------------|
   D|-------------------------------|-------------------------------|
   A|-7-----------------------------|-------------------------------|
   E|-------------------------------|-------------------------------|
                     Well you         say       that      you
   e|-0-----------------------------|-------------------------------|
   B|-0-----------------------------|-------------------------------|
   G|-0-----------------------------|-------------------------------|
   D|-2-----------------------------|-------------------------------|
   A|-2-----------------------------|-------------------------------|
   E|-0-----------------------------|-------------------------------|





     VERSE

      Em
   e|-------------------------------|-------------------------------|
   B|-------------------------------|-------------------------------|
   G|-------------------------------|-------------------------------|
   D|---------------------------5---|7/9--------9--------9\7----5---|
   A|--------------------5H7--------|-------------------------------|
   E|-------------------------------|-------------------------------|
      need           me
   e|-0---------0---------0---------|-0---------0---------0-----0---|
   B|-0---------0---------0---------|-0---------0---------0-----0---|
   G|-0---------0---------0---------|-0---------0---------0-----0---|
   D|-2---------2---------2---------|-2---------2---------2-----2---|
   A|-2---------2---------2---------|-2---------2---------2-----2---|
   E|-0---------0---------0---------|-0---------0---------0-----0---|





   e|-------------------------------|-------------------------------|
   B|-------------------------------|-------------------------------|
   G|-------------------------------|-------------------------------|
   D|-------------------------------|-------------------------------|
   A|-7-----------------------------|-------------------------------|
   E|-------------------------------|-------------------------------|
                     Like a           ocean               needs
   e|-0---------0---------0-----0---|-0---------0---------0---------|
   B|-0---------0---------0-----0---|-0---------0---------0---------|
   G|-0---------0---------0-----0---|-0---------0---------0---------|
   D|-2---------2---------2-----2---|-2---------2---------2---------|
   A|-2---------2---------2-----2---|-2---------2---------2---------|
   E|-0---------0---------0-----0---|-0---------0---------0---------|





   e|-------------------------------|-------------------------------|
   B|-------------------------------|-------------------------------|
   G|-------------------------------|-------------------------------|
   D|---------------------------5---|7/9--------9--------9\7----5---|
   A|--------------------5H7--------|-------------------------------|
   E|-------------------------------|-------------------------------|
      sand
   e|-0---------0---------0---------|-0---------0---------0-----0---|
   B|-0---------0---------0---------|-0---------0---------0-----0---|
   G|-0---------0---------0---------|-0---------0---------0-----0---|
   D|-2---------2---------2---------|-2---------2---------2-----2---|
   A|-2---------2---------2---------|-2---------2---------2-----2---|
   E|-0---------0---------0---------|-0---------0---------0-----0---|





   e|-------------------------------|-------------------------------|
   B|-------------------------------|-------------------------------|
   G|-------------------------------|-------------------------------|
   D|-------------------------------|-------------------------------|
   A|-7-----------------------------|-------------------------------|
   E|-------------------------------|-------------------------------|
                     But  the         way       you       deceive
   e|-0--------------0--------------|-0---------0---------0-----0---|
   B|-0--------------0--------------|-0---------0---------0-----0---|
   G|-0--------------0--------------|-0---------0---------0-----0---|
   D|-2--------------2--------------|-2---------2---------2-----2---|
   A|-2--------------2--------------|-2---------2---------2-----2---|
   E|-0--------------0--------------|-0---------0---------0-----0---|




      Am
   e|-------------------------------|-------------------------------|
   B|-------------------------------|-------------------------------|
   G|-------------------------------|-------------------------------|
   D|---------------------------5---|7/9--------9--------9\7----5---|
   A|--------------------5H7--------|-------------------------------|
   E|-------------------------------|-------------------------------|
                me
   e|-0---------0---------0-----0---|-0--------------0--------------|
   B|-1---------1---------1-----1---|-1--------------1--------------|
   G|-2---------2---------2-----2---|-2--------------2--------------|
   D|-2---------2---------2-----2---|-2--------------2--------------|
   A|-0---------0---------0-----0---|-0--------------0--------------|
   E|-------------------------------|-------------------------------|





   e|-------------------------------|-------------------------------|
   B|-------------------------------|-------------------------------|
   G|-------------------------------|-------------------------------|
   D|-7-----------------------------|-------------------------------|
   A|-------------------------------|-------------------------------|
   E|-------------------------------|-------------------------------|
                          I    just   don't     understand
   e|-0--------------0--------------|-0---------0---------0---------|
   B|-1--------------1--------------|-1---------1---------1---------|
   G|-2--------------2--------------|-2---------2---------2---------|
   D|-2--------------2--------------|-2---------2---------2---------|
   A|-0--------------0--------------|-0---------0---------0---------|
   E|-------------------------------|-------------------------------|




      Em
   e|-------------------------------|-------------------------------|
   B|-------------------------------|-------------------------------|
   G|---------------------------9---|-7-----------------------------|
   D|---------------------9---------|-----------9---------7-----5---|
   A|-------------------------------|-------------------------------|
   E|-------------------------------|-------------------------------|

   e|-0---------0---------0---------|-0---------0---------0---------|
   B|-0---------0---------0---------|-0---------0---------0---------|
   G|-0---------0---------0---------|-0---------0---------0---------|
   D|-2---------2---------2---------|-2---------2---------2---------|
   A|-2---------2---------2---------|-2---------2---------2---------|
   E|-0---------0---------0---------|-0---------0---------0---------|





   e|-------------------------------|-------------------------------|
   B|-------------------------------|-------------------------------|
   G|-------------------------------|-------------------------------|
   D|-------------------------------|-------------------------------|
   A|-7-----------------------------|-------------------------------|
   E|-------------------------------|-------------------------------|
                     Well you         know      that      I
   e|-0---------0---------0---------|-0---------0---------0---------|
   B|-0---------0---------0---------|-0---------0---------0---------|
   G|-0---------0---------0---------|-0---------0---------0---------|
   D|-2---------2---------2---------|-2---------2---------2---------|
   A|-2---------2---------2---------|-2---------2---------2---------|
   E|-0---------0---------0---------|-0---------0---------0---------|





     BRIDGE

      Am
   e|-0---------0---------0---------|-0---------0-----0---0-----0---|
   B|-1---------1---------1---------|-1---------1-----1---1-----1---|
   G|-2---------2---------2---------|-2---------2-----2---2-----2---|
   D|-2---------2---------2---------|-2---------2-----2---2-----2---|
   A|-0---------0---------0---------|-0---------0-----0---0-----0---|
   E|-------------------------------|-------------------------------|
      love      you




   e|-0---------------0---0-----0---|-0---------0---------0---------|
   B|-1---------------1---1-----1---|-1---------1---------1---------|
   G|-2---------------2---2-----2---|-2---------2---------2---------|
   D|-2---------------2---2-----2---|-2---------2---------2---------|
   A|-0---------------0---0-----0---|-0---------0---------0---------|
   E|-------------------------------|-------------------------------|
                     more than        anyone



      Em
   e|-------------------------------|-7---------7-------------------|
   B|-------------------------------|-------------------------------|
   G|-------------------------------|-------------------------------|
   D|-------------------------------|-----------------9---7-----5---|
   A|-------------------------------|-------------------------------|
   E|-------------------------------|-------------------------------|
      can
   e|-0---------0---------0-----0---|-0---------0-----0---0-----0---|
   B|-0---------0---------0-----0---|-0---------0-----0---0-----0---|
   G|-0---------0---------0-----0---|-0---------0-----0---0-----0---|
   D|-2---------2---------2-----2---|-2---------2-----2---2-----2---|
   A|-2---------2---------2-----2---|-2---------2-----2---2-----2---|
   E|-0---------0---------0-----0---|-0---------0-----0---0-----0---|





   e|-------------------------------|-------------------------------|
   B|-------------------------------|-------------------------------|
   G|-------------------------------|-------------------------------|
   D|-------------------------------|-------------------------------|
   A|-7-----------------------------|-------------------------------|
   E|-------------------------------|-------------------------------|
                     But  the         one   -   sided
   e|-0---------------0---0---------|-0---------0---------0---------|
   B|-0---------------0---0---------|-0---------0---------0---------|
   G|-0---------------0---0---------|-0---------0---------0---------|
   D|-2---------------2---2---------|-2---------2---------2---------|
   A|-2---------------2---2---------|-2---------2---------2---------|
   E|-0---------------0---0---------|-0---------0---------0---------|




      Am
   e|-0---------0---------0-----0---|-0---------------0---0-----0---|
   B|-1---------1---------1-----1---|-1---------------1---1-----1---|
   G|-2---------2---------2-----2---|-2---------------2---2-----2---|
   D|-2---------2---------2-----2---|-2---------------2---2-----2---|
   A|-0---------0---------0-----0---|-0---------------0---0-----0---|
   E|-------------------------------|-------------------------------|
      love




   e|-0---------------0---0---------|-----------0---------0---------|
   B|-1---------------1---1---------|-----------1---------1---------|
   G|-2---------------2---2---------|-----------2---------2---------|
   D|-2---------------2---2---------|-----------2---------2---------|
   A|-0---------------0---0---------|-----------0---------0---------|
   E|-------------------------------|-------------------------------|
                          I    just   don't     understand



      Em
   e|-------------------------------|-------------------------------|
   B|-------------------------------|-------------------------------|
   G|---------------------------9---|-7-----------------------------|
   D|---------------------9---------|-----------9---------7-----5---|
   A|-------------------------------|-------------------------------|
   E|-------------------------------|-------------------------------|

   e|-0---------0---------0---------|-0---------0---------0-----0---|
   B|-0---------0---------0---------|-0---------0---------0-----0---|
   G|-0---------0---------0---------|-0---------0---------0-----0---|
   D|-2---------2---------2---------|-2---------2---------2-----2---|
   A|-2---------2---------2---------|-2---------2---------2-----2---|
   E|-0---------0---------0---------|-0---------0---------0-----0---|





   e|---------------------4---------|-4---------4-4-4-4-4-4-4-4-4-4-|
   B|---------------------3---------|-3---------3-3-3-3-3-3-3-3-3-3-|
   G|---------------------4---------|-4---------4-4-4-4-4-4-4-4-4-4-|
   D|-------------------------------|-------------------------------|
   A|-7-----------------------------|-------------------------------|
   E|-------------------------------|-------------------------------|

   e|-0-----------------------------|-------------------------------|
   B|-0-----------------------------|-------------------------------|
   G|-0-----------------------------|-------------------------------|
   D|-2-----------------------------|-------------------------------|
   A|-2-----------------------------|-------------------------------|
   E|-0-----------------------------|-------------------------------|





     GUITAR SOLO

      Em
   e|-4---------4-4-4-4-4-4-4-4-4-4-|-4-4-4-4-4-4-4-4-4-4-4-4-4-4-4-|
   B|-3---------3-3-3-3-3-3-3-3-3-3-|-3-3-3-3-3-3-3-3-3-3-3-3-3-3-3-|
   G|-4---------4-4-4-4-4-4-4-4-4-4-|-4-4-4-4-4-4-4-4-4-4-4-4-4-4-4-|
   D|-------------------------------|-------------------------------|
   A|-------------------------------|-------------------------------|
   E|-------------------------------|-------------------------------|

   e|-0---------0---------0-----0---|-0---------0---------0---------|
   B|-0---------0---------0-----0---|-0---------0---------0---------|
   G|-0---------0---------0-----0---|-0---------0---------0---------|
   D|-2---------2---------2-----2---|-2---------2---------2---------|
   A|-2---------2---------2-----2---|-2---------2---------2---------|
   E|-0---------0---------0-----0---|-0---------0---------0---------|





   e|-------------------------------|-------------------------------|
   B|-------------------------------|-------------------------------|
   G|-4-----------------------------|-------------------------------|
   D|---------------------------5---|7/9--------9--------9\7----5---|
   A|--------------------5H7--------|-------------------------------|
   E|-------------------------------|-------------------------------|

   e|-0---------0---------0---------|-0---------0---------0-----0---|
   B|-0---------0---------0---------|-0---------0---------0-----0---|
   G|-0---------0---------0---------|-0---------0---------0-----0---|
   D|-2---------2---------2---------|-2---------2---------2-----2---|
   A|-2---------2---------2---------|-2---------2---------2-----2---|
   E|-0---------0---------0---------|-0---------0---------0-----0---|





   e|-------------------------------|-------------------------------|
   B|-------------------------------|-------------------------------|
   G|---------------------------9---|-7-----------------------------|
   D|---------------------9---------|-----------9---------7-----5---|
   A|-7-----------------------------|-------------------------------|
   E|-------------------------------|-------------------------------|

   e|-0---------0---------0-----0---|-0---------0---------0-----0---|
   B|-0---------0---------0-----0---|-0---------0---------0-----0---|
   G|-0---------0---------0-----0---|-0---------0---------0-----0---|
   D|-2---------2---------2-----2---|-2---------2---------2-----2---|
   A|-2---------2---------2-----2---|-2---------2---------2-----2---|
   E|-0---------0---------0-----0---|-0---------0---------0-----0---|





   e|-------------------------------|-------------------------------|
   B|-------------------------------|-------------------------------|
   G|-------------------------------|---------------------------7---|
   D|---------------------------5---|7/9--------9---------9---------|
   A|-7-------------------7---------|-------------------------------|
   E|-------------------------------|-------------------------------|

   e|-0---------0---------0-----0---|-0---------0---------0---------|
   B|-0---------0---------0-----0---|-0---------0---------0---------|
   G|-0---------0---------0-----0---|-0---------0---------0---------|
   D|-2---------2---------2-----2---|-2---------2---------2---------|
   A|-2---------2---------2-----2---|-2---------2---------2---------|
   E|-0---------0---------0-----0---|-0---------0---------0---------|




      Am
   e|-5-5-5-5-5-5-5-5-5-5-5-5-5-5-5-|-5-----------------------------|
   B|-5-5-5-5-5-5-5-5-5-5-5-5-5-5-5-|-5-----------------------------|
   G|-5-5-5-5-5-5-5-5-5-5-5-5-5-5-5-|-5-----------------------------|
   D|-------------------------------|-------------------------------|
   A|-------------------------------|-------------------------------|
   E|-------------------------------|-------------------------------|

   e|-0---------0---------0---------|-0---------0-----0---0-----0---|
   B|-1---------1---------1---------|-1---------1-----1---1-----1---|
   G|-2---------2---------2---------|-2---------2-----2---2-----2---|
   D|-2---------2---------2---------|-2---------2-----2---2-----2---|
   A|-0---------0---------0---------|-0---------0-----0---0-----0---|
   E|-------------------------------|-------------------------------|





   e|-------------------------------|-------------------------------|
   B|-------------------------------|-------------------------------|
   G|-------------------------------|-------------------------------|
   D|---------------------------5---|7/9--------9--------9\7----5---|
   A|--------------------5H7--------|-------------------------------|
   E|-------------------------------|-------------------------------|

   e|-0---------0---------0-----0---|-0---------------0---0---------|
   B|-1---------1---------1-----1---|-1---------------1---1---------|
   G|-2---------2---------2-----2---|-2---------------2---2---------|
   D|-2---------2---------2-----2---|-2---------------2---2---------|
   A|-0---------0---------0-----0---|-0---------------0---0---------|
   E|-------------------------------|-------------------------------|




      Em
   e|-------------------------------|-------------------------------|
   B|-------------------------------|-------------------------------|
   G|---------------------------9---|-7-----------------------------|
   D|---------------------9---------|-----------9---------7-----5---|
   A|-7-----------------------------|-------------------------------|
   E|-------------------------------|-------------------------------|

   e|-0---------0---------0---------|-0---------0---------0---------|
   B|-0---------0---------0---------|-0---------0---------0---------|
   G|-0---------0---------0---------|-0---------0---------0---------|
   D|-2---------2---------2---------|-2---------2---------2---------|
   A|-2---------2---------2---------|-2---------2---------2---------|
   E|-0---------0---------0---------|-0---------0---------0---------|





   e|-------------------------------|-------------------------------|
   B|-------------------------------|-------------------------------|
   G|-------------------------------|-------------------------------|
   D|-------------------------------|-------------------------------|
   A|-7-----------------------------|-------------------------------|
   E|-------------------------------|-------------------------------|
                     Well you         know      that      I
   e|-0-----0---0---------0---------|-0---------0---------0---------|
   B|-0-----0---0---------0---------|-0---------0---------0---------|
   G|-0-----0---0---------0---------|-0---------0---------0---------|
   D|-2-----2---2---------2---------|-2---------2---------2---------|
   A|-2-----2---2---------2---------|-2---------2---------2---------|
   E|-0-----0---0---------0---------|-0---------0---------0---------|





     BRIDGE

      Am
   e|-0---------0---------0---------|-0---------------0---0-----0---|
   B|-1---------1---------1---------|-1---------------1---1-----1---|
   G|-2---------2---------2---------|-2---------------2---2-----2---|
   D|-2---------2---------2---------|-2---------------2---2-----2---|
   A|-0---------0---------0---------|-0---------------0---0-----0---|
   E|-------------------------------|-------------------------------|
      love      you




   e|-0---------------0---0-----0---|-0---------0---------0---------|
   B|-1---------------1---1-----1---|-1---------1---------1---------|
   G|-2---------------2---2-----2---|-2---------2---------2---------|
   D|-2---------------2---2-----2---|-2---------2---------2---------|
   A|-0---------------0---0-----0---|-0---------0---------0---------|
   E|-------------------------------|-------------------------------|
                     more than        anyone



      Em
   e|-------------------------------|-7---------7-------------------|
   B|-------------------------------|-------------------------------|
   G|-------------------------------|-------------------------------|
   D|-------------------------------|--------------------9\7----5---|
   A|-------------------------------|-------------------------------|
   E|-------------------------------|-------------------------------|
      can
   e|-0---------0---------0-----0---|-0---------0---------0-----0---|
   B|-0---------0---------0-----0---|-0---------0---------0-----0---|
   G|-0---------0---------0-----0---|-0---------0---------0-----0---|
   D|-2---------2---------2-----2---|-2---------2---------2-----2---|
   A|-2---------2---------2-----2---|-2---------2---------2-----2---|
   E|-0---------0---------0-----0---|-0---------0---------0-----0---|





   e|-------------------------------|-------------------------------|
   B|-------------------------------|-------------------------------|
   G|-------------------------------|-------------------------------|
   D|-------------------------------|-------------------------------|
   A|-7-----------------------------|-------------------------------|
   E|-------------------------------|-------------------------------|
                     But  the         one   -   sided
   e|-0---------------0---0---------|-0---------0---------0---------|
   B|-0---------------0---0---------|-0---------0---------0---------|
   G|-0---------------0---0---------|-0---------0---------0---------|
   D|-2---------------2---2---------|-2---------2---------2---------|
   A|-2---------------2---2---------|-2---------2---------2---------|
   E|-0---------------0---0---------|-0---------0---------0---------|




      Am
   e|-0---------0---------0-----0---|-0---------------0---0-----0---|
   B|-1---------1---------1-----1---|-1---------------1---1-----1---|
   G|-2---------2---------2-----2---|-2---------------2---2-----2---|
   D|-2---------2---------2-----2---|-2---------------2---2-----2---|
   A|-0---------0---------0-----0---|-0---------------0---0-----0---|
   E|-------------------------------|-------------------------------|
      love




   e|-0---------------0---0---------|-0---------0---------0---------|
   B|-1---------------1---1---------|-1---------1---------1---------|
   G|-2---------------2---2---------|-2---------2---------2---------|
   D|-2---------------2---2---------|-2---------2---------2---------|
   A|-0---------------0---0---------|-0---------0---------0---------|
   E|-------------------------------|-------------------------------|
                          I    just   don't     understand



      Em
   e|-------------------------------|-------------------------------|
   B|-------------------------------|-------------------------------|
   G|---------------------------9---|-7-----------------------------|
   D|---------------------9---------|-----------9---------7-----5---|
   A|-------------------------------|-------------------------------|
   E|-------------------------------|-------------------------------|

   e|-0---------0---------0---------|-0---------0---------0-----0---|
   B|-0---------0---------0---------|-0---------0---------0-----0---|
   G|-0---------0---------0---------|-0---------0---------0-----0---|
   D|-2---------2---------2---------|-2---------2---------2-----2---|
   A|-2---------2---------2---------|-2---------2---------2-----2---|
   E|-0---------0---------0---------|-0---------0---------0-----0---|





   e|-------------------------------|-------------------------------|
   B|-------------------------------|-------------------------------|
   G|-9-----------------------------|-------------------------------|
   D|-9-----------------------------|-------------------------------|
   A|-7-----------------------------|-------------------------------|
   E|-------------------------------|-------------------------------|
                     Well you         call      me        your
   e|-0-----------------------------|-------------------------------|
   B|-0-----------------------------|-------------------------------|
   G|-0-----------------------------|-------------------------------|
   D|-2-----------------------------|-------------------------------|
   A|-2-----------------------------|-------------------------------|
   E|-0-----------------------------|-------------------------------|





     VERSE

      Em
   e|---------------------------3---|5/7--------7--------(5)----3---|
   B|---------------------5---------|-------------------------------|
   G|-------------------------------|-------------------------------|
   D|-------------------------------|-------------------------------|
   A|-------------------------------|-------------------------------|
   E|-------------------------------|-------------------------------|
      baby
   e|-0---------0---------0-----0---|-0---------0---------0-----0---|
   B|-0---------0---------0-----0---|-0---------0---------0-----0---|
   G|-0---------0---------0-----0---|-0---------0---------0-----0---|
   D|-2---------2---------2-----2---|-2---------2---------2-----2---|
   A|-2---------2---------2-----2---|-2---------2---------2-----2---|
   E|-0---------0---------0-----0---|-0---------0---------0-----0---|





   e|-------------------------------|-------------------------------|
   B|-5-----------------------------|-------------------------------|
   G|-------------------------------|-------------------------------|
   D|-------------------------------|-------------------------------|
   A|-------------------------------|-------------------------------|
   E|-------------------------------|-------------------------------|
                     When you're      hold      in        my
   e|-0---------0---------0---------|-0---------0---------0-----0---|
   B|-0---------0---------0---------|-0---------0---------0-----0---|
   G|-0---------0---------0---------|-0---------0---------0-----0---|
   D|-2---------2---------2---------|-2---------2---------2-----2---|
   A|-2---------2---------2---------|-2---------2---------2-----2---|
   E|-0---------0---------0---------|-0---------0---------0-----0---|





   e|---------------------------3---|5/7--------7--------7\5----3---|
   B|---------------------5---------|-------------------------------|
   G|-------------------------------|-------------------------------|
   D|-------------------------------|-------------------------------|
   A|-------------------------------|-------------------------------|
   E|-------------------------------|-------------------------------|
      hand
   e|-0---------0---------0---------|-0---------0---------0-----0---|
   B|-0---------0---------0---------|-0---------0---------0-----0---|
   G|-0---------0---------0---------|-0---------0---------0-----0---|
   D|-2---------2---------2---------|-2---------2---------2-----2---|
   A|-2---------2---------2---------|-2---------2---------2-----2---|
   E|-0---------0---------0---------|-0---------0---------0-----0---|





   e|-------------------------------|-------------------------------|
   B|-5-----------------------------|-------------------------------|
   G|-------------------------------|-------------------------------|
   D|---------------------------2---|-0-----------------------------|
   A|---------------------2---------|-----------2---------0---------|
   E|-------------------------------|---------------------------3---|
                          Oh          how       you       can
   e|-0---------0---------0---------|-0---------0---------0---------|
   B|-0---------0---------0---------|-0---------0---------0---------|
   G|-0---------0---------0---------|-0---------0---------0---------|
   D|-2---------2---------2---------|-2---------2---------2---------|
   A|-2---------2---------2---------|-2---------2---------2---------|
   E|-0---------0---------0---------|-0---------0---------0---------|




      Am
   e|-------------------------------|-------------------------------|
   B|-------------------------------|-------------------------------|
   G|-------------------------------|-------------------------------|
   D|-------------------------------|-------------------------------|
   A|-----------0-------------------|-------------------------------|
   E|-----------------0---3---------|5/7--------7--------7\5----3---|
      hurt      me
   e|-0-------------------0-----0---|-0---------0---------0---------|
   B|-1-------------------1-----1---|-1---------1---------1---------|
   G|-2-------------------2-----2---|-2---------2---------2---------|
   D|-2-------------------2-----2---|-2---------2---------2---------|
   A|-0-------------------0-----0---|-0---------0---------0---------|
   E|-------------------------------|-------------------------------|





   e|-------------------------------|-------------------------------|
   B|-------------------------------|-------------------------------|
   G|-------------------------------|-------------------------------|
   D|---------------------------2---|-0-----------------------------|
   A|---------------------2---------|-----------2---------0---------|
   E|-5-----------------------------|---------------------------3---|
                          I           just      don't     understand
   e|-0--------------0--------------|-0-------------------0-----0---|
   B|-1--------------1--------------|-1-------------------1-----1---|
   G|-2--------------2--------------|-2-------------------2-----2---|
   D|-2--------------2--------------|-2-------------------2-----2---|
   A|-0--------------0--------------|-0-------------------0-----0---|
   E|-------------------------------|-------------------------------|





   e|-------------------------------|-------------------------------|
   B|-------------------------------|-------------------------------|
   G|---------------------------9---|-7-----------------------------|
   D|---------------------9---------|-----------9---------7-----5---|
   A|-------------------------------|-------------------------------|
   E|-0-----------------------------|-------------------------------|

   e|-0---------0---------0-----0---|-0---------0---------0-----0---|
   B|-0---------0---------0-----0---|-0---------0---------0-----0---|
   G|-0---------0---------0-----0---|-0---------0---------0-----0---|
   D|-2---------2---------2-----2---|-2---------2---------2-----2---|
   A|-2---------2---------2-----2---|-2---------2---------2-----2---|
   E|-0---------0---------0-----0---|-0---------0---------0-----0---|





   e|---------------------4---------|-4---------4-4-4-4-4-4-4-4-4-4-|
   B|---------------------3---------|-3---------3-3-3-3-3-3-3-3-3-3-|
   G|---------------------4---------|-4---------4-4-4-4-4-4-4-4-4-4-|
   D|-------------------------------|-------------------------------|
   A|-7-----------------------------|-------------------------------|
   E|-------------------------------|-------------------------------|

   e|-0-----------------------------|-------------------------------|
   B|-0-----------------------------|-------------------------------|
   G|-0-----------------------------|-------------------------------|
   D|-2-----------------------------|-------------------------------|
   A|-2-----------------------------|-------------------------------|
   E|-0-----------------------------|-------------------------------|





     GUITAR SOLO

      Em
   e|-4-4-4-4-4-4-4-4-4-4-4-4-4-4-4-|-4-4-4-4-4-4-4-4-4-4-4-4-4-4-4-|
   B|-3-3-3-3-3-3-3-3-3-3-3-3-3-3-3-|-3-3-3-3-3-3-3-3-3-3-3-3-3-3-3-|
   G|-4-4-4-4-4-4-4-4-4-4-4-4-4-4-4-|-4-4-4-4-4-4-4-4-4-4-4-4-4-4-4-|
   D|-------------------------------|-------------------------------|
   A|-------------------------------|-------------------------------|
   E|-------------------------------|-------------------------------|

   e|-0---------0---------0-----0---|-0---------0---------0---------|
   B|-0---------0---------0-----0---|-0---------0---------0---------|
   G|-0---------0---------0-----0---|-0---------0---------0---------|
   D|-2---------2---------2-----2---|-2---------2---------2---------|
   A|-2---------2---------2-----2---|-2---------2---------2---------|
   E|-0---------0---------0-----0---|-0---------0---------0---------|





   e|-4-----------------------------|-------------------------------|
   B|-3-----------------------------|-------------------------------|
   G|-4-----------------------------|-------------------------------|
   D|---------------------------5---|7/9--------9--------9\7----5---|
   A|--------------------5H7--------|-------------------------------|
   E|-------------------------------|-------------------------------|

   e|-0---------0---------0---------|-0---------0---------0-----0---|
   B|-0---------0---------0---------|-0---------0---------0-----0---|
   G|-0---------0---------0---------|-0---------0---------0-----0---|
   D|-2---------2---------2---------|-2---------2---------2-----2---|
   A|-2---------2---------2---------|-2---------2---------2-----2---|
   E|-0---------0---------0---------|-0---------0---------0-----0---|





   e|-------------------------------|-------------------------------|
   B|-------------------------------|-------------------------------|
   G|---------------------------9---|-7-----------------------------|
   D|---------------------9---------|-----------9---------7-----5---|
   A|-7-----------------------------|-------------------------------|
   E|-------------------------------|-------------------------------|

   e|-0---------0---------0-----0---|-0---------0---------0-----0---|
   B|-0---------0---------0-----0---|-0---------0---------0-----0---|
   G|-0---------0---------0-----0---|-0---------0---------0-----0---|
   D|-2---------2---------2-----2---|-2---------2---------2-----2---|
   A|-2---------2---------2-----2---|-2---------2---------2-----2---|
   E|-0---------0---------0-----0---|-0---------0---------0-----0---|





   e|-------------------------------|-------------------------------|
   B|-------------------------------|-------------------------------|
   G|-------------------------------|---------------------------7---|
   D|---------------------------5---|7/9--------9---------9---------|
   A|-7-------------------7---------|-------------------------------|
   E|-------------------------------|-------------------------------|

   e|-0---------0---------0-----0---|-0---------0---------0---------|
   B|-0---------0---------0-----0---|-0---------0---------0---------|
   G|-0---------0---------0-----0---|-0---------0---------0---------|
   D|-2---------2---------2-----2---|-2---------2---------2---------|
   A|-2---------2---------2-----2---|-2---------2---------2---------|
   E|-0---------0---------0-----0---|-0---------0---------0---------|




      Am
   e|-5-5-5-5-5-5-5-5-5-5-5-5-5-5-5-|-5-5-5-5-5-5-5-5-5-5-5-5-5-5-5-|
   B|-5-5-5-5-5-5-5-5-5-5-5-5-5-5-5-|-5-5-5-5-5-5-5-5-5-5-5-5-5-5-5-|
   G|-5-5-5-5-5-5-5-5-5-5-5-5-5-5-5-|-5-5-5-5-5-5-5-5-5-5-5-5-5-5-5-|
   D|-------------------------------|-------------------------------|
   A|-------------------------------|-------------------------------|
   E|-------------------------------|-------------------------------|

   e|-0---------0---------0---------|-0---------------0---0-----0---|
   B|-1---------1---------1---------|-1---------------1---1-----1---|
   G|-2---------2---------2---------|-2---------------2---2-----2---|
   D|-2---------2---------2---------|-2---------------2---2-----2---|
   A|-0---------0---------0---------|-0---------------0---0-----0---|
   E|-------------------------------|-------------------------------|





   e|-5-----------------------------|-------------------------------|
   B|-5-----------------------------|-------------------------------|
   G|-5-----------------------------|-------------------------------|
   D|---------------------------5---|7/9--------9--------9\7----5---|
   A|--------------------5H7--------|-------------------------------|
   E|-------------------------------|-------------------------------|

   e|-0---------0---------0-----0---|-0---------------0---0---------|
   B|-1---------1---------1-----1---|-1---------------1---1---------|
   G|-2---------2---------2-----2---|-2---------------2---2---------|
   D|-2---------2---------2-----2---|-2---------------2---2---------|
   A|-0---------0---------0-----0---|-0---------------0---0---------|
   E|-------------------------------|-------------------------------|




      Em
   e|-------------------------------|-------------------------------|
   B|-------------------------------|-------------------------------|
   G|---------------------------9---|-7-----------------------------|
   D|---------------------9---------|-----------9---------7-----5---|
   A|-7-----------------------------|-------------------------------|
   E|-------------------------------|-------------------------------|

   e|-0---------0---------0---------|-0---------0---------0---------|
   B|-0---------0---------0---------|-0---------0---------0---------|
   G|-0---------0---------0---------|-0---------0---------0---------|
   D|-2---------2---------2---------|-2---------2---------2---------|
   A|-2---------2---------2---------|-2---------2---------2---------|
   E|-0---------0---------0---------|-0---------0---------0---------|





   e|-------------------------------|-------------------------------|
   B|-------------------------------|-------------------------------|
   G|-------------------------------|-------------------------------|
   D|---------------------------5---|7/9--------9---------5---------|
   A|-7-------------------7---------|-------------------------------|
   E|-------------------------------|-------------------------------|

   e|-0---------0---------0---------|-0---------0---------0---------|
   B|-0---------0---------0---------|-0---------0---------0---------|
   G|-0---------0---------0---------|-0---------0---------0---------|
   D|-2---------2---------2---------|-2---------2---------2---------|
   A|-2---------2---------2---------|-2---------2---------2---------|
   E|-0---------0---------0---------|-0---------0---------0---------|





   e|-2-2-2-2-2-2-2-2-2-2-2-2-2-2-2-|-2-2-2-2-2-2-2-2-2-2-2-2-2-2-2-|
   B|-0-0-0-0-0-0-0-0-0-0-0-0-0-0-0-|-0-0-0-0-0-0-0-0-0-0-0-0-0-0-0-|
   G|-2-2-2-2-2-2-2-2-2-2-2-2-2-2-2-|-2-2-2-2-2-2-2-2-2-2-2-2-2-2-2-|
   D|-------------------------------|-------------------------------|
   A|-------------------------------|-------------------------------|
   E|-------------------------------|-------------------------------|

   e|-0---------0---------0---------|-0---------0---------0---------|
   B|-0---------0---------0---------|-0---------0---------0---------|
   G|-0---------0---------0---------|-0---------0---------0---------|
   D|-2---------2---------2---------|-2---------2---------2---------|
   A|-2---------2---------2---------|-2---------2---------2---------|
   E|-0---------0---------0---------|-0---------0---------0---------|





   e|-------------------------------|-------------------------------|
   B|-0-----------------------------|-------------------------------|
   G|---------------------------9---|-7-----------------------------|
   D|---------------------9---------|-----------9---------7-----5---|
   A|-------------------------------|-------------------------------|
   E|-------------------------------|-------------------------------|

   e|-0-----------------------------|-------------------------------|
   B|-0-----------------------------|-------------------------------|
   G|-0-----------------------------|-------------------------------|
   D|-2-----------------------------|-------------------------------|
   A|-2-----------------------------|-------------------------------|
   E|-0-----------------------------|-------------------------------|





     OUTRO


   e|-------------------------------|-------------------------------|
   B|-------------------------------|-------------------------------|
   G|-------------------------------|-------------------------------|
   D|---------------------------5---|7/9--------9--------9\7----5---|
   A|-7-------------------7---------|-------------------------------|
   E|-------------------------------|-------------------------------|

   e|-0---------0---------0-----0---|-0---------0---------0---------|
   B|-0---------0---------0-----0---|-0---------0---------0---------|
   G|-0---------0---------0-----0---|-0---------0---------0---------|
   D|-2---------2---------2-----2---|-2---------2---------2---------|
   A|-2---------2---------2-----2---|-2---------2---------2---------|
   E|-0---------0---------0-----0---|-0---------0---------0---------|





   e|-------------------------------|-0-0-0-0-0-0-0-0-0-0-0---------|
   B|-------------------------------|-0-0-0-0-0-0-0-0-0-0-0---------|
   G|-------------------------------|-------------------------------|
   D|-------------------------------|-------------------------------|
   A|-7-----------------------------|-------------------------------|
   E|-------------------------------|-------------------------------|

   e|-0-----------------------------|-0-----------------------------|
   B|-0-----------------------------|-0-----------------------------|
   G|-0-----------------------------|-0-----------------------------|
   D|-2-----------------------------|-2-----------------------------|
   A|-2-----------------------------|-2-----------------------------|
   E|-0-----------------------------|-0-----------------------------|
comments
We did not receive enough feedback on this tab! Please rate:
print report bad tab
1 2 3 4 5
I want to post or [tab]
guest
You may want to rate the tab now too:
select rating
Please do not post tabs as comments. Select "correction" instead!