Oops, an error
Loading. Please wait.

I Wanna Be Your Man Tab

ver2
ver2

Whole song

Interactive

More versions @911Tabs.com
1,973 views 6 this week
no commentswrite comment
1 2 3 4 5
excellent!
x 3
Autoscroll
+/-
esc
set tempo
stop
Contributor
WARNING: You are trying to view
                                    content from Ultimate-Guitar.com
                                    in an unauthorized application,
                                    which is prohibited.

                                    Please use an official Ultimate
                                    Guitar Tabs application for iPhone,
                                    iPad or Android to access legitimate
                                    chords, guitar, bass, and drum tabs
                                    from Ultimate-Guitar.com database.

                                    Type "ultimate guitar tabs" in Apple
                                    App Store's or Android Market's
                                    search to find the application.
    ------------------------------------------------------------

    THE BEATLES - I WANNA BE YOUR MAN (Lennon & McCartney) From
                  WITH THE BEATLES album. Released 22nd November 
                  1963.

    ------------------------------------------------------------

    Tabbed by:PJVillanueva






    I wanna be your lover baby,
    I wanna be your man,
    I wanna be your lover baby,
    I wanna be your man.

    Love you like no other baby,
    Like no other can.
    Love you like no other baby,
    Like no other can.

    I wanna be your man I wanna be your man
    I wanna be your man I wanna be your man

    Tell me that you love me baby
    Let me understand
    Tell me that you love me baby
    I wanna be your man

    I wanna be your lover baby,
    I wanna be your man,
    I wanna be your lover baby,
    I wanna be your man.

    I wanna be your man I wanna be your man
    I wanna be your man I wanna be your man
 
                SOLO

    I wanna be your lover baby,
    I wanna be your man,
    I wanna be your lover baby,
    I wanna be your man.

    Love you like no other baby,
    Like no other can.
    Love you like no other baby,
    Like no other can.

    I wanna be your man I wanna be your man
    I wanna be your man I wanna be your man

    I wanna be your man Oh
    I wanna be your man Come on
    I wanna be your man Wow wow!





                           
  e|------- ------- ------- -------|------- ------- ------- -------|
  B|-------------------------------|-------------------------------|
  G|-------------------------------|------------2B4----------------|
  D|-------------------------------|------------------------0------|
  A|-------------------------------|-------------------------------|
  E|-------------------------------|-------------------------------|




            E7
  e|------- ------- ------- -------|------- ------- ------- -------|
  B|--------5-------5---5----------|5-----------5-------5---5---5--|
  G|--------7-------7---7----------|7-----------7-------7---7---7--|
  D|--------6-------6---6----------|6-----------6-------6---6---6--|
  A|--------7-------7---7----------|7-----------7-------7---7---7--|
  E|-------------------------------|-------------------------------|

  e|------- ------- ------- -------|------- ------- ------- -------|
  B|-------------------------------|-------------------------------|
  G|-------------------------------|-------------------------------|
  D|2-------2-------0--------------|2-------2---0-----------2------|
  A|2-------2-------0--------------|2-------2---0-----------2------|
  E|0-------0-------0--------------|0-------0---0-----------0------|
    I       wanna   be      your    lover       baby




  e|------- ------- ------- -------|------- ------- ------- -------|
  B|--------5---5---5-------5------|5-------5---5-------5---5------|
  G|--------7---7---7-------7------|7-------7---7-------7---7------|
  D|--------6---6---6-------6------|6-------6---6-------6---6------|
  A|--------7---7---7-------7------|7-------7---7-------7---7------|
  E|-------------------------------|-------------------------------|

  e|------- ------- ------- -------|------- ------- ------- -------|
  B|-------------------------------|-------------------------------|
  G|-------------------------------|-------------------------------|
  D|--------2-------0-------2------|--------2---0-------0---2------|
  A|--------2-------0-------2------|--------2---0-------0---2------|
  E|--------0-------0-------0------|--------0---0-------0---0------|
    I       wanna   be  your    man




  e|------- ------- ------- -------|------- ------- ------- -------|
  B|--------5-------5--------------|5-----------5-------5---5------|
  G|--------7-------7--------------|7-----------7-------7---7------|
  D|--------6-------6--------------|6-----------6-------6---6------|
  A|--------7-------7--------------|7-----------7-------7---7------|
  E|-------------------------------|-------------------------------|

  e|------- ------- ------- -------|------- ------- ------- -------|
  B|-------------------------------|-------------------------------|
  G|-------------------------------|-------------------------------|
  D|--------2-------0--------------|2---2-------0-------0---2------|
  A|--------2-------0--------------|2---2-------0-------0---2------|
  E|--------0-------0--------------|0---0-------0-------0---0------|
    I       wanna   be      your    lover       baby




            B                       E7
  e|------- ------- ------- -------|------- ------- ------- -------|
  B|--------7-----------7---7------|5-------5---5---5---5---5------|
  G|--------8-----------8---8------|7-------7---7---7---7---7------|
  D|--------9-----------9---9------|6-------6---6---6---6---6------|
  A|--------8-----------9---9------|7-------7---7---7---7---7------|
  E|-------------------------------|-------------------------------|

  e|------- ------- ------- -------|------- ------- ------- -------|
  B|-------------------------------|-------------------------------|
  G|-------------------------------|-------------------------------|
  D|--------2-------0--------------|2-------2---0-------0----------|
  A|--------2-------0--------------|2-------2---0-------0----------|
  E|--------0-------0--------------|0-------0---0-------0----------|
    I       wanna   be  your    man



    00:11

  e|------- ------- ------- -------|------- ------- ------- -------|
  B|--------5-------5--------------|5-----------5-------5---5------|
  G|--------7-------7--------------|7-----------7-------7---7------|
  D|--------6-------6--------------|6-----------6-------6---6------|
  A|--------7-------7--------------|7-----------7-------7---7------|
  E|-------------------------------|-------------------------------|

  e|------- ------- ------- -------|------- ------- ------- -------|
  B|-------------------------------|-------------------------------|
  G|-------------------------------|-------------------------------|
  D|--------2-------0-------2------|--------2---0-------0---0------|
  A|--------2-------0-------2------|--------2---0-------0---0------|
  E|--------0-------0-------0------|--------0---0-------0---0------|
    Love    you     like    no      other       baby




  e|------- ------- ------- -------|------- ------- ------- -------|
  B|--------5---5---5-------5------|--------5-----------5---5------|
  G|--------7---7---7-------7------|--------7-----------7---7------|
  D|--------6---6---6-------6------|--------6-----------6---6------|
  A|--------7---7---7-------7------|--------7-----------7---7------|
  E|-------------------------------|-------------------------------|

  e|------- ------- ------- -------|------- ------- ------- -------|
  B|-------------------------------|-------------------------------|
  G|-------------------------------|-------------------------------|
  D|--------2-------0-------2------|--------2---0---0---0---0------|
  A|--------2-------0-------2------|--------2---0---0---0---0------|
  E|--------0-------0-------0------|--------0---0---0---0---0------|

  e|------- ------- ------- -------|------- ------- ------- -------|
  B|-------------------------------|-------------------------------|
  G|-------------------------------|------------2B3-----0----------|
  D|-------------------------------|------------------------2------|
  A|-------------------------------|-------------------------------|
  E|-------------------------------|-------------------------------|
    like    no      other       can




  e|------- ------- ------- -------|------- ------- ------- -------|
  B|--------5-------5---5----------|5-------5---5-----------5------|
  G|--------7-------7---7----------|7-------7---7-----------7------|
  D|--------6-------6---6----------|6-------6---6-----------6------|
  A|--------7-------7---7----------|7-------7---7-----------7------|
  E|-------------------------------|-------------------------------|

  e|------- ------- ------- -------|------- ------- ------- -------|
  B|-------------------------------|-------------------------------|
  G|-------------------------------|-------------------------------|
  D|2-------2-------0-------2------|2-------2---0------------------|
  A|2-------2-------0-------2------|2-------2---0------------------|
  E|0-------0-------0-------0------|0-------0---0------------------|
    Love    you     like    no      other       baby




  e|------- ------- ------- -------|------- ------- ------- -------|
  B|--------7-------7---7----------|--------5-----------5-------5--|
  G|--------8-------8---8----------|--------7-----------7-------7--|
  D|--------9-------9---9----------|--------6-----------6-------6--|
  A|--------9-------9---9----------|--------7-----------7-------7--|
  E|-------------------------------|-------------------------------|

  e|------- ------- ------- -------|------- ------- ------- -------|
  B|-------------------------------|-------------------------------|
  G|-------------------------------|-------------------------------|
  D|2---------------0--------------|2-------2-----------2----------|
  A|2---------------0--------------|2-------2-----------2----------|
  E|0---------------0--------------|0-------0-----------0----------|

  e|------- ------- ------- -------|------- ------- ------- -------|
  B|-------------------------------|-------------------------------|
  G|-------------------------------|-------------------------------|
  D|-------------------------------|-------------------------------|
  A/2--------------/2--------------|-------------------------------|
  E|-------------------------------|0---------------0--------------|
    like    no      other       can



                        x   X  X  X

  e|------- ------- ------- -------|
  B|5------------------------------|
  G|7------------------------------|
  D|6------------------------------|
  A|7------------------------------|
  E|-------------------------------|

  e|------- ------- ------- -------|
  B|-------------------------------|
  G|-------------------------------|
  D|2------------------------------|
  A|2------------------------------|
  E|0------------------------------|

  e|------- ------- ------- -------|
  B|-------------------------------|
  G|-------------------------------|
  D|-------------------------------|
  A|-------------------------------|
  E|0------------------------------|
        I   wanna   be  your    man


    X
    00:22
            F#m                 B
  e|------- 2------ ----2-- ----2--|------- 2------ 2---2-- -------|
  B|--------2-----------2-------4--|--------4-------4---4----------|
  G|--------2-----------2-------4--|--------4-------4---4----------|
  D|--------4-----------4-------4--|--------4-------4---4----------|
  A|--------4-----------4-------2--|--------2-------2---2----------|
  E|--------2-----------2----------|-------------------------------|

  e|------- ------- ------- -------|------- ------- ------- -------|
  B|--------7-------6---5-------4--|-------------------------------|
  G|-------------------------------|-------------------------------|
  D|-------------------------------|-------------------------------|
  A|--------9-------8---7-------6--|-------------------------------|
  E|-------------------------------|-------------------------------|
                                        I   wanna   be  your    man



            E                   Db7
  e|------- 0------ ----0-- -------|------- ------- ------- -------|
  B|--------0-----------0-------2--|--------2-------2---2----------|
  G|--------1-----------1-------4--|--------4-------4---4----------|
  D|--------2-----------2-------3--|--------3-------3---3----------|
  A|--------2-----------2-------4--|--------4-------4---4----------|
  E|--------0-----------0----------|-------------------------------|

  e|------- ------- ------- -------|------- ------- ------- -------|
  B|--------5-------4---3-------2--|-------------------------------|
  G|-------------------------------|-------------------------------|
  D|-------------------------------|-------------------------------|
  A|--------7-------6---5-------4--|-------------------------------|
  E|-------------------------------|-------------------------------|
                                        I   wanna   be  your    man



            F#m                 B
  e|------- 2------ ----2-- ----2--|------- 2------ ----2-- -------|
  B|--------2-----------2-------4--|--------4-----------4----------|
  G|--------2-----------2-------4--|--------4-----------4----------|
  D|--------4-----------4-------4--|--------4-----------4----------|
  A|--------4-----------4-------2--|--------2-----------2----------|
  E|--------2-----------2----------|-------------------------------|

  e|------- ------- ------- -------|------- ------- ------- -------|
  B|--------7-------6---5-------4--|-------------------------------|
  G|-------------------------------|-------------------------------|
  D|-------------------------------|-------------------------------|
  A|--------9-------8---7-------6--|-------------------------------|
  E|-------------------------------|-------------------------------|
                                        I   wanna   be  your   


   (.
    Em11
  e|0------ ------- ------- -------|------- ------- ------- -------|
  B|0------------------------------|-------------------------------|
  G|0------------------------------|-------------------------------|
  D|0------------------------------|-------------------------------|
  A|0------------------------------|-------------------------------|
  E|0------------------------------|-------------------------------|

  e|------- ------- ------- -------|------- ------- ------- -------|
  B|-------------------------------|-------------------------------|
  G|--------0----------------------|-------------------------------|
  D|--------0----------------------|-------------------------------|
  A|--------0----------------------|-------------------------------|
  E|--------0----------------------|-------------------------------|
    man



    00:31
    Tell me that you love me baby
    Let me understand
    Tell me that you love me baby
    I wanna be your man

    00:41
    I wanna be your lover baby,
    I wanna be your man,
    I wanna be your lover baby,
    I wanna be your man.

    00:52
    I wanna be your man I wanna be your man
    I wanna be your man I wanna be your man



    SOLO
    01:02

  e|------- ------- ------- -------|------- ------- ------- -------|
  B|-------------------------------|-------------------------------|
  G|--------2-------B--------------|2B3--------B4-R-2-P-0----------|
  D|-------------------------------|------------------------2------|
  A|-------------------------------|-------------------------------|
  E|-------------------------------|-------------------------------|


  e|------- ------- ------- -------|------- ------- ------- -------|
  B|-------------------------------|-------------------------------|
  G|------------0-----------2------|2-B-4-------2-------0----------|
  D|2------------------------------|------------------------2------|
  A|-------------------------------|-------------------------------|
  E|-------------------------------|-------------------------------|


  e|------- 4------ ----2-- -------|4------ ----7-- ------- 4------|
  B|--------5-----------3----------|5-----------8-----------5------|
  G|--------4-----------2----------|4-----------7-----------4------|
  D|-------------------------------|-------------------------------|
  A|-------------------------------|-------------------------------|
  E|-------------------------------|-------------------------------|


  e|------- 4------ ----2-- -------|4------ ----7-- ------- -------|
  B|--------5-----------3----------|5-----------8------------------|
  G|--------4-----------2----------|4-----------7------------------|
  D|-------------------------------|-------------------------------|
  A|-------------------------------|-------------------------------|
  E|-------------------------------|-------------------------------|


  e|------- 7-\-4-- ------- -------|4\2---- ----4-- ------- -------|
  B|--------8-\-5------------------|5\3---------5------------------|
  G|--------7-\-4------------------|4\2---------4------------------|
  D|-------------------------------|-------------------------------|
  A|-------------------------------|-------------------------------|
  E|-------------------------------|-------------------------------|


  e|------- 7-\-4-- ------- -------|2------ ----2-/ 4------ -------|
  B|--------8-\-5------------------|3-----------3-/-5--------------|
  G|--------7-\-4------------------|2-----------2-/-4--------------|
  D|-------------------------------|------------------------2------|
  A|-------------------------------|------------------------2------|
  E|-------------------------------|------------------------0------|



    01:16

  e|------- ------- ------- -------|------- ------- ------- -------| 
  B|--------5---5------------------|5-----------5-------5----------|
  G|--------7---7------------------|7-----------7-------7----------|
  D|--------6---6------------------|6-----------6-------6----------|
  A|--------7---7------------------|7-----------7-------7----------|
  E|-------------------------------|-------------------------------|

  e|------- ------- ------- -------|------- ------- ------- -------|
  B|-------------------------------|-------------------------------|
  G|-------------------------------|-------------------------------|
  D|-------------------------------|------------2-----------2------|
  A|-------------------------------|------------2-----------2------|
  E|-------------------------------|------------0-----------0------|
    I       wanna   be      your    lover       baby




  e|------- ------- ------- -------|------- ------- ------- -------|
  B|5-----------5------------------|5-----------5-------5----------|
  G|7-----------7------------------|7-----------7-------7----------|
  D|6-----------6------------------|6-----------6-------6----------|
  A|7-----------7------------------|7-----------7-------7----------|
  E|-------------------------------|-------------------------------|

  e|------- ------- ------- -------|------- ------- ------- -------|
  B|-------------------------------|-------------------------------|
  G|-------------------------------|-------------------------------|
  D|2-------2----------------------|2-----------0--------0---------|
  A|2-------2----------------------|2-----------0--------0---------|
  E|0-------0----------------------|0-----------0--------0---------|
    I       wanna   be  your    man




  e|------- ------- ------- -------|------- ------- ------- -------|
  B|--------5---5---5--------------|5-----------5-------5---5------|
  G|--------7---7---7--------------|7-----------7-------7---7------|
  D|--------6---6---6--------------|6-----------6-------6---6------|
  A|--------7---7---7--------------|7-----------7-------7---7------|
  E|-------------------------------|-------------------------------|
    I       wanna   be      your    lover       baby
  e|------- ------- ------- -------|------- ------- ------- -------|
  B|-------------------------------|-------------------------------|
  G|-------------------------------|-------------------------------|
  D|--------2-------0--------------|2-----------0-------0---0------|
  A|--------2-------0--------------|2-----------0-------0---0------|
  E|--------0-------0--------------|0-----------0-------0---0------|





  e|------- ------- ------- -------|------- ------- ------- -------|
  B|--------7-------7---7----------|5-------5---5-------5---5------|
  G|--------8-------8---8----------|7-------7---7-------7---7------|
  D|--------9-------9---9----------|6-------6---6-------6---6------|
  A|--------8-------9---9----------|7-------7---7-------7---7------|
  E|-------------------------------|-------------------------------|

  e|------- ------- ------- -------|------- ------- ------- -------|
  B|-------------------------------|-------------------------------|
  G|-------------------------------|-------------------------------|
  D|--------2-------0--------------|2-------2---0-------0---0------|
  A|--------2-------0--------------|2-------2---0-------0---0------|
  E|--------0-------0--------------|0-------0---0-------0---0------|
    I       wanna   be  your    man



    01:26

  e|------- ------- ------- -------|------- ------- ------- -------|
  B|--------5---5-----------5------|5-----------5-------5---5------|
  G|--------7---7-----------7------|7-----------7-------7---7------|
  D|--------6---6-----------6------|6-----------6-------6---6------|
  A|--------7---7-----------7------|7-----------7-------7---7------|
  E|-------------------------------|-------------------------------|

  e|------- ------- ------- -------|------- ------- ------- -------|
  B|-------------------------------|-------------------------------|
  G|-------------------------------|-------------------------------|
  D|--------2-------0--------------|2-----------0-------0---0------|
  A|--------2-------0--------------|2-----------0-------0---0------|
  E|--------0-------0--------------|0-----------0-------0---0------|
    Love    you     like    no      other       baby




  e|------- ------- ------- -------|------- ------- ------- -------|
  B|--------5---5---5-------5------|--------5---5-------5----------|
  G|--------7---7---7-------7------|--------7---7-------7----------|
  D|--------6---6---6-------6------|--------6---6-------6----------|
  A|--------7---7---7-------7------|--------7---7-------7----------|
  E|-------------------------------|-------------------------------|

  e|------- ------- ------- -------|------- ------- ------- -------|
  B|-------------------------------|-------------------------------|
  G|-------------------------------|-------------------------------|
  D|--------2-------0--------------|2-------2---0-------0---0------|
  A|--------2-------0--------------|2-------2---0-------0---0------|
  E|--------0-------0--------------|0-------0---0-------0---0------|
    like    no      other       can




  e|------- ------- ------- -------|------- ------- ------- -------| 
  B|5-------5---5---5--------------|5---5---------------5---5------|
  G|7-------7---7---7--------------|7---7---------------7---7------|
  D|6-------6---6---6--------------|6---6---------------6---6------|
  A|7-------7---7---7--------------|7---7---------------7---7------|
  E|-------------------------------|-------------------------------|

  e|------- ------- ------- -------|------- ------- ------- -------|
  B|-------------------------------|-------------------------------|
  G|-------------------------------|-------------------------------|
  D|--------2-------0--------------|2-----------0-------0---0------|
  A|--------2-------0--------------|2-----------0-------0---0------|
  E|--------0-------0--------------|0-----------0-------0---0------|
    Love    you     like    no      other       baby




  e|------- ------- ------- -------|------- ------- ------- -------|
  B|--------7-------7---7----------|5-------5-----------5---5---5--|
  G|--------8-------8---8----------|7-------7-----------7---7---7--|
  D|--------9-------9---9----------|6-------6-----------6---6---6--|
  A|--------9-------9---9----------|7-------7-----------7---7---7--|
  E|-------------------------------|-------------------------------|

  e|------- ------- ------- -------|------- ------- ------- -------|
  B|-------------------------------|-------------------------------|
  G|-------------------------------|-------------------------------|
  D|--------2-------0--------------|2---2-------0-------0---0------|
  A|--------2-------0--------------|2---2-------0-------0---0------|
  E|--------0-------0--------------|0---0-------0-------0---0------| 

  e|------- ------- ------- -------|------- ------- ------- -------|
  B|-------------------------------|-------------------------------|
  G|-------------------------------|--------2B3---------0----------|
  D|-------------------------------|------------------------2------|
  A|-------------------------------|-------------------------------|
  E|-------------------------------|-------------------------------|
    like    no      other       can




                        x   X  X  X

  e|------- ------- ------- -------|
  B|5------------------------------|
  G|7------------------------------|
  D|6------------------------------|
  A|7------------------------------|
  E|-------------------------------|

  e|------- ------- ------- -------|
  B|-------------------------------|
  G|-------------------------------|
  D|2------------------------------|
  A|2------------------------------|
  E|0------------------------------|

  e|------- ------- ------- -------|
  B|-------------------------------|
  G|-------------------------------|
  D|2------------------------------|
  A|-------------------------------|
  E|-------------------------------|
        I   wanna   be  your    man




    01:36

  e|2------ 2------ 2---2-- ----2--|------- 2------ 2---2-- -------|
  B|2-------2-------2---2-------4--|--------4-------4---4----------|
  G|2-------2-------2---2-------4--|--------4-------4---4----------|
  D|4-------4-------4---4-------4--|--------4-------4---4----------|
  A|4-------4-------4---4-------2--|--------2-------2---2----------|
  E|2-------2-------2---2----------|-------------------------------|

  e|------- ------- ------- -------|------- ------- ------- -------|
  B|--------7-------6---5-------4--|-------------------------------|
  G|-------------------------------|-------------------------------|
  D|-------------------------------|-------------------------------|
  A|--------9-------8---7-------6--|-------------------------------|
  E|-------------------------------|-------------------------------|
                                        I   wanna   be  your    man




  e|------- 0------ 0---0-- -------|------- ------- ------- -------|
  B|--------0-------0---0-------2--|--------2-------2---2----------|
  G|--------1-------1---1-------4--|--------4-------4---4----------|
  D|--------2-------2---2-------3--|--------3-------3---3----------|
  A|--------2-------2---2-------4--|--------4-------4---4----------|
  E|--------0-------0---0----------|-------------------------------|

  e|------- ------- ------- -------|------- ------- ------- -------|
  B|--------5-------4---3-------2--|-------------------------------|
  G|-------------------------------|-------------------------------|
  D|-------------------------------|-------------------------------|
  A|--------7-------6---5-------4--|-------------------------------|
  E|-------------------------------|-------------------------------|
                                        I   wanna   be  your    man




  e|2------ 2------ 2---2-- ----2--|------- 2------ 2---2-- -------|
  B|2-------2-------2---2-------4--|--------4-------4---4----------|
  G|2-------2-------2---2-------4--|--------4-------4---4----------|
  D|4-------4-------4---4-------4--|--------4-------4---4----------|
  A|4-------4-------4---4-------2--|--------2-------2---2----------|
  E|2-------2-------2---2----------|-------------------------------|

  e|------- ------- ------- -------|------- ------- ------- -------|
  B|------/-7-------6---5-------4--|-------------------------------|
  G|-------------------------------|-------------------------------|
  D|-------------------------------|-------------------------------|
  A|------/-9-------8---7-------6--|-------------------------------|
  E|-------------------------------|-------------------------------|
                                        I   wanna   be  your    


   (.

  e|0------ ------- ------- -------|------- ------- ------- -------|
  B|0------------------------------|-------------------------------|
  G|0------------------------------|-------------------------------|
  D|0------------------------------|-------------------------------|
  A|0------------------------------|-------------------------------|
  E|0------------------------------|-------------------------------|

  e|------- ------- ------- -------|------- ------- ------- -------|
  B|-------------------------------|-------------------------------|
  G|0------------------------------|-------------------------------|
  D|0------------------------------|-------------------------------|
  A|0------------------------------|-------------------------------|
  E|0------------------------------|-------------------------------|
    man



    01:46

  e|------- ------- ------- -------|------- ------- ------- -------|
  B|5-------5-------5---5---5------|5-------5---5-------5---5------|
  G|7-------7-------7---7---7------|7-------7---7-------7---7------|
  D|6-------6-------6---6---6------|6-------6---6-------6---6------|
  A|7-------7-------7---7---7------|7-------7---7-------7---7------|
  E|-------------------------------|-------------------------------|

  e|------- 4------ ----2-- -------|4------ ------- ------- -------|
  B|--------5-----------3----------|5------------------------------|
  G|--------4-----------2----------|4------------------------------|
  D|-------------------------------|-------------------------------|
  A|-------------------------------|-------------------------------|
  E|-------------------------------|-------------------------------|
                                        I   wanna   be  your    man




  e|------- ------- ------- -------|------- ------- ------- -------|
  B|5-------5---5-------5----------|5-----------5-------5---5------|
  G|7-------7---7-------7----------|7-----------7-------7---7------|
  D|6-------6---6-------6----------|6-----------6-------6---6------|
  A|7-------7---7-------7----------|7-----------7-------7---7------|
  E|-------------------------------|-------------------------------|

  e|------- 4------ ----2-- -------|4------ ----7-- ----4-- -------|
  B|--------5-----------3----------|5-----------8-------5----------|
  G|--------4-----------2----------|4-----------7-------4----------|
  D|-------------------------------|-------------------------------|
  A|-------------------------------|-------------------------------|
  E|-------------------------------|-------------------------------|
                                        I   wanna   be  your    man
                    Oh
    .......................... Fade out ...........................


  e|------- ------- ------- -------|------- ------- ------- -------|
  B|5-------5-----------5----------|5-----------5-------5---5------|
  G|7-------7-----------7----------|7-----------7-------7---7------|
  D|6-------6-----------6----------|6-----------6-------6---6------|
  A|7-------7-----------7----------|7-----------7-------7---7------|
  E|-------------------------------|-------------------------------|

  e|------- 4------ ----2-- -------|4------ ----7-- ----4-- -------|
  B|--------5-----------3----------|5-----------8-------5----------|
  G|--------4-----------2----------|4-----------7-------4----------|
  D|-------------------------------|-------------------------------|
  A|-------------------------------|-------------------------------|
  E|-------------------------------|-------------------------------|
                            Oh          I   wanna   be  your    man
                    Come 
                        on
    ...............................................................


  e|------- 5------ ----5-- -------|------- ------- ------- -------|
  B|--------5-----------5----------|-------------------------------|
  G|--------6-----------6----------|-------------------------------|
  D|--------7-----------7----------|-------------------------------|
  A|--------7-----------7----------|-------------------------------|
  E|--------5-----------5----------|-------------------------------|


  e|------- 4------ ----2-- -------|------- ------- ------- -------|
  B|--------5-----------3----------|-------------------------------|
  G|--------4-----------2----------|-------------------------------|
  D|-------------------------------|-------------------------------|
  A|-------------------------------|-------------------------------|
  E|-------------------------------|-------------------------------|
                Wow     wow!

    ...............................







        B  Bend
        R  Release
        /  Slide up
        \  Slide down
        H  Hammer-on
        P  Pull-off
        ~  Vibrato
        +  Harmonic
        x  Mute note
        .  Play note like a dot in standard notation
        ^  Ties two notes together
        (. Pause


comments
We did not receive enough feedback on this tab! Please rate:
print report bad tab
1 2 3 4 5
I want to post or [tab]
guest
You may want to rate the tab now too:
select rating
Please do not post tabs as comments. Select "correction" instead!