Oops, an error
Loading. Please wait.

I Want You Shes So Heavy Tab

ver1
ver1

Whole song

More versions @911Tabs.com
446,420 views 1,214 this week
12 commentsread comments
1 2 3 4 5
excellent!
x 50
Autoscroll
+/-
esc
set tempo
stop
Contributor
WARNING: You are trying to view
                                    content from Ultimate-Guitar.com
                                    in an unauthorized application,
                                    which is prohibited.

                                    Please use an official Ultimate
                                    Guitar Tabs application for iPhone,
                                    iPad or Android to access legitimate
                                    chords, guitar, bass, and drum tabs
                                    from Ultimate-Guitar.com database.

                                    Type "ultimate guitar tabs" in Apple
                                    App Store's or Android Market's
                                    search to find the application.
------------------------------------------------------------------

      THE BEATLES - I WANT YOU (SHE'S SO HEAVY) (Lennon/McCartney)
                    From ABBEY ROAD album. Released 26th September 
                    1969.

------------------------------------------------------------------

      Tabbed by:PJVillanueva





I want you
I want you so bad
I want you,
I want you so bad
It’s driving me mad, it’s driving me mad.
I want you
I want you so bad, babe
I want you,
I want you so bad
It’s driving me mad, it’s driving me mad.
Yeah.
I want you
I want you so bad, babe
I want you,
I want you so bad
It’s driving me mad, it’s driving me mad.
I want you
I want you so bad
I want you,
I want you so bad
It’s driving me mad, it’s driving me mad.
Yeah.
She’s so heavy heavy.





                Tune 2nd guitar's low E to D. 


                  
    6/8



e|--------------- 1--------------|--------------- 1--------------|  1
B|----------3----------3---------|----------3----------3---------|
G|-----2--------------------2----|-----2--------------------2----|
D|0------------------------------|3------------------------------|
A|-------------------------------|-------------------------------|
E|-------------------------------|-------------------------------|

e|--------------- ---------------|--------------- ---------------|  2
B|-------------------------------|-------------------------------|
G|--------------------------2----|--------------------------2----|
D|0------------------------------|3------------------------------|
A|-------------------------------|-------------------------------|
D|-------------------------------|-------------------------------|

e|--------------- ---------------|--------------- ----B15---R----|  3
B|-------------------------------|-------------------------------|
G|----------------------------7-/|10---------12-/-10-------------|
D|-------------------------------|-------------------------------|
A|-------------------------------|-------------------------------|
E|-------------------------------|-------------------------------|






e|--------------- 1--------------|--------------- 1--------------|
B|----------3----------3---------|---------------------3---------|
G|-----1--------------------1----|----------1---------------1----|
D|2------------------------------|-----2-------------------------|
A|-------------------------------|1------------------------------|
E|-------------------------------|-------------------------------|

e|--------------- ---------------|--------------- ---------------|
B|-------------------------------|-------------------------------|
G|-------------------------------|--------------------------1----|
D|2------------------------------|-------------------------------|
A|---------------------3----2----|1------------------------------|
D|-------------------------------|-------------------------------|

e|--------------- ---------------|17B18---------- 18-R-----------|
B|12-------------------15---12---|--------------------------18---|
G|-------------------------------|-------------------------------|
D|-------------------------------|-------------------------------|
A|-------------------------------|-------------------------------|
E|-------------------------------|-------------------------------|



                                  
                                   4/4
                  (.

e|--------------- 1--------------|------- ------- ------- -------|
B|----------2--------------------|-------------------------------|
G|-----2-------------------------|------------------------5------|
D|-------------------------------|--------------------7----------|
A|0------------------------------|-------------------------------|
E|-------------------------------|-------------------------------|
                                                      I   want
e|--------------- ---------------|--------------- ---------------|
B|-------------------------------|-------------------------------|
G|-------------------------------|-------------------------------|
D|-------------------------------|-------------------------------|
A|0------------------------------|-------------------------------|
D|-------------------------------|-------------------------------|

e|--------------- 17-------------|--------------- ---------------|
B|-----18---------18-------------|-------------------------------|
G|18---18------------------------|-------------------------------|
D|19-----------------------------|-------------------------------|
A|-------------------------------|-------------------------------|
E|-------------------------------|-------------------------------|





                  x   x   x

e|------- ------- ------- -------|------- ------- ------- -------|
B|-------------------------------|-------------------------------|
G|7-B-9--------R7P5--------------|----------------5---7---7-B-9-9R
D|--------------------7----------|------------7------------------|
A|-------------------------------|-------------------------------|
E|-------------------------------|-------------------------------|
  you                                         I   want you so


                                  x   x   x   x

e|------- ------- ------- -------|------- ------- ------- -------|
B|-------------------------------|-------------------------------|
G|7---5-----------5-------7-P-5--|------------------------5------|
D|--------7----------------------|--------------------7----------|
A|-------------------------------|-------------------------------|
E|-------------------------------|-------------------------------|
  bad                                                 I   want


                                  x   x   x

e|------- ------- ------- -------|------- ------- ------- -------|
B|-------------------------------|-------------------------------|
G|7-B-9-R-7-B-9-R-7-B-9-R-7P5----|----------------5---7---7-B-9-9R
D|----------------------------7--|------------7------------------|
A|-------------------------------|-------------------------------|
E|-------------------------------|-------------------------------|
  you                                         I   want you so




e|------- ------- ------- -------|------- ------- ------- -------|
B|-------------------------------|-------------------------------|
G|7-P-5-----------5--------------|--------5-------5--------------|
D|--------7---------------7------|5-------5-------5H7-----5------|
A|-------------------------------|----7--------------------------|
E|-------------------------------|-------------------------------|
  bad                     It’s    driving me      mad,    it's          


   2/4                                                   

e|------- -------|
B|---------------|
G|---------------|
D|---------------|
A|7---5---3B4----|
E|---------------|
  driving me     


   4/4
                                          x x x x x  x x  x x x

e|------- ------- ------- -------|------- ------- ------- -------|
B|-------------------------------|-------------------------------|
G|-------------------------------|------------------------10-----|
D|-------------------------------|--------------------12---------|
A|-------------------------------|-------------------------------|
E|5------------------------------|-------------------------------|
  mad                                                 I   want
e|------- ------- ------- -------|------- ------- ------- -------|
B|-------------------------------|-------------------------------|
G|--------5---5---5-----------5--|-------------------------------|
D|--------5---5---5-----------5--|-------------------------------|
A|--------------------7\5/7------|7---7---7----------------------|
D|-------------------------------|7---7---7----------------------|



  

e|------- ------- ------- -------|------- ------- ------- -------|
B|-------------------------------|-------------------------------|
G|12B14-12-----------------------|----------------10--12--12-B-14|
D|-------------------------------|------------12-----------------|
A|-------------------------------|-------------------------------|
E|-------------------------------|-------------------------------|
  you                                         I   want you so
e|------- ------- ------- -------|------- ------- ------- -------|
B|-------------------------------|-------------------------------|
G|------------------------10-----|-------------------------------|
D|----------------12--12--10-----|-------------------------------|
A|----------------12--12---------|-------------------------------|
D|-------------------------------|-------------------------------|




                           B P
e|------- ------- ------- -------|------- ------- ------- -------|
B|-------------------------------|-------------------------------|
G|14R1210---------10------121410-|------------------------10-----|
D|--------12-------------------12|--------------------12---------|
A|-------------------------------|-------------------------------|
E|-------------------------------|-------------------------------|
  bad,                    babe                        I   want
e|------- ------- ------- -------|------- ------- ------- -------|
B|-------------------------------|----------------10-------------|
G|-------------------------------|--------10--10--10-------------|
D|-------------------------------|--------10--10------12---------|
A|-------------------------------|-------------------------------|
D|-------------------------------|-------------------------------|





e|------- ------- ------- -------|------- ------- ------- -------|
B|12-B-13R12-B-13R12-B-13R12-----|-------------------------------|
G|12-B-13R12-B-13R12-B-13R12-----|----------------10--12--12-B-14|
D|-------------------------------|------------12-----------------|
A|-------------------------------|-------------------------------|
E|-------------------------------|-------------------------------|
  you                                         I   want you so
e|------- ------- ------- -------|------- ------- ------- -------|
B|-------------------------------|-------------------------------|
G|-------------------------------|10--10--10---------------------|
D|-------------------------------|10--10--10---------------------|
A|-------------------------------|-------------------------------|
D|-------------------------------|-------------------------------|





e|------- ------- ------- -------|------- ------- ------- -------|
B|-------------------------------|-------------------------------|
G|14R1210---------10-------------|-------------------------------|
D|--------12--------------12-----|10------10---10H12------10-----|
A|-------------------------------|----12-------------------------|
E|-------------------------------|-------------------------------|  
  bad                     it's    driving me      mad     it's
e|------- ------- ------- -------|------- ------- ------- -------|
B|-------------------------------|-------------------------------|
G|-------------------------------|-------------------------------|
D|-------------------------------|10------10------8--------------|
A|-------------------------------|10------10------8--------------|
D|-------------------------------|-------------------------------|



   2/4

e|------- -------|
B|---------------|
G|---------------|
D|---------------|
A|10----11----12-|
E|---------------|
  driving     me
e|------- -------|
B|---------------|
G|---------------|
D|---------------|
A|5-----6-----7--|
D|---------------|



   4/4

e|------- ------- ------- -------|------- ------- ------- -------|
B|--------6---6---6---6-------6--|6---6--------------------------|
G|--------7---7---7---7-------7--|7---7--------------------------|
D|--------6---6---6---6-------6--|6---6--------------------------|
A|--------7---7---7---7-------7--|7---7--------------------------|
E|0-------0---0---0---0-------0--|0---0--------------------------|





e|------- ------- ------- -------|------- ------- ------- -------|
B|--------6---6---6---6-------6--|6---6--------------------------|
G|--------7---7---7---7-------7--|7---7--------------------------|
D|--------6---6---6---6-------6--|6---6--------------------------|
A|--------7---7---7---7-------7--|7---7--------------------------|
E|0-------0---0---0---0-------0--|0---0--------------------------|



                                          x

e|------- ------- ------- -------|------- ------- ------- -------|
B|--------6---6---6---6-------6--|6------------------------------|
G|--------7---7---7---7-------7--|7-----------------------5------|
D|--------6---6---6---6-------6--|6-------------------7----------|
A|--------7---7---7---7-------7--|7------------------------------|
E|0-------0---0---0---0-------0--|0------------------------------|
                                                      I   want




e|------- ------- ------- -------|------- ------- ------- -------|
B|-------------------------------|-------------------------------|
G|7-B-9-----------7B9R7----------|----------------5---7---7-B-9-9R
D|-------------------------------|------------7------------------|
A|-------------------------------|-------------------------------|
E|-------------------------------|-------------------------------|
  you                                         I   want you so
e|------- ------- ------- -------|------- ------- ------- -------|
B|-------------------------------|-------------------------------|
G|------------------------5---5--|5------------------------------|
D|------------------------5---5--|5------------------------------|
A|-------------------------------|-------------------------------|
D|-------------------------------|-------------------------------|





e|------- ------- ------- -------|------- ------- ------- -------|
B|-------------------------------|-------------------------------|
G|7-P-5-----------5-------7P5----|------------------------5------|
D|--------7-------------------7--|--------------------7----------|
A|-------------------------------|-------------------------------|
E|-------------------------------|-------------------------------|
  bad                                                 I   want
e|------- ------- ------- -------|------- ------- ------- -------|
B|-------------------------------|-------------------------------|
G|-------------------------------|5---5---5---5------------------|
D|-------------------------------|7---7---5---5------------------|
A|-------------------------------|7---7--------------------------|
D|-------------------------------|-------------------------------|






e|------- ------- ------- -------|------- ------- ------- -------|
B|-------------------------------|-------------------------------|
G|7-B-9-R-7-B-9-R-7P5------------|----------------5---7---7-B-9-9R
D|--------------------7----------|------------7------------------|
A|-------------------------------|-------------------------------|
E|-------------------------------|-------------------------------|
  you                                         I   want you so
e|------- ------- ------- -------|------- ------- ------- -------|
B|-------------------------------|-------------------------------|
G|-------------------------------|----5---5----------------------|
D|-------------------------------|----5---5----------------------|
A|----------------------------5-H|7------------------------------|
D|-------------------------------|-------------------------------|





e|------- ------- ------- -------|------- ------- ------- -------|
B|-------------------------------|-------------------------------|
G|7-P-5-----------5--------------|----------------5--------------|
D|--------7---------------7------|5-------5-------5H7-----5------|
A|-------------------------------|----7--------------------------|
E|-------------------------------|-------------------------------|
  bad                     it's    driving me      mad     it's
e|------- ------- ------- -------|------- ------- ------- -------|
B|-------------------------------|-------------------------------|
G|----------------5--------------|5-------5-------5--------------|
D|5---------------5--------------|7-------7-------5--------------|
A|7------------------------------|-------------------------------|
D|-------------------------------|-------------------------------|



   2/4

e|------- -------|
B|---------------|
G|---------------|
D|---------------|
A|7---5---3B4----|
E|---------------|
  driving me


    4/4

e|------- ------- ------- -------|------- ------- ------- -------|
B|-------------------------------|------------------------10-----|
G|-------------------------------|------------------------10-----|
D|-------------------------------|--------------------12---------|
A|-------------------------------|-------------------------------|
E|5-~----------------------------|-------------------------------|   
  mad                                                 I   want
e|------- ------- ------- -------|------- ------- ------- -------|
B|-------------------------------|-------------------------------|
G|--------------------5---5------|5------------------------------|
D|--------------------5---5------|5------------------------------|
A|--------------5/7-----------7--|-------------------------------|
D|-------------------------------|-------------------------------|




   B R P                                                   B
e|------- ------- ------- -------|------- ------- ------- -------|
B|-------------------------------|-------------------------------|
G|12141210-----------------------|----------------10--12--1214-14R
D|--------12---------------------|------------12-----------------|
A|-------------------------------|-------------------------------|
E|-------------------------------|-------------------------------|
  you                                         I   want you so
e|------- ------- ------- -------|------- ------- ------- -------|
B|------------------------8/10---|-------------------------------|
G|----------------10--10--8/10---|10-----------------------------|
D|----------------10--10---------|10-----------------------------|
A|-------------------------------|-------------------------------|
D|-------------------------------|-------------------------------|




                          B R P
e|------- ------- ------- -------|------- ------- ------- -------|
B|--------------------10---------|-------------------------------|
G|12--10----------10--10H12141210|------------------------10-----|
D|--------12--------------------12--------------------12---------|
A|-------------------------------|-------------------------------|
E|-------------------------------|-------------------------------|
  bad                                                 I   want
e|------- ------- ------- -------|------- ------- ------- -------|
B|-------------------------------|-------------------------------|
G|-------------------------------|10--10--10----------10---------|
D|-------------------------------|10--10--10----------10---------|
A|-------------------------------|-----------12\10/12------------|
D|-------------------------------|-------------------------------|




                                                           B
e|------- ------- ------- -------|------- ------- ------- -------|
B|12-B-13R12-B-13R12-------------|-------------------------------|
G|12-B-13R12-B-13R12-------------|----------------10--12--1214-14R
D|-------------------------------|------------12-----------------|
A|-------------------------------|-------------------------------|
E|-------------------------------|-------------------------------|
  you                                         I   want you so
e|------- ------- ------- -------|------- ------- ------- -------|
B|------------------------10--10-|-------------------------------|
G|------------------------10--10-12/13\12-10---------------------|
D|-------------------------------12/13\12-10---------------------|
A|-------------------------------|-------------------------------|
D|-------------------------------|-------------------------------|





e|------- ------- ------- -------|------- ------- ------- -------|
B|-------------------------------|-------------------------------|
G|12--10----------10-------------|--------10------10------10-----|
D|--------12--------------12-----|10------10------10H12---10-----|
A|-------------------------------|----12-------------------------|
E|-------------------------------|-------------------------------| 
  bad                     it's    driving me      mad     it's
e|------- ------- ------- -------|------- ------- ------- -------|
B|-------------------------------|-------------------------------|
G|-------------------------------|-------------------------------|
D|----------------10----------10-|10--10----------8--------------|
A|12---------------8-----------8-|10--10----------8--------------|
D|12-----------------------------|-------------------------------|



   2/4

e|------- -------|
B|---------------|
G|---------------|
D|---------------|
A|10----11----12-|
E|---------------|                                
  driving     me
e|------- -------|
B|---------------|
G|---------------|
D|---------------|
A|5-----6-----7--|
D|---------------|



   4/4

e|------- ------- ------- -------|------- ------- ------- -------|
B|--------6---6---6---6---6---6--|6---6--------------------------|
G|--------7---7---7---7---7---7--|7---7--------------------------|
D|--------6---6---6---6---6---6--|6---6--------------------------|
A|--------7---7---7---7---7---7--|7---7--------------------------|
E|0-------0---0---0---0---0---0--|0---0--------------------------|





e|------- ------- ------- -------|------- ------- ------- -------|
B|--------6---6---6---6-------6--|6---6--------------------------|
G|--------7---7---7---7-------7--|7---7--------------------------|
D|--------6---6---6---6-------6--|6---6--------------------------|
A|--------7---7---7---7-------7--|7---7--------------------------|
E|0-------0---0---0---0-------0--|0---0--------------------------|



                                          x

e|------- ------- ------- -------|------- ------- ------- -------|
B|--------6---6---6---6---6---6--|6------------------------------|
G|--------7---7---7---7---7---7--|7------------------------------|
D|--------6---6---6---6---6---6--|6------------------------------|
A|--------7---7---7---7---7---7--|7------------------------------|
E|0-------0---0---0---0---0---0--|0------------------------------|
                                                  She's   so          


    6/8

e|--------------- 1--------------|--------------- 1--------------|
B|----------3----------3---------|----------3----------3---------|
G|-----2--------------------2----|-----2--------------------2----|
D|0------------------------------|3------------------------------|
A|-------------------------------|-------------------------------|
E|-------------------------------|-------------------------------|

e|--------------- ---------------|--------------- ---------------|
B|-------------------------------|-------------------------------|
G|--------------------------2----|--------------------------2----|
D|0------------------------------|3------------------------------|
A|-------------------------------|-------------------------------|
D|-------------------------------|-------------------------------|





e|--------------- 1--------------|--------------- 1--------------|
B|----------3----------3---------|---------------------3---------|
G|-----1--------------------1----|----------1---------------1----|
D|2------------------------------|-----2-------------------------|
A|-------------------------------|1------------------------------|
E|-------------------------------|-------------------------------|
                                  heavy
e|--------------- ---------------|--------------- ---------------|
B|-------------------------------|-------------------------------|
G|-------------------------------|--------------------------1----|
D|2------------------------------|-------------------------------|
A|---------------------3----2----|1------------------------------|
D|-------------------------------|-------------------------------|





e|--------------- 1--------------|
B|----------2----------2---------|
G|-----2--------------------2----|
D|-------------------------------|
A|0------------------------------|
E|-------------------------------|
                                                 
e|--------------- ---------------|
B|-------------------------------|
G|--------------------------2----|
D|-------------------------------|
A|0------------------------------|
D|-------------------------------|





e|--------------- 1--------------|--------------- 1--------------|
B|----------3----------3---------|----------3----------3---------|
G|-----2--------------------2----|-----2--------------------2----|
D|0------------------------------|3------------------------------|
A|-------------------------------|-------------------------------|
E|-------------------------------|-------------------------------|
  Heavy
                 (Heavy           Heavy)          
e|--------------- ---------------|--------------- ---------------|
B|-------------------------------|-------------------------------|
G|--------------------------2----|-------------------------------|
D|0------------------------------|3-------------------------3----|
A|-------------------------------|-------------------------------|
D|-------------------------------|-------------------------------|





e|--------------- 1--------------|--------------- 1--------------|
B|----------3----------3---------|---------------------3---------|
G|-----1--------------------1----|----------1---------------1----|
D|2------------------------------|-----2-------------------------|
A|-------------------------------|1------------------------------|
E|-------------------------------|-------------------------------|
                            
e|--------------- ---------------|--------------- ---------------|
B|-------------------------------|-------------------------------|
G|-------------------------------|--------------------------1----|
D|2------------------------------|-------------------------------|
A|---------------------3----2----|1------------------------------|
D|-------------------------------|-------------------------------|


                                   4/4
                  (.

e|--------------- 1--------------|------- ------- ------- -------|
B|----------2--------------------|-------------------------------|
G|-----2-------------------------|------------------------5------|
D|-------------------------------|------------------/-7----------|
A|0------------------------------|-------------------------------|
E|-------------------------------|-------------------------------|
                                                
e|--------------- ---------------|--------------- ---------------|
B|-------------------------------|-------------------------------|
G|-------------------------------|-------------------------------|
D|-------------------------------|-------------------------------|
A|0------------------------------|-------------------------------|
D|-------------------------------|-------------------------------|





e|------- ------- ------- -------|------- ------- ------- -------|   
B|-------------------------------|-------------------------------|
G|7-B-9------R7B9R7------B8-R-7--|5---------------5---7---7-B-9--|
D|-------------------------------|----7-----/-7------------------|
A|-------------------------------|-------------------------------|
E|-------------------------------|-------------------------------|





e|------- ------- ------- -------|------- ------- ------- -------|
B|-------------------------------|-------------------------------|
G|9R8--5----------5-------7B8P5--|------------------------5------|
D|--------7--------------------7-|--------------------7----------|
A|-------------------------------|-------------------------------|
E|-------------------------------|-------------------------------|  

e|------- ------- ------- -------|------- ------- ------- -------|
B|-------------------------------|-------------------------------|
G|----------------------------5-5|--5-----5----------------------|
D|----------------------------5-5|--5-----5----------------------|
A|-------------------------------|7---7--------------------------|
D|-------------------------------|-------------------------------|





e|------- ------- ------- -------|------- ------- ------- -------|
B|-------------------------------|-------------------------------|
G|7-B-9-R-7-B-9-R-7-B-9-R-7P5----|5---7B9---------5---7---7-B-9-9R
D|----------------------------7--|-------------------------------|
A|-------------------------------|-------------------------------|
E|-------------------------------|-------------------------------|

e|------- ------- ------- -------|------- ------- ------- -------|
B|-------------------------------|-------------------------------|
G|-------------------------------|5------------------------------|
D|-------------------------------|5------------------------------|
A|--------------------------5/7--|----7--------------------------|
D|-------------------------------|-------------------------------|





e|------- ------- ------- -------|------- ------- ------- -------|
B|-------------------------------|-------------------------------|
G|7---5-----------5--------------|-------------------------------|
D|--------7---------------7------|5-------5---5-H-7-------5------|
A|-------------------------------|----7--------------------------|
E|-------------------------------|-------------------------------|

e|------- ------- ------- -------|------- ------- ------- -------|
B|-------------------------------|-------------------------------|
G|-------------------------------|----------------5--------------|
D|----------------5--------------|7-------7-------3--------------|
A|7---------------3--------------|5-------5----------------------|
D|7------------------------------|-------------------------------|



   2/4

e|------- -------|
B|---------------|
G|---------------|
D|---------------|
A|7---5---3B4-~--|
E|---------------|                                     



   4/4

e|------- ------- ------- -------|------- ------- ------- -------|
B|------------------------5---5--|------------------------10-----|
G|------------------------5---5B6|------------------------10-----|
D|------------------5----7-------|--------------------12---------|
A|----------------7--------------|-------------------------------|
E|5-~----------------------------|-------------------------------|     

e|------- ------- ------- -------|------- ------- ------- -------|
B|-------------------------------|-------------------------------|
G|--------5----7/8--------5------|--------5----------------------|
D|--------5----7/8--------5------|--------5----------------------|
A|-------------------------------|-------------------------------|
D|-------------------------------|-------------------------------|




                               B R P H
e|------- ------- ------- -------|------- ------- ------- -------|
B|12---B--13---13R121012------1214121012----------10--12--12B1313R
G|12---B--13---13R121012-B14--1214121012----------10--12--12B1313R
D|-------------------------------|-------------------------------|
A|-------------------------------|-------------------------------|
E|-------------------------------|-------------------------------|

e|------- ------- ------- -------|------- ------- ------- -------|
B|------------------------6------|-------------------------------|
G|----------5-------------5------|7-------5----------------------|
D|----------5--------------------|7-------5----------------------|
A|-------------------------------|-------------------------------|
D|-------------------------------|-------------------------------|




                           B P H
e|------- ------- ------- -------|------- ------- ------- -------|
B|12-P-10---------10------12131012------------------------10-----|
G|12-P-10---------10------12131012--------------------12--10-----|
D|--------12---------------------|--------------------12---------|
A|-------------------------------|-------------------------------|
E|-------------------------------|-------------------------------|

e|------- ------- ------- -------|------- ------- ------- -------|
B|-------------------------------|-------------------------------|
G|-------------------------------|----10--10------10-------------|
D|-------------------------------|----11--10------10-------------|
A|-------------------------------|------------12-----------------|
D|-------------------------------|-------------------------------|





e|------- ------- ------- -------|------- ------- ------- -------|
B|121312131213121312-~-----------|----------------10--12--12B1313R
G|121312131213121312-~-----------|-----------12---10--12--12B1313R
D|-------------------------------|-----------12------------------|
A|-------------------------------|-------------------------------|
E|-------------------------------|-------------------------------|

e|------- ------- ------- -------|------- ------- ------- -------|
B|-------------------------------|-------------------------------|
G|-------------------------------|--------10---------------------|
D|------------------10-----------|--------10---------------------|
A|-------------10/12--12\10/12---|12-----------------------------|
D|-------------------------------|----12-------------------------|





e|------- ------- ------- -------|------- ------- ------- -------|
B|12--10----------10-------------|-------------------------------|
G|12--10--12------10------12-----|10------10---10H12------10-----|
D|--------12--------------12-----|10------10---10H12------10-----|
A|-------------------------------|----12-------------------------|
E|-------------------------------|-------------------------------|    

e|------- ------- ------- -------|------- ------- ------- -------|
B|-------------------------------|-------------------------------|
G|----------------10-------------|10-------8------8-------8------|
D|-----------------8-------------|10-------8------8-------8------|
A|12-----------------------------|-------------------------------|
D|12-----------------------------|-------------------------------|



   2/4

e|------- -------|
B|---------------|
G|---------------|
D|---------------|
A|10----11----12-|
E|---------------|

e|------- -------|
B|---------------|
G|---------------|
D|---------------|
A|5-----6-----7--|
D|---------------|



   4/4

e|------- ------- ------- -------|------- ------- ------- -------|
B|--------6-------6---6-------6--|6---6---6-/----0---------------|
G|--------7-------7---7-------7--|7---7---7-/--------------------|
D|--------6-------6---6-------6--|6---6---6-/--------------------|
A|--------7-------7---7-------7--|7---7---7-/--------------------|
E|0-------0-------0---0-------0--|0---0---0----------------------|





e|------- ------- ------- -------|------- ------- ------- -------|
B|--------6---6---6---6-------6--|6---6-/------------------------|
G|--------7---7---7---7-------7--|7---7-/------------------------|
D|--------6---6---6---6-------6--|6---6-/------------------------|
A|--------7---7---7---7-------7--|7---7-/------------------------|
E|0-------0---0---0---0-------0--|0---0--------------------------|



                                          x

e|------- ------- ------- -------|------- ------- ------- -------|
B|--------6---6---6---6---6---6--|6------------------------------|
G|--------7---7---7---7---7---7--|7------------------------------|
D|--------6---6---6---6---6---6--|6------------------------------|
A|--------7---7---7---7---7---7--|7------------------------------|
E|0-------0---0---0---0---0---0--|0------------------------------|
                                                  She's   so          


    6/8

e|--------------- 1--------------|--------------- 1--------------|
B|----------3----------3---------|----------3----------3---------|
G|-----2--------------------2----|-----2--------------------2----|
D|0------------------------------|3------------------------------|
A|-------------------------------|-------------------------------|
E|-------------------------------|-------------------------------|

e|--------------- ---------------|--------------- ---------------|
B|-------------------------------|-------------------------------|
G|--------------------------2----|--------------------------2----|
D|0------------------------------|3------------------------------|
A|-------------------------------|-------------------------------|
D|-------------------------------|-------------------------------|





e|--------------- 1--------------|--------------- 1--------------|
B|----------3----------3---------|---------------------3---------|
G|-----1--------------------1----|----------1---------------1----|
D|2------------------------------|-----2-------------------------|
A|-------------------------------|1------------------------------|
E|-------------------------------|-------------------------------|
  heavy
e|--------------- ---------------|--------------- ---------------|
B|-------------------------------|-------------------------------|
G|-------------------------------|--------------------------1----|
D|2------------------------------|-------------------------------|
A|---------------------3----2----|1------------------------------|
D|-------------------------------|-------------------------------|





e|--------------- 1--------------|
B|----------2----------2---------|
G|-----2--------------------2----|
D|-------------------------------|
A|0------------------------------|
E|-------------------------------|
                       She's so                              
e|--------------- ---------------|
B|-------------------------------|
G|-------------------------------|
D|--------------------------2----|
A|0------------------------------|
D|-------------------------------|                        





e|--------------- 1--------------|--------------- 1--------------|
B|----------3----------3---------|----------3----------3---------|
G|-----2--------------------2----|-----2--------------------2----|
D|0------------------------------|3------------------------------|
A|-------------------------------|-------------------------------|
E|-------------------------------|-------------------------------|
  heavy
                   Heavy          Heavy
e|--------------- ---------------|--------------- ---------------|
B|-------------------------------|-------------------------------|
G|--------------------------2----|--------------------------2----|
D|0------------------------------|3------------------------------|
A|-------------------------------|-------------------------------|
D|-------------------------------|-------------------------------|





e|--------------- 1--------------|--------------- 1--------------|
B|----------3----------3---------|---------------------3---------|
G|-----1--------------------1----|----------1---------------1----|
D|2------------------------------|-----2-------------------------|
A|-------------------------------|1------------------------------|
E|-------------------------------|-------------------------------|
                         
e|--------------- ---------------|--------------- ---------------|
B|-------------------------------|-------------------------------|
G|-------------------------------|--------------------------1----|
D|2------------------------------|-------------------------------|
A|---------------------3----2----|1------------------------------|
D|-------------------------------|-------------------------------|


                                   4/4
                  (.

e|--------------- 1--------------|------- ------- ------- -------|
B|-------------------------------|-------------------------------|
G|-----2----2--------------------|------------------------5------|
D|-------------------------------|--------------------/-7--------|
A|0------------------------------|-------------------------------|
E|-------------------------------|-------------------------------|
                                                        I want
e|--------------- ---------------|--------------- ---------------|
B|-------------------------------|-------------------------------|
G|-------------------------------|-------------------------------|
D|-------------------------------|-------------------------------|
A|0------------------------------|-------------------------------|
D|-------------------------------|-------------------------------|


                     


e|------- ------- ------- -------|------- ------- ------- -------|
B|-------------------------------|-------------------------------|
G7B9R7P5-------------------------|----------------5---7---7-B-9-8R
D|------7------------------------|------------7------------------|
A|-------------------------------|-------------------------------|
E|-------------------------------|-------------------------------|
  you                                         I   want you so
e|------- ------- ------- -------|------- ------- ------- -------|
B|-------------------------------|-------------------------------|
G|------------------------5---5--|--------5----------------------|
D|------------------------5---5--|7-------5----------------------|
A|--------------------7----------|7------------------------------|
D|-------------------------------|-------------------------------|





e|------- ------- ------- -------|------- ------- ------- -------|
B|-------------------------------|7---5--------------------------|
G|7-P-5-----------5-------7P5----|--------5---------------5------|
D|--------7-------------------7--|------7------------------------|
A|-------------------------------|-------------------------------|
E|-------------------------------|-------------------------------|
  bad                                                     want
e|------- ------- ------- -------|------- ------- ------- -------|
B|-------------------------------|--------5-------7/8-----5------|
G|-------------------------------|--------5-------7/8-----5------|
D|-------------------------------|-------------------------------|
A|-------------------------------|-------------------------------|
D|-------------------------------|-------------------------------|





e|------- ------- ------- -------|------- ------- ------- -------|
B|-------------------------------|----------------5---7---7-/-8--|
G|7B8R7B8R7P5--------------------|------------7---5---7---7-/-8--|
D|------------7------------------|------------7------------------|
A|-------------------------------|-------------------------------|
E|-------------------------------|-------------------------------|
  you                                         I   want you so
e|------- ------- ------- -------|------- ------- ------- -------|
B|-------------------------------|-------------------------------|
G|------------------------5---5--|5-------5----------------------|
D|--------------------7---5---5--|5-------5----------------------|
A|--------------------7----------|-------------------------------|
D|-------------------------------|-------------------------------|





e|------- ------- ------- -------|------- ------- ------- -------|
B|7---5--------------------------|-------------------------------|
G|7---5-----------5--------------|5-------5-------5-------5------|
D|--------7---------------7------|5-------5-------5H7-----5------|
A|-------------------------------|----7--------------------------|
E|-------------------------------|-------------------------------|
  bad                     it's    driving me      mad     it's
e|------- ------- ------- -------|------- ------- ------- -------|
B|-------------------------------|-------------------------------|
G|-------------------------------|5-------5-------5-------5------|
D|----------------5--------------|5-------5-------5-------5------|
A|7---------------3--------------|-------------------------------|
D|7------------------------------|-------------------------------|



   2/4

e|------- -------|
B|---------------|
G|---------------|
D|---------------|
A|7---5---3B4----|
E|---------------|
  driving me
e|------- -------|
B|---------------|
G|--------5---5--|
D|--------5---5--|
A|---------------|
D|---------------|



   4/4

e|------- ------- ------- -------|------- ------- ------- -------|
B|-------------------------------|-------------------------------|
G|------------------------5---5--|------------------------10-----|
D|------------------5---7--------|--------------------12---------|
A|--------------5/7--------------|-------------------------------|
E|5-~----------------------------|-------------------------------|
  mad                                                    I   want
e|------- ------- ------- -------|------- ------- ------- -------|
B|-------------------------------|-------------------------------|
G|------------5---5--------------|5------------------------------|
D|------------5---5--------------|5------------------------------|
A|-------------------------------|-------------------------------|
D|-------------------------------|-------------------------------|




  B R P
e|------- ------- ------- -------|------- ------- ------- -------|
B|-------------------------------|----------------10-------------|
G12141210------------------------|----------------10--12--12-B-14|
D|-------12----------------------|----12--12--12-----------------|
A|-------------------------------|-------------------------------|
E|-------------------------------|-------------------------------|
  you                                 you know I  want you so
e|------- ------- ------- -------|------- ------- ------- -------|
B|-------------------------------|-------------------------------|
G|----------------10--10--10--10-|10--\--------------------------|
D|----------------10--10--10--10-|10--\--------------------------|
A|-------------------------------|-------------------------------|
D|-------------------------------|-------------------------------|





e|------- ------- ------- -------|------- ------- ------- -------|
B|-------------------------------|------------------------10-----|
G|12-P-10---------10-------------|------------------------10-----|
D|--------12---------------------|--------------------12---------|
A|-------------------------------|-------------------------------|
E|-------------------------------|-------------------------------|
  bad,                    babe                        I   want
e|------- ------- ------- -------|------- ------- ------- -------|
B|-------------------------------|-------------------------------|
G|---------------------------10--|--------10------12/13---10-----|
D|---------------------------10--|--------10------12/13---10-----|
A|---------------------10/12---12\10/12--------------------------|
D|-------------------------------|-------------------------------|





e|------- ------- ------- -------|------- ------- ------- -------|
B|12-B-13R12-B-13R12-\-----------|----------------10--12--12-B-13|
G|12-B-13R12-B-13R12-------------|----------------10--12--12-B-13|
D|-------------------------------|------------12-----------------|
A|-------------------------------|-------------------------------|
E|-------------------------------|-------------------------------|
  you                                 you know I want you so
e|------- ------- ------- -------|------- ------- ------- -------|
B|-----------------------------10|--10----10---------------------|
G|-----------------------------10|--10----10---------------------|
D|---------------------------12--|----12-------------------------|
A|-------------------------------|-------------------------------|
D|-------------------------------|-------------------------------|





e|------- ------- ------- -------|------- ------- ------- -------|
B|12-P-10---------10-------------|-------------------------------|
G|12-P-10---------10-------------|----------------10------10-----|
D|------------------------12-----|10------10------10H12---10-----|
A|-------------------------------|----12-------------------------|
E|-------------------------------|-------------------------------|    
  bad                     it's    driving me      mad     it's
e|------- ------- ------- -------|------- ------- ------- -------|
B|-------------------------------|-------------------------------|
G|-------------------------------|-------------------------------|
D|----------------10-------------|10--------------8--------------|
A|-----------------8-------------|10--------------8--------------|
D|-------------------------------|-------------------------------|


 
  2/4

e|------- -------|
B|---------------|
G|---------------|
D|---------------|
A|10----11----12-|
E|---------------| 
  driving me
e|------- -------|
B|---------------|
G|---------------|
D|---------------|
A|5-----6-----7--|
D|---------------|



   4/4

e|------- ------- ------- -------|------- ------- ------- -------|
B|--------6---6---6---6-------6--|6---6---6-/--------------------|
G|--------7---7---7---7-------7--|7---7---7-/--------------------|
D|--------6---6---6---6-------6--|6---6---6-/--------------------|
A|--------7---7---7---7-------7--|7---7---7-/--------------------|
E|0-------0---0---0---0-------0--|0---0---0----------------------|
  mad                                          Yeah!




e|------- ------- ------- -------|------- ------- ------- -------|
B|------------6---6---6---6---6--|6---6--------------------------|
G|------------7---7---7---7---7--|7---7--------------------------|
D|------------6---6---6---6---6--|6---6--------------------------|
A|------------7---7---7---7---7--|7---7--------------------------|
E|0-----------0---0---0---0---0--|0---0--------------------------|



                                          x

e|------- ------- ------- -------|------- ------- ------- -------|
B|--------6---6---6---6---6---6--|6------------------------------|
G|--------7---7---7---7---7---7--|7------------------------------|
D|--------6---6---6---6---6---6--|6------------------------------|
A|--------7---7---7---7---7---7--|7------------------------------|
E|0-------0---0---0---0---0---0--|0------------------------------|
                                                  She's   so          


         CODA

    6/8

e|--------------- 1--------------|--------------- 1--------------|
B|----------3----------3---------|----------3----------3---------|
G|-----2--------------------2----|-----2--------------------2----|
D|0------------------------------|3------------------------------|
A|-------------------------------|-------------------------------|
E|-------------------------------|-------------------------------|

e|--------------- ---------------|--------------- ---------------|
B|-------------------------------|-------------------------------|
G|-------------------------------|-------------------------------|
D|-------------------------------|-------------------------------|
A|-------------------------------|--------------------------0----|
D|0---------------2--------------|3---------------5--------------|





e|--------------- 1--------------|--------------- 1--------------|
B|----------3----------3---------|---------------------3---------|
G|-----1--------------------1----|----------1---------------1----|
D|2------------------------------|-----2-------------------------|
A|-------------------------------|1------------------------------|
E|-------------------------------|-------------------------------|
                             
e|--------------- ---------------|--------------- ---------------|
B|-------------------------------|-------------------------------|
G|-------------------------------|-------------------------------|
D|-------------------------------|--------------------------0----|
A|---------------------3----2----|1--------------------3---------|
D|2------------------------------|-------------------------------|





e|--------------- 1--------------|
B|----------2----------2---------|
G|-----2--------------------2----|
D|-------------------------------|
A|0------------------------------|
E|-------------------------------|
                                                   
e|--------------- ---------------|
B|-------------------------------|
G|-------------------------------|
D|-------------------------------|
A|0------------------------------|
D|---------------------3----2----|                        





e|--------------- 1--------------|--------------- 1--------------|
B|----------3----------3---------|----------3----------3---------|
G|-----2--------------------2----|-----2--------------------2----|
D|0------------------------------|3------------------------------|
A|-------------------------------|-------------------------------|
E|-------------------------------|-------------------------------|

e|--------------- ---------------|--------------- ---------------|
B|-------------------------------|-------------------------------|
G|-------------------------------|-------------------------------|
D|-------------------------------|-------------------------------|
A|-------------------------------|--------------------------0----|
D|0---------------2--------------|3---------------5--------------|





e|--------------- 1--------------|--------------- 1--------------|
B|----------3----------3---------|---------------------3---------|
G|-----1--------------------1----|----------1---------------1----|
D|2------------------------------|-----2-------------------------|
A|-------------------------------|1------------------------------|
E|-------------------------------|-------------------------------|
                          
e|--------------- ---------------|--------------- ---------------|
B|-------------------------------|-------------------------------|
G|-------------------------------|-------------------------------|
D|-------------------------------|--------------------------0----|
A|---------------------3----2----|1--------------------3---------|
D|2------------------------------|-------------------------------|





e|--------------- 1--------------|
B|----------2----------2---------|
G|-----2--------------------2----|
D|-------------------------------|
A|0------------------------------|
E|-------------------------------|
                                                  
e|--------------- ---------------|
B|-------------------------------|
G|-------------------------------|
D|-------------------------------|
A|0------------------------------|
D|---------------------3----2----|                        


                         


e|--------------- 1--------------|--------------- 1--------------|
B|----------3----------3---------|----------3----------3---------|
G|-----2--------------------2----|-----2--------------------2----|
D|0------------------------------|3------------------------------|
A|-------------------------------|-------------------------------|
E|-------------------------------|-------------------------------|

e|--------------- ---------------|--------------- ---------------|
B|-------------------------------|-------------------------------|
G|-------------------------------|-------------------------------|
D|-------------------------------|-------------------------------|
A|-------------------------------|--------------------------0----|
D|0---------------2--------------|3---------------5--------------|





e|--------------- 1--------------|--------------- 1--------------|
B|----------3----------3---------|---------------------3---------|
G|-----1--------------------1----|----------1---------------1----|
D|2------------------------------|-----2-------------------------|
A|-------------------------------|1------------------------------|
E|-------------------------------|-------------------------------|
                             
e|--------------- ---------------|--------------- ---------------|
B|-------------------------------|-------------------------------|
G|-------------------------------|-------------------------------|
D|-------------------------------|--------------------------0----|
A|---------------------3----2----|1--------------------3---------|
D|2------------------------------|-------------------------------|





e|--------------- 1--------------|
B|----------2----------2---------|
G|-----2--------------------2----|
D|-------------------------------|
A|0------------------------------|
E|-------------------------------|
                                                   
e|--------------- ---------------|
B|-------------------------------|
G|-------------------------------|
D|-------------------------------|
A|0------------------------------|
D|---------------------3----2----|       





  ...............................................................






        B  Bend
        R  Release
        /  Slide up
        \  Slide down
        H  Hammer-on
        P  Pull-off
        ~  Vibrato
        +  Harmonic
        x  Mute note
        .  Play note like a dot in standard notation
        ^  Ties two notes together
        (. Pause


comments
print report bad tab
12 comments total. Showing first comments.
+2 reply
orange_juice wrote on December 16 2006, 10:12 am

nice tab! (haha i made the first comment)





+6 reply
guitarAce372 wrote on June 4 2007, 05:51 pm

This song is too short! No, I wouldn't want it any longer. Nice tab 5 stars.

+5 reply
sgman93 wrote on January 30 2008, 05:10 pm

great tab, sounds awesome

I want to post or [tab]
guest
You may want to rate the tab now too:
select rating
Please do not post tabs as comments. Select "correction" instead!