Oops, an error
Loading. Please wait.

I Want You Shes So Heavy Bass Tab

ver2
ver2

Whole song

Interactive

More versions @911Tabs.com
34,303 views 192 this week
no commentswrite comment
1 2 3 4 5
excellent!
x 6
Autoscroll
+/-
esc
set tempo
stop
Contributor
Difficulty
intermediate
Hey! There's an official Ultimate Guitar app which is ideal
for learning songs when you're away from computer. Get the app
WARNING: You are trying to view
                                    content from Ultimate-Guitar.com
                                    in an unauthorized application,
                                    which is prohibited.

                                    Please use an official Ultimate
                                    Guitar Tabs application for iPhone,
                                    iPad or Android to access legitimate
                                    chords, guitar, bass, and drum tabs
                                    from Ultimate-Guitar.com database.

                                    Type "ultimate guitar tabs" in Apple
                                    App Store's or Android Market's
                                    search to find the application.
  ----------------------------------------------------------------

    THE BEATLES – I WANT YOU (SHE'S SO HEAVY) (John Lennon) From 
                  ABBEY ROAD album. Released 26th September 1969

  ----------------------------------------------------------------

   Bass Tab by: 





   I want you
   I want you so bad
   I want you
   I want you so bad
   It's driving me mad
   It's driving me mad

   I want you
   I want you so bad, babe
   I want you
   I want you so bad
   It's driving me mad
   It's driving me mad

   I want you
   I want you so bad, babe
   I want you
   I want you so bad
   It's driving me mad
   It's driving me mad

   I want you
   I want you so bad
   I want you
   I want you so bad
   It's driving me mad
   It's driving me mad

   She's so...
   Heavy...
   Heavy, heavy, heavy

    (GUITAR SOLO)

   She's so...
   Heavy...
   She's so heavy, heavy, heavy

   I want you
   I want you so bad
   Want you
   I want you so bad
   It's driving me mad
   It's driving me mad

   I want you
   You know I want you so bad, babe
   I want you
   You know I want you so bad
   It's driving me mad
   It's driving me mad
   Yeeeeeeeah...

   She's so...





    INTRO
    00:00

  G|-------------------------------|-------------------------------|
  D|-------------------------------|----------------5---------7----|
  A|-5--------------7--------------|-8-----------------------------|
  E|-------------------------------|-------------------------------|





  G|-------------------------------|-------------------------------|
  D|----------------x--------------|-------------------------------|
  A|-7-----------------------------|---------------------3----5----|
  E|---------------------8----7----|-6-----------------------------|





  G|-------------------------------|-------------------------------|
  D|----------------7--------------|-------------------------------|
  A|-0-----------------------------|-------------------------------|
  E|-------------------------------|-------------------------------|





    VERSE
    00:14

  G|-----------------9---9---9-------|---------------------------------|
  D|-----------------7---7---7-------|---------------------------------|
  A|---------------------------------|---------------------------------|
  E|---------------------------------|---------------------------------|





  G|---------------------------------|-9---9---9---9-------------------|
  D|---------------------------------|-7---7---7---7-------------------|
  A|---------------------------------|---------------------------------|
  E|---------------------------------|---------------------------------|





  G|---------------------------------|-9---9---9-----------------------|
  D|---------------------------------|-7---7---7-----------------------|
  A|---------------------------------|---------------------------------|
  E|---------------------------------|---------------------------------|





  G|---------------------------------|---------------------------------|
  D|---------------------------------|-----------------3---------------|
  A|-0---------------3---------------|-5-------------------------------|
  E|---------------------------------|---------------------------------|





  G|---------------------------------|-----------------|
  D|-5-------6-------7---------------|-----------------|
  A|-----------------------------7---|-0---------------|
  E|---------------------------------|-----------------|





  G|---------------------------------|
  D|---------------------------------|
  A|-0---0---0---3-----------4-------|
  E|---------------------------------|





  G|-----------------7---7---7-------|---------------------11--10------|
  D|---------------------------------|-----------------------------12--|
  A|-5-------------------------------|-5---5---5-----------------------|
  E|---------------------------------|---------------------------------|





  G|-----------------7---7---7-------|---------14--12--10--------------|
  D|---------------------------------|---------------------12-\--------|
  A|-5-------------------------------|-5-------------------------------|
  E|---------------------------------|---------------------------------|





  G|-----------------7-------7-\-----|-----------------10-B----7-------|
  D|---------------------------------|---------------------------------|
  A|-5-------------------------------|-5-------------------------------|
  E|---------------------------------|---------------------------------|





  G|---------------------------------|---------------------------------|
  D|-----------------3---------------|---------------------------------|
  A|-5-------------------------------|-3---------------1---------------|
  E|---------------------------------|---------------------------------|





  G|----------------|
  D|----------------|
  A|-5----6----7----|
  E|----------------|





  G|---------------------------------|-----------------------9---7-----|
  D|---------------------------------|-----5---------------9-------9---|
  A|-----7---7---7---7---7---7---7---|-7-------9---8---7---------------|
  E|-0-------------------------------|---------------------------------|





  G|---------------------------------|-----------------------9---7-----|
  D|---------------------------------|-----5---------------9-------9---|
  A|-7---7---7---7---7---7---7---7---|-7-------9---8---7---------------|
  E|---------------------------------|---------------------------------|





  G|---------------------------------|---------------------------------|
  D|---------------------------------|-/-14------------\---------------|
  A|-7---7---7---7---7---7---7---7---|---------------------------------|
  E|---------------------------------|---------------------------------|





    VERSE
    01:07

  G|---------------------------------|---------------------------------|
  D|-7-------------------------------|---------------------------------|
  A|-------------------------5/7\5---|-0----------------------/7-------|
  E|---------------------------------|---------------------------------|





  G|---------------------------------|---------5---B-------------------|
  D|-7-------------------------------|-------------------------7-\-----|
  A|-------------------------5/7\5---|-0-------------------------------|
  E|---------------------------------|---------------------------------|





  G|---------------------------------|---------------------------------|
  D|---------------------------------|-7---7---7\----------------------|
  A|-0-----------------------7-------|-------------------------7-\-----|
  E|---------------------------------|---------------------------------|





  G|---------------------------------|---------------------------------|
  D|-------------------------7-------|-----------------3-------3-------|
  A|-0-------------------5-7---------|-5-------5-----------------------|
  E|---------------------------------|---------------------------------|





  G|---------------------------------|-----------------|
  D|-5-------6-------7-----------7---|-7---------------|
  A|---------------------------------|---------7-\-----|
  E|---------------------------------|-----------------|





  G|---------------------------------|
  D|---------------------------------|
  A|---------0---3-----------4-------|
  E|---------------------------------|





  G|-----------------7---7---7-------|-----------------11------10------|
  D|---------------------------------|---------------------------------|
  A|-5-------------------------------|-5---5---5-----------------------|
  E|---------------------------------|---------------------------------|





  G|-----------------7-------\-------|-----------------10--------------|
  D|---------------------------------|--------------12---------12-\----|
  A|-5---5---------------------------|-5---5---5-----------------------|
  E|---------------------------------|---------------------------------|





  G|-----------------7---------------|-----------------11------10-\----|
  D|---------------------------------|---------------------------------|
  A|-5-------------------------------|-5---5---------------------------|
  E|---------------------------------|---------------------------------|





  G|---------------------------------|---------------------------------|
  D|-----------------3---------------|---------------------------------|
  A|-5-------------------------------|-3---------------1---------------|
  E|---------------------------------|---------------------------------|





  G|----------------|
  D|----------------|
  A|-5----6----7----|
  E|----------------|





  G|---------------------------------|-----------------------9---7-----|
  D|---------------------------------|---------------------9-------9---|
  A|-------------7---7---7---7---7---|-7---10--9---8---7---------------|
  E|-0---0---0-----------------------|---------------------------------|





  G|---------------------------------|-----------------------9---7-----|
  D|---------------------------------|---------------------9-------9---|
  A|-7---7---7---7---7---7---7---7---|-7---10--9---8---7---------------|
  E|---------------------------------|---------------------------------|





  G|--------------------/9---9---9---|-9-\-----------------------------|
  D|---------------------------------|---------------------------------|
  A|-7---7---7---7---7---------------|---------------------------------|
  E|---------------------------------|---------------------------------|





    INTERLUDE
    01:57

  G|-------------------------------|-------------------------------|
  D|-------------------------------|----------------5---------7----|
  A|-5--------------7--------------|-8-----------------------------|
  E|-------------------------------|-------------------------------|





  G|-------------------------------|-------------------------------|
  D|-----------x-x-x-\-------------|-------------------------------|
  A|-7-----------------------------|---------------------3----5----|
  E|---------------------8----7----|-6-----------------------------|





  G|-------------------------------|
  D|----------------7--------------|
  A|-0-------------------4----7----|
  E|-------------------------------|





  G|-------------------------------|-------------------------------|
  D|-------------------------------|----------------5---------7----|
  A|-5--------------7--------------|-8-----------------------------|
  E|-------------------------------|-------------------------------|





  G|-------------------------------|-------------------------------|
  D|-----------x-x-x-\-------------|-------------------------------|
  A|-7-----------------------------|---------------------3----5----|
  E|---------------------8----7----|-6-----------------------------|





  G|-------------------------------|-------------------------------|
  D|----------------7--------------|-------------------------------|
  A|-0----4----7-------------------|-------------------------------|
  E|-------------------------------|-------------------------------|





    GUITAR SOLO
    02:27

  G|---------------------------------|---------------------------------|
  D|-----------------5-------5-H-7---|-----------------5---5---5-H-7---|
  A|-0-----------5H7-----------------|-0-----------5H7-----------------|
  E|---------------------------------|---------------------------------|





  G|---------------------------------|---------------------------------|
  D|---------------------------------|-----------------5---5---5-H-7---|
  A|-0-----------7-----------7-------|-0-----------5H7-----------------|
  E|---------------------------------|---------------------------------|





  G|---------------------------------|---------------------------------|
  D|---------------------------------|-----------------5---5---5-H-7---|
  A|-0-----------7-----------7-------|-0-----------5H7-----------------|
  E|---------------------------------|---------------------------------|





  G|---------------------------------|---------------------------------|
  D|---------------------------------|-----------------3-----------3---|
  A|-0-----------0---3-----------3---|-5-----------5-------------------|
  E|---------------------------------|---------------------------------|





  G|---------------------------------|-----------------|
  D|-2-----------------------7---7---|-7---7---7---7---|
  A|---------3-------0---------------|-----------------|
  E|---------------------------------|-----------------|





  G|---------------------------------|
  D|-7---7---7-----------------------|
  A|-------------0---0---0---3---4---|
  E|---------------------------------|





  G|-----------------7---7---7-------|-----------------7---7---5-------|
  D|-------------7---------------5H7-|-------------7---------------7---|
  A|-5-------------------------------|-5-------------------------------|
  E|---------------------------------|---------------------------------|





  G|-----------------7---7---7-------|------------/11-----/11----------|
  D|-------------5H7-------------7---|-------------------------12------|
  A|-5-------------------------------|-5-------------------------------|
  E|---------------------------------|---------------------------------|





  G|---------------------------------|---------------------7---7-------|
  D|-----------------------------5H7-|-----------------6/7-------------|
  A|-5-----------5---5---5---5-------|-5---5---------------------------|
  E|---------------------------------|---------------------------------|





  G|---------------------------------|---------------------------------|
  D|-----------------3-----------3---|---------------------------------|
  A|-5-----------5-------------------|-3-----------3---1-------/-------|
  E|---------------------------------|---------------------------------|





  G|----------------|
  D|----------------|
  A|-5----6----7----|
  E|----------------|





  G|---------------------------------|-----------------------9---7-----|
  D|---------------------------------|---------------------9-------9---|
  A|-----------------7---7---7---7---|-7---10--9---8---7---------------|
  E|-0---0---0---0-------------------|---------------------------------|





  G|---------------------------------|-----------------------9-7-------|
  D|---------------------------------|---------------------9-------9---|
  A|-7---7---7---7---7---7---7---7---|-7---10--9---8---7---------------|
  E|---------------------------------|---------------------------------|





  G|---------------------------------|---------------------------------|
  D|---------------------------------|---------------------------------|
  A|-7-------7---7---7---7---7---7---|-7-------------------------------|
  E|---------0---0---0---0---0---0---|-0-------------------------------|





    INTERLUDE
    03:20

  G|-------------------------------|-------------------------------|
  D|-------------------------------|----------------5---------7----|
  A|-5--------------7--------------|-8-----------------------------|
  E|-------------------------------|-------------------------------|





  G|-------------------------------|-------------------------------|
  D|----------------x--------------|-------------------------------|
  A|-7-----------------------------|----------------1----3----5----|
  E|---------------------8----7----|-6-----------------------------|





  G|--------------------------5----|
  D|----------------7----8---------|
  A|-0----4----7-------------------|
  E|-------------------------------|





  G|-7--------7-\------------------|-------------------------------|
  D|-------------------------------|----------------5---------7----|
  A|----------------7--------------|-8-----------------------------|
  E|-------------------------------|-------------------------------|





  G|-------------------------------|-------------------------------|
  D|---------------x-\-------------|-------------------------------|
  A|-7-----------------------------|---------------------3----5----|
  E|---------------------8----7----|-6--------------6--------------|





  G|-------------------------------|-------------------------------|
  D|----------------7--------------|-------------------------------|
  A|-0----0----0-------------------|-------------------------------|
  E|-------------------------------|-------------------------------|





    VERSE
    03:49

  G|---------------------------------|---------------------------------|
  D|-----------------5-------5---7---|---------------------------------|
  A|-0-----------5H7-----------------|-0--------------(7)------7-\-----|
  E|---------------------------------|---------------------------------|





  G|---------------------------------|---------------------------------|
  D|-----------------5-------5---7---|---------------------------------|
  A|-0-----------5H7-----------------|-0----------(7)------0---7-\-----|
  E|---------------------------------|---------------------------------|





  G|---------------------------------|---------------------------------|
  D|-----------------5-------5---7---|-----------------5-------5-H-7---|
  A|-0-----------5H7-----------------|-0-----------7-------7-----------|
  E|---------------------------------|---------------------------------|





  G|---------------------------------|---------------------------------|
  D|---------------------------------|-----------------3-------3-------|
  A|-0---------------3-------3-------|-5-------5-----------------------|
  E|---------------------------------|---------------------------------|





  G|---------------------------------|-----------------|
  D|-2-------------------------------|-5---5---5-/-----|
  A|---------3-------0-----------7---|-----------------|
  E|---------------------------------|-----------------|





  G|---------------------------------|
  D|-----19-\-\-\-\-\-\-\-\-\-\-\-\--|
  A|---------------------------------|
  E|---------------------------------|





  G|-----------------7---7---7-------|-7-------7---7-------7---7-------|
  D|-------------7---------------5-7-|-----------------------------7---|
  A|---------------------------------|---------------------------------|
  E|---------------------------------|---------------------------------|





  G|-7-------7---7---7---7---7-------|-7-------7-----------------------|
  D|-----------------------------7---|-------------19-\-\-\-\-\-\------|
  A|---------------------------------|-----------------------------0---|
  E|---------------------------------|---------------------------------|





  G|-----------------7---7---7-------|-----------------7---7---7-------|
  D|-------------7-------------------|-------------7-------------------|
  A|-5-------5-------------------0---|-5-------5-------------------0---|
  E|---------------------------------|---------------------------------|





  G|---------------------------------|---------------------------------|
  D|-----------------3---------------|---------------------------------|
  A|-5-------------------------------|-3---------------1---------------|
  E|---------------------------------|---------------------------------|





  G|----------------|
  D|----------------|
  A|-5----6----7----|
  E|----------------|





  G|---------------------------------|-----------------------9---7-----|
  D|---------------------------------|---------------------9-------9---|
  A|---------7---7---7---7---7---7---|-7---10--9---8---7---------------|
  E|-0---0---------------------------|---------------------------------|





  G|---------------------------------|-----------------------9-7-------|
  D|---------------------------------|---------------------9-------9---|
  A|-7---------------7---7---7---7---|-7---10--9---8---7---------------|
  E|---------0---0---0---0---0---0---|---------------------------------|





  G|---------------------------------|---------------------------------|
  D|---------------------------------|-14------\--------/--------------|
  A|-7-------7---7---7---7---7---7---|---------------------------------|
  E|---------0---0---0---0---0---0---|---------------------------------|





    OUTRO
    04:40

  G|-------------------------------|-------------------------------|
  D|-------------------------------|----------------5---------7----|
  A|-5--------------7--------------|-8-----------------------------|
  E|-------------------------------|-------------------------------|





  G|-------------------------------|-------------------------------|
  D|---------x-x-x-x-\-------------|-------------------------------|
  A|-7-----------------------------|---------------------3----5----|
  E|---------------------8----7----|-6-----------------------------|





  G|-------------------------------|
  D|---------------x-\-------------|
  A|-0------------------------0----|
  E|-------------------------------|





  G|-------------------------------|-------------------------------|
  D|-------------------------------|----------------5---------7----|
  A|-5--------------7--------------|-8-----------------------------|
  E|-------------------------------|-------------------------------|





  G|-------------------------------|-------------------------------|
  D|-------------------------------|-------------------------------|
  A|-7-----------------------------|---------------------3----5----|
  E|---------------------8----7----|-6--------------6--------------|





  G|-------------------------------|
  D|-----------x-x-x-x-x-x-/-------|
  A|-0-----------------------------|
  E|-------------------------------|





  G|-------------------------------|-------------------------------|
  D|-------------------------------|----------------5----5----7----|
  A|-5----5----5----7----7----7----|-8----8----8-------------------|
  E|-------------------------------|-------------------------------|





  G|-------------------------------|-------------------------------|
  D|-------------------------------|-------------------------------|
  A|-7----7----7----7--------------|---------------------3----5----|
  E|---------------------8----7----|-6----6----6----6--------------|





  G|-------------------------------|
  D|------7----7----7--------------|
  A|-0-------------------0----3----|
  E|-------------------------------|





  G|-------------------------------|-------------------------------|
  D|-------------------------------|----------------5----5----7----|
  A|-5----5----5----7----7----7----|-8----8----8-------------------|
  E|-------------------------------|-------------------------------|





  G|-------------------------------|-------------------------------|
  D|------x-/-/-/-/-/-/------------|-------------------------------|
  A|-7-----------------------------|---------------------3----5----|
  E|---------------------8----7----|-6----6----6----6--------------|





  G|-------------------------------|
  D|------7----7----x-/-/-/-/-/-/--|
  A|-0-----------------------------|
  E|-------------------------------|





  G|-------------------------------|-------------------------------|
  D|-------------------------------|-----/x---------5----5----7----|
  A|-5----5----5----7----7----7----|-8---------8-------------------|
  E|-------------------------------|-------------------------------|





  G|-------------------------------|-------------------------------|
  D|------x------------------------|------x-\----------------------|
  A|-7---------7----7--------------|---------------------3----5----|
  E|---------------------8----7----|-6---------6----6--------------|





  G|-------------------------------|
  D|------x-x-x-\------------------|
  A|-0--------------0----0----3----|
  E|-------------------------------|





  G|-------------------------------|-------------------------------|
  D|-------------------------------|----------------5---------7----|
  A|-5--------------7--------------|-8-----------------------------|
  E|-------------------------------|-------------------------------|





  G|-------------------------------|-------------------------------|
  D|----------x-\--x-\-------------|----------x-\--x-\-------------|
  A|-7-----------------------------|---------------------3----5----|
  E|---------------------8----7----|-6-----------------------------|





  G|-------------------------------|
  D|-------------------------------|
  A|-0----0----0----0----0----0----|
  E|-------------------------------|





  G|-------------------------------|-------------------------------|
  D|-------------------------------|----------------5----5----7----|
  A|-5----5----5----7----7----7----|-8----8----8-------------------|
  E|-------------------------------|-------------------------------|





  G|-------------------------------|-------------------------------|
  D|--------x-\-x-\-x-\------------|----------x-\--x-\-------------|
  A|-7-----------------------------|---------------------3----5----|
  E|---------------------8----7----|-6-----------------------------|





  G|-------------------------------|
  D|------7----7------7-------7-\--|
  A|-0-------------0-------0-------|
  E|-------------------------------|





  G|-------------------------------|-------------------------------|
  D|----7------7-------7------7----|----------------5----5----7----|
  A|-5------5-------7------7-------|-8--8---8--8-------------------|
  E|-------------------------------|-------------------------------|





  G|------9----9----9-\------------|-------------------------------|
  D|-------------------------------|-------------------------------|
  A|-7-----------------------------|---------------------3----5----|
  E|---------------------8----7----|-6----6----6----6--------------|





  G|---------------------6----9----|
  D|----------------7--------------|
  A|-0----4----7-------------------|
  E|-------------------------------|





  G|-7----7----7----9---------9----|-10--------10---12--------14\--|
  D|-------------------------------|-------------------------------|
  A|-------------------------------|-------------------------------|
  E|-------------------------------|-------------------------------|





  G|-9---------9----9\-------------|-------------------------------|
  D|-------------------------------|-------------------------------|
  A|-------------------------------|---------------------3----5----|
  E|---------------------8----7----|-6----6----6----6--------------|





  G|-------------------------------|
  D|----------/7-------x--x-x-x-x\-|
  A|-0--------------0--------------|
  E|-------------------------------|





  G|-------------------------------|-------------------------------|
  D|-------------------------------|-------x-\-/----5---------7----|
  A|-5----5----5----7----7----7----|-8-----------------------------|
  E|-------------------------------|-------------------------------|





  G|-------------------------------|-------------------------------|
  D|-------------------------------|-------------------------------|
  A|-7-----------------------------|---------------------3----5----|
  E|---------------------8----7----|-6-----------------------------|





  G|-------------------------------|
  D|-------------------------------|
  A|-0-----------------------------|
  E|-------------------------------|





  G|-------------------------------|-------------------------------|
  D|-------------------------------|----------------5----5----7----|
  A|-5----5----5----7----7----7----|-8----8----8-------------------|
  E|-------------------------------|-------------------------------|





  G|-------------------------------|-------------------------------|
  D|-------------------------------|-------------------------------|
  A|-7-----------------------------|---------------------3----5----|
  E|---------------------8----7----|-6-----------------------------|





  G|-------------------------------|
  D|----------------7-7-7-7---7\---|
  A|-0----0----0-------------------|
  E|-------------------------------|





  G|-----------7-\-----------/7----|----------/7-------------------|
  D|-------------------------------|----------------5----5----7----|
  A|-5----5---------7----7---------|-8----8------------------------|
  E|-------------------------------|-------------------------------|





  G|-----/12\------/10\------------|-----/7\-------/7\-------------|
  D|-------------------------------|-------------------------------|
  A|-7---------7-------------------|---------------------3----5----|
  E|---------------------8----7----|-6---------6-------------------|





  G|-------------------------------|
  D|------7----7---------7---------|
  A|-0--------------0---------0----|
  E|-------------------------------|





  G|-------------------------------|-------------------------------|
  D|-------------------------------|----------------5---------7----|
  A|-5--------------7--------------|-8-----------------------------|
  E|-------------------------------|-------------------------------|





  G|-------------------------------|-------------------------------|
  D|-------------------------------|-------------------------------|
  A|-7-----------------------------|---------------------3----5----|
  E|---------------------8----7----|-6-----------------------------|





  G|----------------5----7---/10---|
  D|------7----7-------------------|
  A|-0-----------------------------|
  E|-------------------------------|





  G|-7----7----7-------------------|-------------------------------|
  D|-------------------------------|----------------5----5----7----|
  A|----------------7----7----7----|-8----8----8-------------------|
  E|-------------------------------|-------------------------------|





  G|-----/9--------/9---------9\---|-------------------------------|
  D|-------------------------------|------8---------8--------------|
  A|-7---------7---------7---------|---------------------3----5----|
  E|-------------------------------|-6---------6-------------------|





  G|--------------------------5----|
  D|------7---------7--------------|
  A|-0---------0---------0---------|
  E|-------------------------------|





  G|-7----7----7----9--9----9--9---|-10-10---10-10--12-12-----14---|
  D|-------------------------------|-------------------------------|
  A|-------------------------------|-------------------------------|
  E|-------------------------------|-------------------------------|





  G|-9--9----9--9----9\------------|-------------------------------|
  D|-------------------------------|-------------------------------|
  A|-------------------------------|---------------------3----5----|
  E|---------------------8----7----|-6----6----6----6--------------|





  G|-------------------------------|
  D|-------------------------------|
  A|-0-----------------------------|
  E|-------------------------------|
comments
print report bad tab
I want to post or [tab]
guest
You may want to rate the tab now too:
select rating
Please do not post tabs as comments. Select "correction" instead!