Oops, an error
Loading. Please wait.

I Want You Tab

ver2
ver2

Whole song

More versions @911Tabs.com
30,239 views 24 this week
6 commentsread comments
1 2 3 4 5
accurate
x 10
Autoscroll
+/-
esc
set tempo
stop
Contributor
Hey! There's an official Ultimate Guitar app which is ideal
for learning songs when you're away from computer. Get the app
WARNING: You are trying to view
                                    content from Ultimate-Guitar.com
                                    in an unauthorized application,
                                    which is prohibited.

                                    Please use an official Ultimate
                                    Guitar Tabs application for iPhone,
                                    iPad or Android to access legitimate
                                    chords, guitar, bass, and drum tabs
                                    from Ultimate-Guitar.com database.

                                    Type "ultimate guitar tabs" in Apple
                                    App Store's or Android Market's
                                    search to find the application.
I WANT YOU (SHE'S SO HEAVY)
As recorded by The Beatles
(From the 1969 Album ABBEY ROAD)

Words and Music by John Lennon & Paul McCartney 
Gtr I (E A D G B E) - 'John Lennon - dist electric'
Gtr II (E A D G B E) - 'George Harrison - dist electric'
Gtr III (D A D G B E) - 'overdubs (see below)'
Gtr III - as the outro gt. figures are repeated,
layers of overdubbed gtrs are added which double the Outro pattern.
During 5th repeat synths are added to end.

Intro
  Q.=54
 6/8
  Gtr II
                   ~
             |3|        |3-|
  Q.     Q   E S   Q   +E  S  e  E      +E
|----------------|--------------------------|
|--------------3s|=6---(6)-6s10-13pb15r(13)-|
|----------------|--------------------------|
|----------------|--------------------------|
|----------------|--------------------------|
|----------------|--------------------------|
|
| Gtr I
| E  E E E E E     E E  E     E  E       E
|--------1-------|------------1-------------|
|------3---3-----|------3--------3----------|
|----2-------2---|---2-------------------2--|
|-0--------------|-3------------------------|
|----------------|--------------------------|
|----------------|--------------------------|


   ~~~
   Q.     E  e  E    a      +Q     E  E      +E   e
|-----------------|-16b18==(16)r-----16pb18r(16)-13-|
|-12--------15-12-|---------------------------------|
|-----------------|---------------------------------|
|-----------------|---------------------------------|
|-----------------|---------------------------------|
|-----------------|---------------------------------|
|
|  E  E E E  E  E            E   E E  E       E   E
|---------1-------|-------------------1-------------|
|-------3---------|---------------------------3-----|
|-----1-----------|----------------1--------------1-|
|--2--------------|--------------3------------------|
|------------3--2-|----------1----------------------|
|-----------------|---------------------------------|


                              Verse 1
                            Q=58
                  2/4         4/4
  Gtrs II, III   Gtr I
            ~~~
                      |3|
   E  E  E  Q.     Q  E S E    E    +E  +T  T S e E. S S S S    +S
|----13-17-17----|----------||---------------------------------------|
|-14-14----18----|----------||---------------------------------------|
|-14-------14----|--------5-||-7b9==(7)r(7)p5---5------5-7-7b9==(7)r-|
|----------------|------7---||----------------7-5----7---------------|
|----------------|----------||---------------------------------------|
|----------------|----------||---------------------------------------|
|  E  Q     Q.
|
|                Gtr II
|  E  E  E  Q.     W           Q         s    s e H
|-----------1----|----------||---------------------------------------|
|--------2-------|----------||---------------------------------------|
|-----2----------|----------||---------------------------------------|
|----------------|----------||------------------5--------------------|
|--0-------------|----------||-----------7----7-7--------------------|
|----------------|----------||-----------5----5-5--------------------|


               ~
  T    +T  S E E a S     S Q       S S E
|------------------------------------------|
|------------------------------------------|
|-7pb9r(7)-5---5-5h7b7.5p5-------------5---|
|------------7-----------------------7-----|
|------------------------------------------|
|------------------------------------------|
|
| H                        s s s s Q
|------------------------------------------|
|------------------------------------------|
|------------------------------------------|
|--------------------------------5---------|
|--------------------------7-7-7-7---------|
|--------------------------5-5-5-5---------|


                                  |-3--|
  S    +S  +S     +S  +S     +S  +S  S S E.     S S S S    +S
|--------------------------------------------------------------|
|--------------------------------------------------------------|
|-7b9==(7)r(7)b9==(7)r(7)b9==(7)r(7)p5------------5-7-7b9==(7)-|
|--------------------------------------7--------7--------------|
|--------------------------------------------------------------|
|--------------------------------------------------------------|
|
| H                                      s  s e   Q
|--------------------------------------------------------------|
|--------------------------------------------------------------|
|--------------------------------------------------------------|
|----------------------------------------5--5-5----------------|
|----------------------------------------7--7-7----------------|
|----------------------------------------5--5-5----------------|


 5/4
             ~~
  T +T  S E  E E  S S E a  E E S S a    +E
|---------------------------------------------|
|---------------------------------------------|
|-7r(7)-5----5--------5-----------------------|
|---------7----7--5---5-5h=7-5----------------|
|-------------------7----------7-5------------|
|----------------------------------7b8==(7)rp=|
|
| Q          Q    Q        Q   Q
|---------------------------------------------|
|---------------------------------------------|
|------------9------------10------------------|
|-5---------10---12-------10------------------|
|-7---------10---12--------8------------------|
|-5----------8---10---------------------------|


 4/4
   E  E   Q         Q     S  S  E
|----------------------------------|
|----------------------------------|
|------------------------------10--|
|---------------------------12-(0)-|
|----------------------------------|
|-(5)------------------------------|
|
|                   PM|
|  E  S S S T T S S S S E Q
|----------------------------------|
|----------------------------------|
|---------5------------------------|
|-----5-5-5-------5----------------|
|-----7-7---7s5s7-------7----------|
|-------------------5-5------------|


   S      +T    T E Q     E.  S  S  s  S      +S
|-------------------------------------------------|
|-------------------------------10----------------|
|-12b14==(12)rp10---------------10-12-12b14==(12)-|
|----------------------------12-------------------|
|-------------------------------------------------|
|-------------------------------------------------|
|
|  Q                S S E H
|-----------------------5-------------------------|
|-----------------------6-------------------------|
|-----------------------5-------------------------|
|-------------------7-7-7-------------------------|
|-------------------5-5---------------------------|
|-------------------------------------------------|


              ~~
                            |---3----|
   T  +T   S  E  E  a      +T   +T   T  S Q         S  S  E
|-----------------------------------------------------------|
|--------------------------------------------------------10-|
|-12r(12)p10----10-12b14==(12)r(12)p10-------------------10-|
|------------12------------------------12-------------12----|
|-----------------------------------------------------------|
|-----------------------------------------------------------|
|
|  H                                      s s s T T S  S  E
|-----------------------------------------------------------|
|---------------------------------------------------6--6----|
|---------------------------------------------5-5------7----|
|-----------------------------------------7-7-7-5h7---------|
|-----------------------------------------5-5---------------|
|-----------------------------------------------------------|


   S      +S   +S       +S   +S       +S   +E    E.      S  s    S   S      +S
|-------------------------------------------------------------------------------|
|-12b13==(12)r(12)b13==(12)r(12)b13==(12)r(12)-----------------(10)-10-----(10)-|
|-12b14==(12)r(12)b14==(12)r(12)b14==(12)r(12)-------------10---12--12b14==(12)-|
|-------------------------------------------------------12----------------------|
|-------------------------------------------------------------------------------|
|-------------------------------------------------------------------------------|
|
|  e            E             E.               S S  S e     e        E
|-------------------------------------------------------------------------------|
|-------------------------------------------------------------------------------|
|------------------------------------------------5----6-------------------------|
|----------------------------------------------7-7--7-5-------------------------|
|--5-------------------------------------------5----5-7----(0)------------------|
|-----------------------------------------------------5-------------------------|


 5/4                                                4/4
                                           |--3--|
   T  +T   S  E  E  E  S  S  E  a   E   e  E  e  e   E S S  S  E S S S E Q
|--------------------------------------------------|---1---------1-1-1------|
|--------------------------------------------------|---3-3--3--3-3-3-3------|
|-12r(12)-10----10----------------(10)-------------|---1-1--1--1-1-1-1------|
|------------12----12-10----10-10h=12--10----------|------------------------|
|---------------------10-12---------------10-11-12-|------------------------|
|--------------------------------------------------|-0----------------------|
|
|                                          |--3--|
|  Q             Q     Q            Q      e  e  e   Q     +E.   S S S E Q
|--------------------------------------------------|-------------1-1-1------|
|--------------------------------------------------|-------------3-3-3------|
|--5-----------------------------------------------|-------------1-1-1------|
|--7-------------3-----5------------8--------------|------------------------|
|--5-------------3-----5------------8------5--6--7-|------------------------|
|-----------------------------------6--------------|-0-----(0)--------------|


  E S S  S  S S S S S E Q    E S S S S S S E  E S S E
|---1-1--1--1---1-1-1------|---1-1-1-1---1-1/---------||
|---3-3--3--3---3-3-3------|---3-3-3-3---3-3/---------||
|---1-1--1--1---1-1-1------|---1-1-1-1---1-1/-------5-||
|--------------------------|-----------2----------7---||
|-2-----------2------------|--------------------------||
|-0-----------0------------|-0------------------------||
|
| Q     +E.     S S S E Q    E S S S E   S E  E Q
|---------------1-1-1------|---1-1-1-1---1-1----------||
|---------------3-3-3------|---1-1-1-1---1-1----------||
|-1-----(1)-----1-1-1------|---1-1-1-1---1-1----------||
|--------------------------|--------------------------||
|-2-----(2)----------------|--------------------------||
|-0-----(0)----------------|-0------------------------||




 Verse 2
  E.   +S  +S     +T  +T  +E    E.   S S S S    +S
|----------------------------------------------------|
|----------------------------------------------------|
|-7b8==(7)r(7)b9==(7)r(7)-(7)----------5-7-7b9==(7)--|
|------------------------------------7---------------|
|----------------------------------------------------|
|----------------------------------------------------|
|
| Q         S      S       S  S E  E   Q
|----------------------------------------------------|
|-------------------------------5--------------------|
|-------------------------------5--------------------|
|-----------------(5)------5--5-5--------------------|
|----------(7)-------------7--7-7--------------------|
|----------------------------------------------------|


  T +T  S E  E  a    +T   T S Q            S S E
|------------------------------------------------|
|---------------7b8==(7)rp5----------------------|
|-7r(7)-5----5--7b9==(7)rp5--------------------5-|
|---------7-(0)-------------7----------------7---|
|------------------------------------------------|
|------------------------------------------------|
|
|                                   |-3-|
| Q          E.             S S S S T T T  E   E
|------------------------------------------------|
|------------------------------------------------|
|-------------------------------5----------------|
|-----------------------------5-5-5-5h7p5--------|
|---------------------------7-7-----------h7-----|
|------------------------------------------------|


  S    +S  +S     +S  +S  S    S  E   E   S S s S    +S
|---------------------------------------------------------|
|---------------------------------------------------------|
|-7b9==(7)r(7)b9==(7)r(7)p5-----------------5-7-7b9==(7)--|
|------------------------------7----------7---------------|
|---------------------------------------------------------|
|---------------------------------------------------------|
|
| Q                    E    a  S  S S S E   Q
|---------------------------------------------------------|
|---------------------------------------------------------|
|-------------------------------------5-------------------|
|-------------------------------------5-------------------|
|---------------------------5h(7)-5h7-7-7-----------------|
|---------------------------------------------------------|


 5/4                                          4/4
                                         ~~~~~~~~
  T +T  S E E E S S E a  E E a S S a    +E     Q   Q       Q   S  S  E
|--------------------------------------------|---------------------------|
|--------------------------------------------|---------------------------|
|-7r(7)-5---5-------5----5-------------------|----------------------10---|
|---------7---7-5---5-5h=7-5-----------------|-------------------12-(0)--|
|-----------------7----------6h7-5-----------|---------------------------|
|----------------------------------7b8==(7)r-|-5-------------------------|
|
| Q         Q   E   E    Q     Q               Q   S S S S E E Q
|--------------------------------------------|---------------------------|
|--------------------------------------------|---------5---5-------------|
|-----------5--------------------------------|-------5-5---5-------------|
|-5---------5---7---7---/7-------------------|-------5-5---5-------------|
|-7-------------5---5---/8-------------------|----/7-------7-------------|
|-5------------------------------------------|-----------5---------------|


   a      +T   +T   T  T  +e   Q               E.        S  S  S  S      +S
|----------------------------------------------------------------------------|
|-------------------------------------------------------------10-------------|
|-12b14==(12)r(12)p10--------------------------------------10-12-12b14==(12)-|
|---------------------12-(12)---------------------------12-------------------|
|----------------------------------------------------------------------------|
|----------------------------------------------------------------------------|
|
|                                                  PM|
|          Q                   S  S  a  S  S   S   s  e     Q
|----------------------------------------------------------------------------|
|----------------------------------------------------------------------------|
|-----------------------------10-10-12s14-----10-----------------------------|
|-----------------------------10-10-12s14-----10-----------------------------|
|-----------------------------------------(0)-----12-12----------------------|
|----------------------------------------------------------------------------|


                 |----------5-----------|
   S  +S   E  E  T  a      +T   +T   T  T  Q             S  S  E
|-----------------------------------------------------------------|
|---------------10------------------------------------------------|
|-12r(12)p10----10h12b14==(12)r(12)p10------------------------10--|
|------------12------------------------12------------------12-----|
|-----------------------------------------------------------------|
|-----------------------------------------------------------------|
|
|  H                                       S  S  S  T  T Q
|-----------------------------------------------------------------|
|-----------------------------------------------------------------|
|-----------------------------------------10-10-10----------------|
|-----------------------------------------10-10-10----------------|
|--------------------------------------------------12s10----------|
|-----------------------------------------------------------------|


   S      +S   +S       +S   +Q         E.          S  S  S  S      +S
|-----------------------------------------------------------------------|
|-12b13==(12)r(12)b13==(12)r(12)-------------------------10-10-----(10)-|
|-12b14==(12)r(12)b14==(12)r(12)----------------------10-12-12b14==(12)-|
|--------------------------------------------------12-------------------|
|-----------------------------------------------------------------------|
|-----------------------------------------------------------------------|
|
|  Q                          E   S  S  T  T  S  e     Q
|-----------------------------------------------------------------------|
|-----------------------------------------------------------------------|
|-----------------------------------10----------10----------------------|
|--------------------------------10-10-12s13s12-10----------------------|
|--------------------------------12-------------------------------------|
|-----------------------------------------------------------------------|


 5/4
                                             |--3--|
   a  +S   S  E  E   E    S   S  E  a  E  E  E  E  E
|-----------------------------------------------------|
|-----------------------------------------------------|
|-12r(12)-10----10--------------10----10-10-----------|
|------------12-----12---10-----10-10h12-10-----------|
|----------------------------12-------------10-11-11--|
|-----------------------------------------------------|
|
|                                            |--3--|
|      Q         E.    S  Q            Q     E  E  E
|-----------------------------------------------------|
|-----------------------------------------------------|
|------5-------------------------------7--------------|
|------7---------3--------5------------8--------------|
|------5---------3-----3-(3)-----------8-----5--6--7--|
|--------------------------------------6-----5--6--7--|


 4/4
  E S S S S S S S S E Q     E  S S S S S S S S E Q
|-------1-----3-3-3------|-----1-1-1-1---1-1-1------|
|---3-3-3-3---3-3-3------|-----3-3-3-3---3-3-3------|
|---1-1-1-1---1-1-1------|-(1)-1-1-1-1---1-1-1------|
|------------------------|--------------------------|
|-----------2------------|--2----------2------------|
|-0---------0------------|--0-----------------------|
|
| Q     S S S S S S E Q     E  s s S S S S S S E Q
|-------1-1---1-1-1------|---------------1-1-1------|
|-------3-3---3-3-3------|---------0-0---3-3-3------|
|-------1-1---1-1-1------|-----1-1-1-1---1-1-1------|
|------------------------|-----2-2-2-2--------------|
|------------------------|--2----------2------------|
|-0---------0------------|--0----------0------------|


   E  S S S S S S e  e  Q
|-----1---1-------1-(1)-----||
|-(3)-3-3---3-3---3---------||
|-----1---------1-1---------||
|---------------------------||
|---------------------------||
|--0------------------------||
|
|  E  S S S s S S E  E  Q
|-----------------1---------||
|-----0---0---0-0-3---------||
|-----1-1-1-1-1-1-1---------||
|---------------------------||
|-----2-2---------2---------||
|--0------------------------||


 Chorus
  Slower Q.=48
 6/8
  Gtrs I, II
  E E E E E E   E E E E E E   E E E E E E   E E E E E E   E E E E E E
|-------1-----|-------1-----|-------1-----|-------1-----|-------1-----|
|-----3---3---|-----3---3---|-----3-------|-----3---3---|-----2---2---|
|---2-------2-|---2-------2-|---1---------|-----------1-|---2-------2-|
|-0-----------|-3-----------|-2-----------|---3---------|-------------|
|-------------|-------------|---------3-2-|-1-----------|-0-----------|
|-------------|-------------|-------------|-------------|-------------|


  E E E E E E   E E E E E E   E E E E E E
|-------1-----|-------1-----|-------1-----|
|-----3---3---|-----3---3---|-----3-------|
|---2-------2-|---2---------|---1---------|
|-0-----------|-3---------3-|-2-----------|
|-------------|-------------|---------3-2-|
|-------------|-------------|-------------|


                             2/4
                                      Gtr I
  E E E E E E   E E E  Q.     +E. S S  a S  E
|-------1-----|--------1----|-(1)--------------||
|-----3---3---|-----2-(2)---|-(2)p0---------5--||
|-----------1-|---2---------|----------5s7-(7)-||
|---3---------|-------------|------------------||
|-1-----------|-0-----------|------------------||
|-------------|-------------|------------------||


 Instrumental  Break
  Double Time Q=112
 4/4
  Gtr I
  +Q      +E  +S     +S  +E       +Q       +S  +S
|--------------------------------------------------|
|--------------------------------------------------|
|-(7)b9===(7)r(7)b9==(7)r(7)b7.5==(7)b9====(7)r(7)p|
|--------------------------------------------------|
|--------------------------------------------------|
|--------------------------------------------------|
|
| Gtr II
|  Q       e   e          e        e     e  e
|--------------------------------------------------|
|----------5---5-------------------5-----5--5------|
|----------5---5-------------------5-----5--5------|
|----------7---7-------------------6-----6--6------|
|--------------------------------------------------|
|--------------------------------------------------|


                                    |3-|             |---3---|
  E E  E  a  E   E  E E    +E    E +E  S Q  Q  a    +E   E   E
|------------------------------|---------------------------------|
|------------------------------|---------------------------------|
|-5--------------5--7-7b9==(7)-|-7r(7)-5----5--7b9==(7)rp5-------|
|---7-----5s=7-----------------|---------7-------------------7---|
|-----(7)----------------------|---------------------------------|
|------------------------------|---------------------------------|
|
| Q    E     E   Q    Q          H          Q        E     S   S
|------------------------------|---------------------------------|
|-5----x-----------------------|---------------------x---------5-|
|-5----x-----------------------|---------------------x---------5-|
|-5----x--------(5)------------|---------------------x-----------|
|----------------5-------------|---------------------------------|
|-----------(7)----------------|---------------------------------|


  H        E a E Q    E    +E  +E     +E  +E     +E    +S  S E
|-------------------|------------------------------------------|
|-------------------|------------------------------------------|
|----------------5--|-7b9==(7)r(7)b9==(7)r(7)b9==(7)r==(7)p5---|
|------------5s7----|----------------------------------------7-|
|-------------------|------------------------------------------|
|-------------------|------------------------------------------|
|
| S E. E e H          H                    Q         a  E    E
|-------------------|------------------------------------------|
|-------------------|------------------------------------------|
|---5--5------------|------------------------------------------|
|---5--5------------|------------------------------------------|
|------7------------|--------------------------------5s=7----7-|
|--------8----------|------------------------------------------|


                                            ~     ~~
   E a    +E   E e a E E E    +E    S +S  E Q  Q  Q
|---------------------------------|-------------------|
|-(5)-----------------------------|-------------------|
|--5h7b9==(7)rp5-----5-7-7b9==(7)-|-7r(7)------5------|
|----------------7----------------|-------7-7-----7p==|
|------------------x--------------|-------------------|
|---------------------------------|-------------------|
|
|  E       E   e e   H              H          Q  Q
|---------------------------------|-------------------|
|---------------------------------|-------------------|
|--5------------------------------|-------------------|
|--5------------------------------|-5----------5------|
|----------7----------------------|-7----------3------|
|--------------8-8----------------|-5-----------------|


                   2/4
                              ~~~~~~
  E E Q   a Q  Q    E E a    +Q
|-----------------|----------------|
|-----------------|----------------|
|-----------------|----------------|
|-5---5---5h7p=5--|----------------|
|---7-------------|-7-5------------|
|-----------------|-----7b8==(7)r--|
|
| Q   e e   H       Q         Q
|-----------------|----------------|
|-----------------|----------------|
|-----------------|----------------|
|-7---------------|-----------5----|
|-5---------8-----|----------------|
|-----8-8---8-----|----------------|


 4/4
 ~~~
  H           a S E S E     a     E     +q   Q  E   E   Q
|-------------------------------------|---------------------|
|---------------------------------5---|-(5)------------10---|
|---------------------5b5.5-5b6==(5)r-|-----------(10)-10---|
|-----------------5-7-----------------|------------12-------|
|-------------5s7---------------------|---------------------|
|-5-----------------------------------|---------------------|
|
| E a E E a E   Q     E           E     +Q   Q  H
|-------------------------------------|------0--------------|
|-------------------------------------|---------------------|
|-------5-7s8s==7---------------------|---------------------|
|-------5-7s8s==7---------------------|---------------------|
|---5h7---------------------------7---|-(7)-----------------|
|---------------------5-----------5---|-(5)-----------------|


                                            |-3--|
   Q         Q     a  +S   S  E  E  a      +E   +S
|---------------------------------------------------|
|-12b13.5===12----12r(12)-------10------------------|
|-12b14=====12----12r(12)p10h12----12b14==(12)r(12)p|
|---------------------------------------------------|
|---------------------------------------------------|
|---------------------------------------------------|
|
|  Q         E  E     +E      E  E          E
|---------------------------------------------------|
|--------------10----(10)-------10------------------|
|--------------10----(10)-------10------------------|
|--------------10----(10)-------10------------------|
|----------------------------12------------12-------|
|---------------------------------------------------|


                                                                  ~~
                                                                          |--3---|
   S  E.  +Q     E  E       a       E      +E      a      +E   E  Q   Q   E      S  E
|-----------------------------------------------|-------------------------------------|
|---------------10-----------------12b13==(12)r-|--------------------10---------------|
|-10h12--(12)---10-12b12.5-12pb13==12b14==(12)r-|-12pb14r(12)p10-----10--12pb14p10h12-|
|----12--(12)-----------------------------------|----------------12----------------12-|
|-----------------------------------------------|-------------------------------------|
|-----------------------------------------------|-------------------------------------|
|
|  Q       e  E  H                                         W
|-----------------------------------------------|-------------------------------------|
|-----------------------------------------------|-------------------------------------|
|-10--------------------------------------------|-------------------------------------|
|-10------10--x---------------------------------|-------------------------------------|
|---------12--x---------------------------------|-------------------------------------|
|-----------------------------------------------|-------------------------------------|


  H         E   E   Q
|----------------------|
|------------------10--|
|-------------(12)-10--|
|--------------12------|
|----------------------|
|----------------------|
|
| E  E  Q   H
|----------------------|
|----------------------|
|---10-10--------------|
|---11-10--10----------|
|----------12----------|
|----------------------|

   S      +S   +S       +S   +S       +S   +S       +S   +Q              Q
|-----------------------------------------------------------------------------|
|-12b13==(12)r(12)b13==(12)r(12)b13==(12)r(12)b13==(12)-(12)r\----------------|
|-12b14==(12)r(12)b14==(12)r(12)b14==(12)r(12)b14==(12)-(12)r\----------------|
|-----------------------------------------------------------------------------|
|-----------------------------------------------------------------------------|
|-----------------------------------------------------------------------------|
|
| H                                                      E     S  S  a  E  E
|-----------------------------------------------------------------------------|
|-----------------------------------------------------------------------------|
|-----------------------------------------------------------------10----------|
|-----------------------------------------------------------------10----------|
|--------------------------------------------------------10s===12----12s10s12-|
|-----------------------------------------------------------------------------|


   Q     E   E   E  e  E      +E
|---------------------------------|
|---------------10----12b13==(12)-|
|----------(12)-10-12-12b14==(12)-|
|-----------12--------------------|
|---------------------------------|
|---------------------------------|
|
|  E  E  q       Q     q
|---------------------------------|
|---------------------------------|
|-------10------------------------|
|-------10------------12----------|
|-12------------------------------|
|----10---------------------------|


                      ~~
   S  +S   E  Q   Q   Q     E  E  Q   a  Q   Q
|------------------------|----------------------|
|-12r(12)p10-----10------|----------------------|
|-12r(12)p10-----10--12--|-10----10--10h12------|
|------------12------12--|-10----10--10h12--10--|
|------------------------|----12----------------|
|------------------------|----------------------|
|
|  H              H         Q     Q      Q   q
|------------------------|----------------------|
|------------------------|----------------------|
|------------------------|-10-------------------|
|----------------10------|-10------------8------|
|-12--------------8------|-10------------8---8--|
|-10---------------------|---------------6------|


                Half Time Q=58
 2/4             4/4
   |----3-----|
   Q  E  +E   Q   E S S S E S S S S  T T +E  E
|---------------|-------1-1---3-3-3/------------|
|---------------|---3-3-3-3-3-3-3-3/---0-(0)----|
|---------------|---1-1-1-1-1-1-1-1/------------|
|---------------|-------------------------------|
|-10-11-(11)-12-|-------------------------------|
|---------------|-0-----------------------------|
|
|             PM
|  |----3-----|
|  Q  E   E   Q   Q     S E S S S E       Q
|---------------|-------1-1---1-1---------------|
|---------------|-------3-3-3-3-3---------------|
|---------------|-------1-1-1-1-1---------------|
|---------------|-------------------------------|
|--5--6s==7-----|-------------------------------|
|--5--6s==7---0-|-------------------------------|


  E S S S S S S S S E Q    E S S S S S S E      E Q
|-------3-3---1-1-1------|---1---3-3-3---1/----------||
|---3-3-3-3---3-3-3------|---3-3-3-3-3---3/----------||
|---1-1-1-1-1-1-1-1------|---1-1-1-1-1-1-1/----------||
|------------------------|---------------2/----------||
|---2-2-----2------------|-------------2-------------||
|-0---------0------------|-0-------------------------||
|
| E S S S E   S S S E Q    E S S S S S S S   S  E Q
|---1-1-1-1---1---1------|-----3-1-1-1-1-1-----------||
|---3-3-3-3---3---3------|---3---3-3-3-3-3--(3)------||
|---1-1-1-1-----1--------|---1---1-1-1-1-1--(1)------||
|------------------------|---------------------------||
|------------------------|---------------------------||
|-0----------------------|-0-------------------------||


   Chorus
    Slower Q.=68                                           1.
   6/8
    Gtrs I, II
    E E E E E E   E E E E E E   E E E E E E   E E E E E E   E E E E E E
||--------1-----|-------1-----|-------1-----|-------1-----|-------1------||
||o-----3---3---|-----3---3---|-----3-------|-----3-------|-----2-------o||
||----2-------2-|---2-------2-|---1---------|---------1---|---2-----2----||
||--0-----------|-3-----------|-2-----------|---3-------3-|-----------0--||
||o-------------|-------------|---------3-2-|-1-----------|-0-----------o||
||--------------|-------------|-------------|-------------|--------------||


  2.
                                2/4
  E E E E E E   E E E  Q   +E    +E  E S S  E
|-------1-----|--------1---(1)-|-(1)p0---------||
|---------3---|-------(2)--(2)-|-(2)-----------||
|-----1-----1-|---2-2----------|------------5--||
|---3---------|----------------|---------7-(0)-||
|-1-----------|-0--------------|---------------||
|-------------|----------------|---------------||


 Verse 3
  Double Time Q=116
 4/4
  Gtr I
        |--3---|
  a    +S  +S  S E Q  H           Q  E  E  E E E    +E
|-------------------------------|-----------------------|
|-------------------------------|----------5------------|
|-7b9==(7)r(7)p5----------------|------(5)-5-7-7b9==(7)-|
|----------------7--------------|-------7---------------|
|-------------------------------|-----------------------|
|-------------------------------|-----------------------|
|
| Gtr II
|       H             E  E  E E   Q  E  E  H
|-------------------------------|-----------------------|
|-------------------------------|-----------------------|
|---------------------------5-5-|-5--5------------------|
|-------------------------------|----5------------------|
|-----------------------(7)-----|----7------------------|
|-------------------------------|----5------------------|


  a +E  E Q  Q  a    +S   S E   E S S E     E Q        Q
|-----------------------------|------------------------------|
|-----------------------------|-7-5--------------------------|
|-7r(7)p5----5--7b9==(7)rp5---|-------5b5.5-x----------7-----|
|---------7-----------------7-|-----7------------------------|
|-----------------------------|------------------------------|
|-----------------------------|------------------------------|
|
|    W                          E E   E     E S S S S +E  E
|-----------------------------|------------------------------|
|-----------------------------|-------5----------------------|
|-----------------------------|---5---5-----5-7s8------------|
|-----------------------------|---5---------5-7s8---5-(5)----|
|-----------------------------|-7----------------------------|
|-----------------------------|-5----------------------------|


            |----3-----|
  S    +S  +S     +S  +S   S  S  E  H
|-------------------------------------------|
|-------------------------------------------|
|-7b9==(7)r(7)b9==(7)r(7)p=5----------------|
|-----------------------------7-------------|
|-------------------------------------------|
|-------------------------------------------|
|
| Q                        E     E  E E E E
|-------------------------------------------|
|-------------------------------------------|
|--------------------------5-----5------5-5-|
|--------------------------5-----5------5-5-|
|-------------------------(7)---(7)---7-----|
|-------------------------------------5-----|


  Q   E E E E E    +E    a +E  E Q   Q   Q    E E Q  a   Q   Q
|----------------------|--------------------|-------------------|
|---------5-7-7b8==(7)-|-7r(7)p5----(5)-----|-------------------|
|---------5-7-7b9==(7)-|-7r(7)p5-----5------|-5---5-------------|
|-------7--------------|---------7-------7--|-5---5--5h==7---5--|
|----------------------|--------------------|---7---------------|
|----------------------|--------------------|-------------------|
|
| Q.    E H                 Q    Q   H        H          H
|----------------------|--------------------|-------------------|
|----------------------|--------------------|-------------------|
|-5--------------------|---------5---5------|----------(10)-----|
|-5--------------------|----7----7---5------|-7---------10------|
|-7--------------------|----7--------3------|-5----------8------|
|----------------------|----5---------------|-------------------|


 2/4              4/4
                   ~                                 ~~
  E E a    +Q      H      a S E S E E   H      E  E  Q
|----------------|--------------------|-----------------|
|----------------|--------------------|-----------------|
|----------------|----------------5-5-|-------------10--|
|----------------|------------5h7-----|----------12-----|
|-7-5------------|--------5s7---0-----|-----------------|
|-----7b8==(7)r--|-5------------------|-----------------|
|
| E E       Q      Q  e E a S E.  E E   e E Q  H
|----------------|--------------------|-----------------|
|----------------|--------------------|-----------------|
|----------(5)---|----5-5-------------|-----------------|
|-----------5----|----5-5-7h8p7---5---|-5---------------|
|-7-7------------|------------------7-|-----------------|
|----------------|--------------------|-----------------|


           |-3--|
   E      +E   +S   S  S E  H
|-----------------------------------------|
|-----------------------------------------|
|-12b14==(12)r(12)p10---------------------|
|---------------------12------------------|
|-----------------------------------------|
|-----------------------------------------|
|
|  Q                Q       E  E  E  S  S
|-----------------------------------------|
|-----------------------------------------|
|-10-----------------------10-10-10-10----|
|-10-----------------------10-10-10-10h12-|
|-----------------------------------------|
|-----------------------------------------|


   E  Q        E   E  e  E      +E     a  +E   E  Q   Q   Q
|-----------------------------------|-----------------------------|
|-----------------10----------------|-----------------------------|
|-----------------10-12-12b14==(12)-|-12r(12)p10-----10-----------|
|----12-------12--------------------|------------12---------------|
|-----------------------------------|-----------------------------|
|-----------------------------------|-----------------------------|
|
|  Q      E    E   H                       H          Q   S  S  E
|-----------------------------------|-----------------------------|
|-----------------------------------|-----------------------------|
|-10----(10)-(10)-------------------|--------------------------10-|
|-10-----10---10--------------------|--------------------------10-|
|--------12---12--------------------|--------------------10s12----|
|-----------------------------------|-----------------------------|


      H              E  E     Q     E      +E   +E       +E    E e Q
|--------------------------------|-------------------------------------------|
|----------------------------10--|-12b13==(12)r(12)b13==(12)r-12S3-----------|
|----------------------------10--|-12b14==(12)r(12)b14==(12)r----------------|
|----------------------12--------|-------------------------------------------|
|--------------------------------|-------------------------------------------|
|--------------------------------|-------------------------------------------|
|
|  a  E  E  E  e  a  E  S  S  Q     H                          Q   E   S   S
|--------------------------------|-------------------------------------------|
|--------------------------------|-------------------------------------------|
|----------10----12s13-------10--|----------------------------------------10-|
|----------10----12s13-12-10-10--|-----------------------------------(12)-10-|
|-12s10s12-----------------------|-------------------------------------------|
|-------------10-----------------|-------------------------------------------|


  Q        E  E  E  e  E      +E     E   S  S  Q     Q   Q
|---------------------------------|-------------------------|
|---------------10----12b13==(12)-|-12r---------------------|
|------------10-10-12-12b14==(12)-|-12r-12p10-------10------|
|------------12-------------------|-----------12----10--12--|
|---------------------------------|-------------------------|
|---------------------------------|-------------------------|
|
| S  S  E  E  E  H                   Q         E  E  Q   Q
|---------------------------------|-------------------------|
|---------------------------------|-------------------------|
|---10----10----------------------|-----------------10------|
|---10----10----------------------|-12--------12-10-10------|
|---------------------------------|-12--------12-----8------|
|------10-------------------------|-10--------10------------|


                           2/4
                             |----3-----|
   E  E  Q      a  Q   Q     Q  E  +E   Q
|-------------------------|----------------|
|-------------------------|----------------|
|-10----10--------10--10--|----------------|
|-10----10-----10h12--10--|----------------|
|----12-------------------|-10-11-(11)-12--|
|-------------------------|----------------|
|
|                            |----3-----|
|  Q     E a E     Q   Q     Q  E  +E   Q
|-------------------------|----------------|
|-------------------------|----------------|
|--9----------------------|----------------|
|-10----------------------|----------------|
|-10---------------8------|--5--6--(6)--7--|
|--8-----8-8s6-----6------|----------------|


  Half Time Feel Q=58
 4/4
   E  S S S E S S S E  Q    E. S S S S S S S E Q    E S S S E S E E   Q
|---------------1---1/----|----1-1-1-1-1-1-1------|---1-1-1-1---1---------||
|---------3-3---3-3-3/----|----3-3-3-3-3-3-3------|---3-3-3-3-3-3---------||
|-----1-1-1-1---1-1-1/----|----1-1-1-1-1-1-1------|---1-1-1-1-1-1---------||
|-------------------------|-----------------------|-----------------------||
|-(0)-2-2-2-2-2-----------|-----------------------|-2---------------------||
|--0----------0-----------|-0---------------------|-0---------------------||
|
|  Q      S E S S S E  Q    Q    S S S S S S E Q    E S S S E S E.  S Q
|-------------1-1-1-------|------1-1-1-1-1-1------|-----------1-1---------||
|---------3-3-3-3-3-------|------3-3-3-3-3-3------|---3-3-3-3-3-3---------||
|---------1-1---1-1-------|------1-1-1-1-1-1------|---1-1-1-1---1s==4-----||
|-------------------------|-----------------------|-----------------------||
|-------------------------|-----------------------|-2---------------------||
|-------------------------|-0---------------------|-0---------------------||


   Outro
    Slower Q.=48
   6/8
    Gtrs I, II
    E  E E E  E E   E  E E E E E   E  E E  E  E E
||---------1------|--------1-----|---------1------|
||o------3----3---|------3---3---|------3---------|
||-----2--------2-|----2-------2-|----1-----------|
||--0-------------|-3------------|-2--------------|
||o---------------|--------------|------------3-2-|
||----------------|--------------|----------------|
|
|   Gtr III
|   Q.     Q.       Q.     Q   E   Q.     +E  E E
||----------------|--------------|----------------|
||o---------------|--------------|----------------|
||----------------|--------------|----------------|
||----------------|--------------|----------------|
||o---------------|------------0-|------------3-2-|
||--0------2------|-3------5-----|-2------(2)-----|


  E  E E  E  E E   E  E E  E  E E 14x
|---------1------|---------1-------||
|------3-----3---|------------1---o||
|------1-------1-|----2-2-------2--||
|----3-----------|----2------------||
|-1--------------|-0--------------o||
|----------------|-----------------||
|
| Q.     +E  E E   Q.     +E  E E 14x
|----------------|-----------------||
|----------------|----------------o||
|----------------|-----------------||
|--------------0-|-----------------||
|-1------(1)-3---|-0------(0)-----o||
|----------------|------------3-2--||


  E  E E E  E E   E  E E E E E   E  E E  E  E E   E  E E  E  E E   Q  E Q.
|--------1------|--------1-----|---------1------|---------1------|------------*|
|------3----3---|------3---3---|------3---------|------3-----3---|-2----------*|
|----2--------2-|----2-------2-|----1-----------|------1-------1-|-2----------*|
|-0-------------|-3------------|-2--------------|----3-----------|-2----------*|
|---------------|--------------|------------3-2-|-1--------------|-0----------*|
|---------------|--------------|----------------|----------------|------------*|
|
| Q.     Q.       Q.     Q   E   Q.     +E  E E   Q.     +E  E E   Q  E Q.
|---------------|--------------|----------------|----------------|------------*|
|---------------|--------------|----------------|----------------|------------*|
|---------------|--------------|----------------|----------------|------------*|
|---------------|--------------|----------------|--------------0-|------------*|
|---------------|------------0-|------------3-2-|-1------(1)-3---|-0----------*|
|-0------2------|-3------5-----|-2------(2)-----|----------------|------------*|
comments
print report bad tab
6 comments total. Showing first comments.
0 reply
nirvana4lf wrote on July 4 2005, 12:00 am

really good tab! five stars!

0 reply
lessthanjeff420 wrote on August 22 2005, 12:00 am

awesome song, awesome tab

0 reply
rayIII wrote on April 23 2006, 03:07 pm

sweet!! nice tab man

I want to post or [tab]
guest
You may want to rate the tab now too:
select rating
Please do not post tabs as comments. Select "correction" instead!