Oops, an error
Loading. Please wait.

Ill Be Back Tab

ver1
ver1

Whole song

Interactive

More versions @911Tabs.com
20,846 views 19 this week
2 commentsread comments
1 2 3 4 5
excellent!
x 10
Autoscroll
+/-
esc
set tempo
stop
Contributor
WARNING: You are trying to view
                                    content from Ultimate-Guitar.com
                                    in an unauthorized application,
                                    which is prohibited.

                                    Please use an official Ultimate
                                    Guitar Tabs application for iPhone,
                                    iPad or Android to access legitimate
                                    chords, guitar, bass, and drum tabs
                                    from Ultimate-Guitar.com database.

                                    Type "ultimate guitar tabs" in Apple
                                    App Store's or Android Market's
                                    search to find the application.
------------------------------------------------------------------------
  THE BEATLES - I'LL BE BACK (Lennon/McCartney) From A HARD DAY'S NIGHT
                album. Released on 20th March 1964.
------------------------------------------------------------------------
  Tabbed by:PJVillanueva



You know, if you break my heart I'll Go.
But I'll Be Back again.
Cause I, told you once before goodbye.
But I came back again.
I love you so, I'm the one who wants you
yes I'm the one who wants you Oh-ho Oh-ho
You, could find better things to do
Than to break my heart again.
This time, I will try to show that I'm
Not trying to pretend
I, thought that you would realize
That if I ran away from you
Then you would want me too
But I got a big surprise Oh-h Oh-h
You, could find better things to do
Than to break my heart again.
This time, I will try to show that I'm
Not trying to pretend
I want to go, but I hate to leave you
Ya' know I hate to leave you Oh-ho Oh-ho
You, if you break my heart I'll go
But I'll be back again


                                                              A
e|------- ------- ------- -------|------- ------- ------- ----0--|
B|-------------------------------|------------------------5---2--|
G|-------------------------------|--------------------4-------2--|
D|-------------------------------|----------------4-----------2--|
A|-------------------------------|----------------------------0--|
E|-------------------------------|-------------------------------|




e|0------ 0------ 0---0-- 0---0--|0------ 0------ 0---0-- 0---0--|
B|2-------2-------2---2---2---2--|2-------2-------2---2---2---1--|
G|2-------2-------2---2---2---2--|2-------2-------2---2---2---2--|
D|2-------2-------2---2---2---2--|2-------2-------2---2---2---2--|
A|0-------0-------0---0---0---0--|0-------0-------0---0---0---0--|
E|-------------------------------|-------------------------------|
                                                          You know
e|------- ------- ------- -------|------- ------- ------- ----0--|
B|-------------------------------|------------------------5---1--|
G|-------------------------------|--------------------4-------2--|
D|-------------------------------|----------------4-----------2--|
A|-------------------------------|----------------------------0--|
E|-------------------------------|-------------------------------|


  Am                              G
e|0------ 0------ 0---0-- 0---0--|3------ 3------ 3---3-- 3---3--|
B|1-------1-------1---1---1---1--|3-------3-------3---3---3---3--|
G|2-------2-------2---2---2---2--|0-------0-------0---0---0---0--|
D|2-------2-------2---2---2---2--|0-------0-------0---0---0---0--|
A|0-------0-------0---0---0---0--|2-------2-------2---2---2---2--|
E|-------------------------------|3-------3-------3---3---3---3--|
                          If you  break   my      heart   I'll go

  F                                E
e|0------ 0------ 0---0-- 0---0--|0------ 0------ 0---0-- 0---0--|
B|0-------0-------0---0---0---0--|0-------0-------0---0---0---0--|
G|2-------2-------2---2---2---2--|1-------1-------1---1---1---1--|
D|3-------3-------3---3---3---3--|2-------2-------2---2---2---2--|
A|3-------3-------3---3---3---3--|2-------2-------2---2---2---2--|
E|1-------1-------1---1---1---1--|0-------0-------0---0---0---0--|
                              But I'll    be      back a......gain

  A
e|0------ 0------ 0---0-- 0---0--|0------ 0------ 0---0-- 0------|
B|2-------2-------2---2---2---2--|2-------2-------2---2---2------|
G|2-------2-------2---2---2---2--|2-------2-------2---2---2------|
D|2-------2-------2---2---2---2--|2-------2-------2---2---2------|
A|0-------0-------0---0---0---0--|0-------0-------0---0---0------|
E|-------------------------------|-------------------------------|
                                                          'cause I
e|------- ------- ------- ----0--|------- ------- ------- -------|
B|------------------------5---2--|-------------------------------|
G|--------------------4-------2--|-------------------------------|
D|----------------4-----------2--|-------------------------------|
A|----------------------------0--|-------------------------------|
E|-------------------------------|-------------------------------|



  Am                              G
e|0------ 0------ 0---0-- 0---0--|3------ 3------ 3---3-- 3---3--|
B|1-------1-------1---1---1---1--|3-------3-------3---3---3---3--|
G|2-------2-------2---2---2---2--|0-------0-------0---0---0---0--|
D|2-------2-------2---2---2---2--|0-------0-------0---0---0---0--|
A|0-------0-------0---0---0---0--|2-------2-------2---2---2---2--|
E|-------------------------------|3-------3-------3---3---3---3--|
                          told you once   before          goodbye


  F-5maj7                         E
e|0------ 0------ 0---0-- 0---0--|0------ 0------ 0---0-- 0---0--|
B|0-------0-------0---0---0---0--|0-------0-------0---0---0---0--|
G|2-------2-------2---2---2---2--|1-------1-------1---1---1---1--|
D|3-------3-------3---3---3---3--|2-------2-------2---2---2---2--|
A|3-------3-------3---3---3---3--|2-------2-------2---2---2---2--|
E|1-------1-------1---1---1---1--|0-------0-------0---0---0---0--|
                              But I       came    back a......gain
e|0----0- --0---- 0----0- --0----|0------ ------- ------- -------|
B|0----0----0-----0----0----0----|0------------------------------|
G|2----2----2-----2----2----2----|1------------------------------|
D|3----3----3-----3----3----3----|2------------------------------|
A|3----3----3-----3----3----3----|2------------------------------|
E|1----1----1-----1----1----1----|0------------------------------|




  A
e|0------ 0------ 0---0-- 0---0--|0------ 0------ 0---0-- 0---0--|
B|2-------2-------2---2---2---2--|2-------2-------2---2---2---2--|
G|2-------2-------2---2---2---2--|2-------2-------2---2---2---2--|
D|2-------2-------2---2---2---2--|2-------2-------2---2---2---2--|
A|0-------0-------0---0---0---0--|0-------0-------0---0---0---0--|
E|-------------------------------|-------------------------------|
                                                  I love  you so
e|------- ------- ------- ----0--|------- ------- ------- -------|
B|------------------------5---2--|-------------------------------|
G|--------------------4-------2--|-------------------------------|
D|----------------4-----------2--|-------------------------------|
A|----------------------------0--|-------------------------------|
E|-------------------------------|-------------------------------|



  F#m
e|2------ 2------ 2---2-- 2---2--|2------ 2------ 2---2-- 2---2--|
B|2-------2-------2---2---2---2--|2-------2-------2---2---2---2--|
G|2-------2-------2---2---2---2--|2-------2-------2---2---2---2--|
D|4-------4-------4---4---4---4--|4-------4-------4---4---4---4--|
A|4-------4-------4---4---4---4--|4-------4-------4---4---4---4--|
E|2-------2-------2---2---2---2--|2-------2-------2---2---2---2--|
                                                  I'm the one who
e|2------ ------- ------- -------|2------ ------- ------- -------|
B|2------------------------------|2------------------------------|
G|2------------------------------|2------------------------------|
D|4------------------------------|4------------------------------|
A|4------------------------------|4------------------------------|
E|2------------------------------|2------------------------------|




  Bm
e|2------ 2------ 2---2-- 2---2--|2------ 2------ 2---2-- 2---2--|
B|3-------3-------3---3---3---3--|3-------3-------3---3---3---3--|
G|4-------4-------4---4---4---4--|4-------4-------4---4---4---4--|
D|4-------4-------4---4---4---4--|4-------4-------4---4---4---4--|
A|2-------2-------2---2---2---2--|2-------2-------2---2---2---2--|
E|-------------------------------|-------------------------------|
  wants   you                                 yes I'm the one who
e|2------ ------- ------- -------|2------ ------- ------- -------|
B|3------------------------------|3------------------------------|
G|4------------------------------|4------------------------------|
D|4------------------------------|4------------------------------|
A|2------------------------------|2------------------------------|
E|-------------------------------|-------------------------------|



  E               D           E                   D           E
e|0------ 0------ 2---2-- 2---0--|------- 0------ 2---2-- 2---0--|
B|0-------0-------3---3---3---0--|--------0-------3---3---3---0--|
G|1-------1-------2---2---2---1--|--------1-------2---2---2---1--|
D|2-------2-------0---0---0---2--|--------2-------0---0---0---2--|
A|2-------2-------------------2--|--------2-------------------2--|
E|0-------0-------------------0--|--------0-------------------0--|
  wants   you     Oh          ho                  Oh          ho
e|0------ ------- ------- ----0--|------- ------- ------- 0------|
B|0---------------------------0--|------------------------0------|
G|1---------------------------1--|------------------------1------|
D|2---------------------------2--|------------------------2------|
A|2---------------------------2--|------------------------2------|
E|0---------------------------0--|------------------------0------|




e|------- 0------|
B|--------0------|
G|--------1------|
D|--------2------|
A|--------2------|
E|--------0------|
                  

  Am                              G
e|0------ 0------ 0---0-- 0---0--|3------ 3------ 3---3-- 3---3--|
B|1-------1-------1---1---1---1--|3-------3-------3---3---3---3--|
G|2-------2-------2---2---2---2--|0-------0-------0---0---0---0--|
D|2-------2-------2---2---2---2--|0-------0-------0---0---0---0--|
A|0-------0-------0---0---0---0--|2-------2-------2---2---2---2--|
E|-------------------------------|3-------3-------3---3---3---3--|
  You                    could find better        things  to  do
e|0------ ------- ------- -------|3------ ------- ------- -------|
B|1------------------------------|3------------------------------|
G|2------------------------------|4------------------------------|
D|2------------------------------|5------------------------------|
A|0------------------------------|5------------------------------|
E|-------------------------------|3------------------------------|



  F-5maj7                         E
e|0------ 0------ 0---0-- 0---0--|0------ 0------ 0---0-- 0---0--|
B|0-------0-------0---0---0---0--|0-------0-------0---0---0---0--|
G|2-------2-------2---2---2---2--|1-------1-------1---1---1---1--|
D|3-------3-------3---3---3---3--|2-------2-------2---2---2---2--|
A|3-------3-------3---3---3---3--|2-------2-------2---2---2---2--|
E|1-------1-------1---1---1---1--|0-------0-------0---0---0---0--|
                          than to break   my      heart   a...gain
e|0----0- --0---- 0----0- --0----|0------ ------- ------- -------|
B|0----0----0-----0----0----0----|0------------------------------|
G|2----2----2-----2----2----2----|1------------------------------|
D|3----3----3-----3----3----3----|2------------------------------|
A|3----3----3-----3----3----3----|2------------------------------|
E|1----1----1-----1----1----1----|0------------------------------|



  A
e|0------ 0------ 0---0-- 0---0--|0------ 0------ 0---0-- 0---0--|
B|2-------2-------2---2---2---2--|2-------2-------2---2---2---2--|
G|2-------2-------2---2---2---2--|2-------2-------2---2---2---2--|
D|2-------2-------2---2---2---2--|2-------2-------2---2---2---2--|
A|0-------0-------0---0---0---0--|0-------0-------0---0---0---0--|
E|-------------------------------|-------------------------------|
                                                          This time
e|------- ------- ------- ----0--|------- ------- ------- -------|
B|------------------------5---2--|-------------------------------|
G|--------------------4-------2--|-------------------------------|
D|----------------4-----------2--|-------------------------------|
A|----------------------------0--|-------------------------------|
E|-------------------------------|-------------------------------|



  Am                              G
e|0------ 0------ 0---0-- 0---0--|3------ 3------ 3---3-- 3---3--|
B|1-------1-------1---1---1---1--|3-------3-------3---3---3---3--|
G|2-------2-------2---2---2---2--|0-------0-------0---0---0---0--|
D|2-------2-------2---2---2---2--|0-------0-------0---0---0---0--|
A|0-------0-------0---0---0---0--|2-------2-------2---2---2---2--|
E|-------------------------------|3-------3-------3---3---3---3--|
                          I will  try     to      show    that I'm
e|0------ ------- ------- -------|3------ ------- ------- -------|
B|1------------------------------|3------------------------------|
G|2------------------------------|4------------------------------|
D|2------------------------------|5------------------------------|
A|0------------------------------|5------------------------------|
E|-------------------------------|3------------------------------|



  F-5maj7                         E
e|0------ 0------ 0---0-- 0---0--|0------ 0------ 0---0-- 0---0--|
B|0-------0-------0---0---0---0--|0-------0-------0---0---0---0--|
G|2-------2-------2---2---2---2--|1-------1-------1---1---1---1--|
D|3-------3-------3---3---3---3--|2-------2-------2---2---2---2--|
A|3-------3-------3---3---3---3--|2-------2-------2---2---2---2--|
E|1-------1-------1---1---1---1--|0-------0-------0---0---0---0--|
                              not trying          to pre......tend
e|0----0- --0---- 0----0- --0----|0------ ------- ------- -------|
B|0----0----0-----0----0----0----|0------------------------------|
G|2----2----2-----2----2----2----|1------------------------------|
D|3----3----3-----3----3----3----|2------------------------------|
A|3----3----3-----3----3----3----|2------------------------------|
E|1----1----1-----1----1----1----|0------------------------------|



  A
e|0------ 0------ 0---0-- 0---0--|0------ 0------ 0---0-- 0---0--|
B|2-------2-------2---2---2---2--|2-------2-------2---2---2---2--|
G|2-------2-------2---2---2---2--|2-------2-------2---2---2---2--|
D|2-------2-------2---2---2---2--|2-------2-------2---2---2---2--|
A|0-------0-------0---0---0---0--|0-------0-------0---0---0---0--|
E|-------------------------------|-------------------------------|

e|------- ------- ------- ----0--|------- ------- ------- -------|
B|------------------------5---2--|-------------------------------|
G|--------------------4-------2--|-------------------------------|
D|----------------4-----------2--|-------------------------------|
A|----------------------------0--|-------------------------------|
E|-------------------------------|-------------------------------|



  Bm               
e|2------ 2------ 2---2-- 2---2--|2------ 2------ 2---2-- 2---2--|
B|3-------3-------3---3---3---3--|3-------3-------3---3---3---3--|
G|4-------4-------4---4---4---4--|4-------4-------4---4---4---4--|
D|4-------4-------4---4---4---4--|4-------4-------4---4---4---4--|
A|2-------2-------2---2---2---2--|2-------2-------2---2---2---2--|
E|-------------------------------|-------------------------------|
  I                                             thought that you would 
e|------- ------- ------- -------|------- ------- ------- -------|
B|-------------------------------|-------------------------------|
G|--------4---------------3------|--------2----------------------|
D|-------------------------------|-------------------------------|
A|-------------------------------|-------------------------------|
E|-------------------------------|-------------------------------|


  C#m 
e|4------ 4------ 4---4-- 4---4--|4------ 4------ 4---4-- 4---4--|
B|5-------5-------5---5---5---5--|5-------5-------5---5---5---5--|
G|6-------6-------6---6---6---6--|6-------6-------6---6---6---6--|
D|6-------6-------6---6---6---6--|6-------6-------6---6---6---6--|
A|4-------4-------4---4---4---4--|4-------4-------4---4---4---4--|
E|-------------------------------|-------------------------------|
  realize                                            that If  I
e|4------ ------- ------- -------|------- 4------ ------- -------|
B|5------------------------------|--------5----------------------|
G|6------------------------------|--------6----------------------|
D|6------------------------------|--------6----------------------|
A|4------------------------------|--------4----------------------|
E|-------------------------------|-------------------------------|
 

  F#m                             B7
e|2------ 2------ 2---2-- 2---2--|2------ -2----- 2---2-- 2---2--|
B|2-------2-------2---2---2---2--|4--------4------4---4---4---4--|
G|2-------2-------2---2---2---2--|2--------2------2---2---2---2--|
D|4-------4-------4---4---4---4--|4--------4------4---4---4---4--|
A|4-------4-------4---4---4---4--|2--------2------2---2---2---2--|
E|2-------2-------2---2---2---2--|-------------------------------|
  ran away from   you        then you would want me too       but
e|2------ ------- ------- -------|2------ ------- ------- -------|
B|2------------------------------|4------------------------------|
G|2------------------------------|2------------------------------|
D|4------------------------------|4------------------------------|
A|4------------------------------|2------------------------------|
E|2------------------------------|-------------------------------|


  D                               E               D           E
e|2------ 2---2-- 2---2-- 2------|0------ 0---0-- 2---2-- 2---0--|
B|3-------3---3---3---3---3------|0-------0---0---3---3---3---0--|
G|2-------2---2---2---2---2------|1-------1---1---2---2---2---1--|
D|0-------0---0---0---0---0------|2-------2---2---0---0---0---2--|
A|-------------------------------|2-------2---2---------------2--|
E|-------------------------------|0-------0---0---------------0--|
  I       got a   big     surprise                Oh          ho
e|2------ ------- ------- -------|0------ ------- ------- ----0--|
B|3------------------------------|0---------------------------0--|
G|2------------------------------|1---------------------------1--|
D|0------------------------------|2---------------------------2--|
A|-------------------------------|2---------------------------2--|
E|-------------------------------|0---------------------------0--|


                  D           E
e|------- 0------ 2---2-- 2---0--|------- 0------|
B|--------0-------3---3---3---0--|--------0------|
G|--------1-------2---2---2---1--|--------1------|
D|--------2-------0---0---0---2--|--------2------|
A|--------2-------------------2--|--------2------|
E|--------0-------------------0--|--------0------|
                  Oh          ho 
e|------- ------- ------- ----0--|------- 0------|
B|----------------------------0--|--------0------|
G|----------------------------1--|--------1------|
D|----------------------------2--|--------2------|
A|----------------------------2--|--------2------|
E|----------------------------0--|--------0------|
            


  Am                              G
e|0------ 0------ 0---0-- 0---0--|3------ 3------ 3---3-- 3---3--|
B|1-------1-------1---1---1---1--|3-------3-------3---3---3---3--|
G|2-------2-------2---2---2---2--|0-------0-------0---0---0---0--|
D|2-------2-------2---2---2---2--|0-------0-------0---0---0---0--|
A|0-------0-------0---0---0---0--|2-------2-------2---2---2---2--|
E|-------------------------------|3-------3-------3---3---3---3--|
  You                    could find better        things  to  do
e|0------ ------- ------- -------|3------ ------- ------- -------|
B|1------------------------------|3------------------------------|
G|2------------------------------|4------------------------------|
D|2------------------------------|5------------------------------|
A|0------------------------------|5------------------------------|
E|-------------------------------|3------------------------------|




  F-5maj7                         E
e|0------ 0------ 0---0-- 0---0--|0------ 0------ 0---0-- 0---0--|
B|0-------0-------0---0---0---0--|0-------0-------0---0---0---0--|
G|2-------2-------2---2---2---2--|1-------1-------1---1---1---1--|
D|3-------3-------3---3---3---3--|2-------2-------2---2---2---2--|
A|3-------3-------3---3---3---3--|2-------2-------2---2---2---2--|
E|1-------1-------1---1---1---1--|0-------0-------0---0---0---0--|
                          than to break   my      heart   a...gain
e|0----0- --0---- 0----0- --0----|0------ ------- ------- -------|
B|0----0----0-----0----0----0----|0------------------------------|
G|2----2----2-----2----2----2----|1------------------------------|
D|3----3----3-----3----3----3----|2------------------------------|
A|3----3----3-----3----3----3----|2------------------------------|
E|1----1----1-----1----1----1----|0------------------------------|



  A
e|0------ 0------ 0---0-- 0---0--|0------ 0------ 0---0-- 0---0--|
B|2-------2-------2---2---2---2--|2-------2-------2---2---2---2--|
G|2-------2-------2---2---2---2--|2-------2-------2---2---2---2--|
D|2-------2-------2---2---2---2--|2-------2-------2---2---2---2--|
A|0-------0-------0---0---0---0--|0-------0-------0---0---0---0--|
E|-------------------------------|-------------------------------|
                                                          This time
e|------- ------- ------- ----0--|------- ------- ------- -------|
B|------------------------5---2--|-------------------------------|
G|----------------------------2--|-------------------------------|
D|----------------4-----------2--|-------------------------------|
A|----------------------------0--|-------------------------------|
E|-------------------------------|-------------------------------|



  Am                              G
e|0------ 0------ 0---0-- 0---0--|3------ 3------ 3---3-- 3---3--|
B|1-------1-------1---1---1---1--|3-------3-------3---3---3---3--|
G|2-------2-------2---2---2---2--|0-------0-------0---0---0---0--|
D|2-------2-------2---2---2---2--|0-------0-------0---0---0---0--|
A|0-------0-------0---0---0---0--|2-------2-------2---2---2---2--|
E|-------------------------------|3-------3-------3---3---3---3--|
                          I will  try     to      show    that I'm
e|0------ ------- ------- -------|3------ ------- ------- -------|
B|1------------------------------|3------------------------------|
G|2------------------------------|4------------------------------|
D|2------------------------------|5------------------------------|
A|0------------------------------|5------------------------------|
E|-------------------------------|3------------------------------|




  F-5maj7                         E
e|0------ 0------ 0---0-- 0---0--|0------ 0------ 0---0-- 0---0--|
B|0-------0-------0---0---0---0--|0-------0-------0---0---0---0--|
G|2-------2-------2---2---2---2--|1-------1-------1---1---1---1--|
D|3-------3-------3---3---3---3--|2-------2-------2---2---2---2--|
A|3-------3-------3---3---3---3--|2-------2-------2---2---2---2--|
E|1-------1-------1---1---1---1--|0-------0-------0---0---0---0--|
                              not trying          to pre......tend
e|0----0- --0---- 0----0- --0----|0------ ------- ------- -------|
B|0----0----0-----0----0----0----|0------------------------------|
G|2----2----2-----2----2----2----|1------------------------------|
D|3----3----3-----3----3----3----|2------------------------------|
A|3----3----3-----3----3----3----|2------------------------------|
E|1----1----1-----1----1----1----|0------------------------------|



  A
e|0------ 0------ 0---0-- 0---0--|0------ 0------ 0---0-- 0---0--|
B|2-------2-------2---2---2---2--|2-------2-------2---2---2---2--|
G|2-------2-------2---2---2---2--|2-------2-------2---2---2---2--|
D|2-------2-------2---2---2---2--|2-------2-------2---2---2---2--|
A|0-------0-------0---0---0---0--|0-------0-------0---0---0---0--|
E|-------------------------------|-------------------------------|
                                                  I   wanna   go
e|------- ------- ------- 0---0--|------- ------- ------- -------|
B|----------------------------2--|-------------------------------|
G|----------------------------2--|-------------------------------|
D|----------------4-----------2--|-------------------------------|
A|----------------------------0--|-------------------------------|
E|-------------------------------|-------------------------------|   



  F#m
e|2------ 2------ 2---2-- 2---2--|2------ 2------ 2---2-- 2---2--|
B|2-------2-------2---2---2---2--|2-------2-------2---2---2---2--|
G|2-------2-------2---2---2---2--|2-------2-------2---2---2---2--|
D|4-------4-------4---4---4---4--|4-------4-------4---4---4---4--|
A|4-------4-------4---4---4---4--|4-------4-------4---4---4---4--|
E|2-------2-------2---2---2---2--|2-------2-------2---2---2---2--|
                                                  But I   hate to
e|------- 2------ ------- -------|2------ ------- ------- -------|
B|--------2----------------------|2------------------------------|
G|--------2----------------------|2------------------------------|
D|--------4----------------------|4------------------------------|
A|--------4----------------------|4------------------------------|
E|--------2----------------------|2------------------------------|

         


  Bm
e|2------ 2------ 2---2-- 2---2--|2------ 2---2-- 2---2-- 2---2--|
B|3-------3-------3---3---3---3--|3-------3---3---3---3---3---3--|
G|4-------4-------4---4---4---4--|4-------4---4---4---4---4---4--|
D|4-------4-------4---4---4---4--|4-------4---4---4---4---4---4--|
A|2-------2-------2---2---2---2--|2-------2---2---2---2---2---2--|
E|-------------------------------|-------------------------------|
  leave   you                                 You know I hate to
e|2------ ------- ------- -------|2------ ------- ------- -------|
B|3------------------------------|3------------------------------|
G|4------------------------------|4------------------------------|
D|4------------------------------|4------------------------------|
A|2------------------------------|2------------------------------|
E|-------------------------------|-------------------------------|



  E               D           E                   D           E
e|0------ 0------ 2---2-- 2---0--|------- 0------ 2---2-- 2---0--|
B|0-------0-------3---3---3---0--|--------0-------3---3---3---0--|
G|1-------1-------2---2---2---1--|--------1-------2---2---2---1--|
D|2-------2-------0---0---0---2--|--------2-------0---0---0---2--|
A|2-------2-------------------2--|--------2-------------------2--|
E|0-------0-------------------0--|--------0-------------------0--|
  leave   you     Oh          ho                  Oh          ho
e|0------ ------- ------- ----0--|------- ------- ------- ----0--|
B|0---------------------------0--|----------------------------0--|
G|1---------------------------1--|----------------------------1--|
D|2---------------------------2--|----------------------------2--|
A|2---------------------------2--|----------------------------2--|
E|0---------------------------0--|----------------------------0--|




e|------- 0------|
B|--------0------|
G|--------1------|
D|--------2------|
A|--------2------|
E|--------0------|
                  

  Am                              G
e|0------ 0---0-- 0---0-- 0---0--|3------ 3------ 3---3-- 3---3--|
B|1-------1---1---1---1---1---1--|3-------3-------3---3---3---3--|
G|2-------2---2---2---2---2---2--|0-------0-------0---0---0---0--|
D|2-------2---2---2---2---2---2--|0-------0-------0---0---0---0--|
A|0-------0---0---0---0---0---0--|2-------2-------2---2---2---2--|
E|-------------------------------|3-------3-------3---3---3---3--|
  You,                    if you  break   my      heart   I'll go
e|0------ ------- ------- -------|3------ ------- ------- -------|
B|1------------------------------|3------------------------------|
G|2------------------------------|4------------------------------|
D|2------------------------------|5------------------------------|
A|0------------------------------|5------------------------------|
E|-------------------------------|3------------------------------|



  F-5maj7                         E
e|0------ 0------ 0---0-- 0---0--|0------ 0------ 0---0-- 0---0--|
B|0-------0-------0---0---0---0--|0-------0-------0---0---0---0--|
G|2-------2-------2---2---2---2--|1-------1-------1---1---1---1--|
D|3-------3-------3---3---3---3--|2-------2-------2---2---2---2--|
A|3-------3-------3---3---3---3--|2-------2-------2---2---2---2--|
E|1-------1-------1---1---1---1--|0-------0-------0---0---0---0--|
                              But I'll be back again
e|0----0- --0---- 0----0- --0----|0------ ------- ------- -------|
B|0----0----0-----0----0----0----|0------------------------------|
G|2----2----2-----2----2----2----|1------------------------------|
D|3----3----3-----3----3----3----|2------------------------------|
A|3----3----3-----3----3----3----|2------------------------------|
E|1----1----1-----1----1----1----|0------------------------------|



  A
e|0------ 0------ 0---0-- 0---0--|0------ 0------ 0---0-- 0------|
B|2-------2-------2---2---2---2--|2-------2-------2---2---2------|
G|2-------2-------2---2---2---2--|2-------2-------2---2---2------|
D|2-------2-------2---2---2---2--|2-------2-------2---2---2------|
A|0-------0-------0---0---0---0--|0-------0-------0---0---0------|
E|-------------------------------|-------------------------------|

e|------- ------- ------- 0---0--|------- ------- ------- -------|
B|----------------------------2--|-------------------------------|
G|----------------------------2--|-------------------------------|
D|----------------4-----------2--|-------------------------------|
A|-------------------------------|-------------------------------|
E|-------------------------------|-------------------------------|


                              Am
e|0------ 0------ 0---0-- 0---0--|
B|2-------2-------2---2---2---1--|
G|2-------2-------2---2---2---2--|
D|2-------2-------2---2---2---2--|
A|0-------0-------0---0---0---0--|
E|-------------------------------|

e|------- ------- ------- ----0--|
B|------------------------5---1--|
G|--------------------4-------2--|
D|----------------4-----------2--|
A|-------------------------------|
E|-------------------------------|




e|0------ 0------ 0---0-- 0---0--|0------ 0------ 0---0-- 0------|
B|1-------1-------1---1---1---1--|1-------1-------1---1---1------|
G|2-------2-------2---2---2---2--|2-------2-------2---2---2------|
D|2-------2-------2---2---2---2--|2-------2-------2---2---2------|
A|0-------0-------0---0---0---0--|0-------0-------0---0---0------|
E|-------------------------------|-------------------------------|

e|0------ ------- ------- -------|------- ------- ------- ----0--|
B|1------------------------------|------------------------5---2--|
G|2------------------------------|--------------------4-------2--|
D|2------------------------------|----------------4-----------2--|
A|0------------------------------|-------------------------------|
E|-------------------------------|-------------------------------|



  A
e|0------ 0------ 0---0-- 0---0--|0------ 0------ 0---0-- 0------|
B|2-------2-------2---2---2---2--|2-------2-------2---2---2------|
G|2-------2-------2---2---2---2--|2-------2-------2---2---2------|
D|2-------2-------2---2---2---2--|2-------2-------2---2---2------|
A|0-------0-------0---0---0---0--|0-------0-------0---0---0------|
E|-------------------------------|-------------------------------|

e|------- ------- ------- -------|------- ------- ------- ----0--|
B|-------------------------------|------------------------5---1--|
G|-------------------------------|--------------------4-------2--|
D|-------------------------------|----------------4-----------2--|
A|-------------------------------|----------------------------0--|
E|-------------------------------|-------------------------------|
  ..............................Fade.............................
 


        B  Bend
        R  Release
        /  slide up
        \  slide down
        H  hammer-on
        P  pull-off
        ~  vibrato
        +  harmonic
        x  Mute note
        . - play note like a dot in standard notation
        ^ - ties two notes together
comments
print report bad tab
2 comments total.
0 reply
rockman07 wrote on November 21 2008, 04:01 pm

Awesome tab.....5 stars

0 reply
68lpjr wrote on September 11 2009, 11:42 pm

PJVILL, you are awesome mate. my first run through sounded just like the album.

I want to post or [tab]
guest
You may want to rate the tab now too:
select rating
Please do not post tabs as comments. Select "correction" instead!