Oops, an error
Loading. Please wait.

Im Down Tab

ver2
ver2

Whole song

More versions @911Tabs.com
8,563 views 6 this week
no commentswrite comment
1 2 3 4 5
excellent!
x 2
Autoscroll
+/-
esc
set tempo
stop
Contributor
WARNING: You are trying to view
                                    content from Ultimate-Guitar.com
                                    in an unauthorized application,
                                    which is prohibited.

                                    Please use an official Ultimate
                                    Guitar Tabs application for iPhone,
                                    iPad or Android to access legitimate
                                    chords, guitar, bass, and drum tabs
                                    from Ultimate-Guitar.com database.

                                    Type "ultimate guitar tabs" in Apple
                                    App Store's or Android Market's
                                    search to find the application.
----------------------------------------------------------------------------

                      IM    DOWN
               FROM THE ALBUM "ROCK AND ROLL MUSIC"

----------------------------------------------------------------------------
By  Oppostion112

You telling lies thinking I can't see
You don't cry cos you're laughing at me
I'm down (I'm really down)
I'm down (Down on the ground)
I'm down (I'm really down)
How can you laugh when you know I'm down
(How can you laugh) When you know I'm down

Man buys ring woman throws it away
Same old thing happens everyday
I'm down (I'm really down)
I'm down (Down on the ground)
I'm down (I'm really down)
How can you laugh when you know I'm down
(How can you laugh) When you know I'm down

We're all alone and there's nobody else
You still moan, "Keep your hands to yourself!"
I'm down (I'm really down)
Oh baby I'm down (Down on the ground)
I'm down (I'm really down)
How can you laugh when you know I'm down
(How can you laugh) When you know I'm down.
Waaaao! Baby I'm down

Oh baby you know I'm down (I'm really down)
Oh yes I'm down (I'm really down)
I'm down on the ground (I'm really down)
Ahhhh! Down (I'm really down)
Oh baby I'm upside down, a yea yea yea yea yea
I'm down (I'm really down)
Oh baby I'm down (I'm really down)
I'm feeling upside down (I'm really down)
Ooo! I'm down (I'm really down)
Baby I'm down yea
Oh baby I'm down yea
Baby I'm down (I'm really down)
Well baby I'm down (I'm really down)
Well baby baby baby (I'm really down)
Oh baby I'm down
I'm down, down, down

                                                         G
E--------------------------------------------------------3-------------|
B--------------------------------------------------------3-------------|
G--------------------------------------------------------4-------------|
D--------------------------------------------------------5-------------|
A--------------------------------------------------------5-------------|
E--------------------------------------------------------3-------------|

  you       tell   lies    thinkin   i  cant   see

      G                                                   C
E-----3--------------------------------------------------8--8--8--8--8--|
B-----3--------------------------------------------------8--8--8--8--8--|
G-----5--------------------------------------------------9--9--9--9--9--|
D-----5--------------------------------------------------10-10-10-10-10-|
A-----4--------------------------------------------------10-10-10-10-10-|
E-----3--------------------------------------------------8--8--8--8--8--|

  you   cant  cry  cause  your laughin  at  me    im   down

                        G
E--8--8--8--8--8--8--8--3--3--3--3--3--3--3--3--3--3--3--3--3--3--3--3-|
B--8--8--8--8--8--8--8--3--3--3--3--3--3--3--3--3--3--3--3--3--3--3--3-|
G--9--9--9--9--9--9--9--4--4--4--4--4--4--4--4--4--4--4--4--4--4--4--4-|
D-10-10-10-10-10-10-10--5--5--5--5--5--5--5--5--5--5--5--5--5--5--5--5-|
A-10-10-10-10-10-10-10--5--5--5--5--5--5--5--5--5--5--5--5--5--5--5--5-|
E--8--8--8--8--8--8--8--3--3--3--3--3--3--3--3--3--3--3--3--3--3--3--3-|

  (im  really   down)   im  down         (down   on  the  ground)

   C
E--8--8--8--8--8--8--8--8--8--8--8--8--8--8--8-|
B--8--8--8--8--8--8--8--8--8--8--8--8--8--8--8-|
G--9--9--9--9--9--9--9--9--9--9--9--9--9--9--9-|
D-10-10-10-10-10-10-10-10-10-10-10-10-10-10-10-|
A-10-10-10-10-10-10-10-10-10-10-10-10-10-10-10-|
E--8--8--8--8--8--8--8--8--8--8--8--8--8--8--8-|

 im    down     (im   really    down)

      D    G
E-----------------------------------------------------|
B-----7----0------------------------------------------|
G-----7----0------------------------------------------|
D-----7----0------------------------------------------|
A-----------------------------------------------------|
E-----------------------------------------------------|

 how  can   you   laugh  when   you   know  im   down

      D    G
E-----------------------------------------------------|
B-----7----0------------------------------------------|
G-----7----0------------------------------------------|
D-----7----0------------------------------------------|
A-----------------------------------------------------|
E-----------------------------------------------------|

 (how can you laugh)   when  you  know  im  down

                                                         G
E--------------------------------------------------------3-------------|
B--------------------------------------------------------3-------------|
G--------------------------------------------------------4-------------|
D--------------------------------------------------------5-------------|
A--------------------------------------------------------5-------------|
E--------------------------------------------------------3-------------|

   man   buys  ring  woman   throw's   it   away

      G                                         C
E-----3-----------------------------------------8--8--8--8--8--8-|
B-----3-----------------------------------------8--8--8--8--8--8-|
G-----4-----------------------------------------9--9--9--9--9--9-|
D-----5----------------------------------------10-10-10-10-10-10-|
A-----5----------------------------------------10-10-10-10-10-10-|
E-----3-----------------------------------------8--8--8--8--8--8-|

   same  ol'   thing   happen   every  day    im   down

                        G
E--8--8--8--8--8--8--8--3--3--3--3--3--3--3--3--3--3--3--3--3--3--3--3-|
B--8--8--8--8--8--8--8--3--3--3--3--3--3--3--3--3--3--3--3--3--3--3--3-|
G--9--9--9--9--9--9--9--4--4--4--4--4--4--4--4--4--4--4--4--4--4--4--4-|
D-10-10-10-10-10-10-10--5--5--5--5--5--5--5--5--5--5--5--5--5--5--5--5-|
A-10-10-10-10-10-10-10--5--5--5--5--5--5--5--5--5--5--5--5--5--5--5--5-|
E--8--8--8--8--8--8--8--3--3--3--3--3--3--3--3--3--3--3--3--3--3--3--3-|

  (im  really   down)   im  down         (down   on  the  ground)

   C
E--8--8--8--8--8--8--8--8--8--8--8--8--8--8--8-|
B--8--8--8--8--8--8--8--8--8--8--8--8--8--8--8-|
G--9--9--9--9--9--9--9--9--9--9--9--9--9--9--9-|
D-10-10-10-10-10-10-10-10-10-10-10-10-10-10-10-|
A-10-10-10-10-10-10-10-10-10-10-10-10-10-10-10-|
E--8--8--8--8--8--8--8--8--8--8--8--8--8--8--8-|

 im    down     (im   really    down)

      D    G
E-----------------------------------------------------|
B-----7----0------------------------------------------|
G-----7----0------------------------------------------|
D-----7----0------------------------------------------|
A-----------------------------------------------------|
E-----------------------------------------------------|

 how  can   you   laugh  when   you   know  im   down

      D    G
E-----------------------------------------------------|
B-----7----0------------------------------------------|
G-----7----0------------------------------------------|
D-----7----0------------------------------------------|
A-----------------------------------------------------|
E-----------------------------------------------------|

 (how can you laugh)   when  you  know  im  down

SOLO

E--------------------------------------------------------|
B--------------------------------------------------------|
G--------------------------------------------------------|
D--------3-----------------------3----3--5B--5B--5B--3---|
A---3--5---5--1--1---1--3----3--5---5------------------3-|
E-3----------------3------5------------------------------|


E------------------------------------------------------------------------|
B------------------------------------------------------------------------|
G------3---3--5B-5B-5B-3-----3---5B---5B--5B--5B--5B--5B--5B--5B--5--3---|
D-3--5---5--------------5--5---5---------------------------------------5-|
A------------------------------------------------------------------------|
E------------------------------------------------------------------------|

E-----------------------------|
B-----------------------------|
G-----------------------------|
D-----------3-----------------|
A---1s-3-3s-5---5-3-1---------|
E-3-------------------3-------|

                                                         G
E--------------------------------------------------------3-------------|
B--------------------------------------------------------3-------------|
G--------------------------------------------------------4-------------|
D--------------------------------------------------------5-------------|
A--------------------------------------------------------5-------------|
E--------------------------------------------------------3-------------|

  we   all   alone   and   a   nobody   else

      G                                                   C
E-----3--------------------------------------------------8--8--8--8--8--|
B-----3--------------------------------------------------8--8--8--8--8--|
G-----5--------------------------------------------------9--9--9--9--9--|
D-----5--------------------------------------------------10-10-10-10-10-|
A-----4--------------------------------------------------10-10-10-10-10-|
E-----3--------------------------------------------------8--8--8--8--8--|

  you still moan   keep  your  hands  to  yourself       im   down

                        G
E--8--8--8--8--8--8--8--3--3--3--3--3--3--3--3--3--3--3--3--3--3--3--3-|
B--8--8--8--8--8--8--8--3--3--3--3--3--3--3--3--3--3--3--3--3--3--3--3-|
G--9--9--9--9--9--9--9--4--4--4--4--4--4--4--4--4--4--4--4--4--4--4--4-|
D-10-10-10-10-10-10-10--5--5--5--5--5--5--5--5--5--5--5--5--5--5--5--5-|
A-10-10-10-10-10-10-10--5--5--5--5--5--5--5--5--5--5--5--5--5--5--5--5-|
E--8--8--8--8--8--8--8--3--3--3--3--3--3--3--3--3--3--3--3--3--3--3--3-|

  (im  really   down)   im  down         (down   on  the  ground)

   C
E--8--8--8--8--8--8--8--8--8--8--8--8--8--8--8-|
B--8--8--8--8--8--8--8--8--8--8--8--8--8--8--8-|
G--9--9--9--9--9--9--9--9--9--9--9--9--9--9--9-|
D-10-10-10-10-10-10-10-10-10-10-10-10-10-10-10-|
A-10-10-10-10-10-10-10-10-10-10-10-10-10-10-10-|
E--8--8--8--8--8--8--8--8--8--8--8--8--8--8--8-|

 im    down     (im   really    down)

      D    G
E-----------------------------------------------------|
B-----7----0------------------------------------------|
G-----7----0------------------------------------------|
D-----7----0------------------------------------------|
A-----------------------------------------------------|
E-----------------------------------------------------|

 how  can   you   laugh  when   you   know  im   down

      D    G
E-----------------------------------------------------|
B-----7----0------------------------------------------|
G-----7----0------------------------------------------|
D-----7----0------------------------------------------|
A-----------------------------------------------------|
E-----------------------------------------------------|

 (how can you laugh)   when  you  know  im  down

For the keyboard solo and coda the pattern is

G///////C//////////
G//////D//////////
comments
We did not receive enough feedback on this tab! Please rate:
print report bad tab
1 2 3 4 5
I want to post or [tab]
guest
You may want to rate the tab now too:
select rating
Please do not post tabs as comments. Select "correction" instead!