Oops, an error
Loading. Please wait.

In My Life Tab

ver3
ver3

Whole song

Video

More versions @911Tabs.com
149,420 views 987 this week
2 commentsread comments
1 2 3 4 5
accurate
x 6
Autoscroll
+/-
esc
set tempo
stop
WARNING: You are trying to view
                                    content from Ultimate-Guitar.com
                                    in an unauthorized application,
                                    which is prohibited.

                                    Please use an official Ultimate
                                    Guitar Tabs application for iPhone,
                                    iPad or Android to access legitimate
                                    chords, guitar, bass, and drum tabs
                                    from Ultimate-Guitar.com database.

                                    Type "ultimate guitar tabs" in Apple
                                    App Store's or Android Market's
                                    search to find the application.
 in my life  -  the beatles

  intro
e|----5------4-----|
B|--2---2-3-5------|
G|--2--------------|
D|-----------------|
A|--0--------------|
E|---------------0-|  2x

          A             F#m
There are places I'll remember
       Bm Dm       A
All my life though some have changed
         A            F#m
Some for ever not for better
          Bm Dm     A
Some have gone, and some remain.

          F#m               Bm
All these places have their moments
     G                     A
With lovers and friends, I still can recall
         F#m               Bm
Some are dead and some are living
   D  Dm         A
In my life, I've loved them all

intro 1x

But of all these friends and lovers
There is no one compared with you
And these memories lose their meaning
When I think of love as something new

Thought I know I'll never lose affection
For people and things that went before
I know I'll often stop and think about them
In my life I'll love you more

 solo
e|------------------|-----------------|------------------|-----------------|
B|--------5h7p5-----|---------------8-|-7-7-7-7-7/5\7----|-5-5-5-5-5/3\5---|
G|-----6------------|------6h7p6-7-9--|--9-7-6-------7-4-|--7-6-4-------4--|
D|-7-9--7------9-6--|-4/6/7-----------|--------9---------|--------7------7-|
A|------------------|-----------------|------------------|-----------------|
E|------------------|-----------------|------------------|-----------------|

e|------------------|-----------------|------------------|------------------------|
B|--------5h7p5-----|---------------8-|-7-7-7-7-7/5\7----|-5-5--------------------|
G|-----6------------|------6h7p6-7-9--|--9-7-6-------7-4-|--6-6-------------------|
D|-7-9--7------9-6--|-4/6/7-----------|--------9---------|-----7-6-7-6-4----------|
A|------------------|-----------------|------------------|------7--------7-5-4----|
E|------------------|-----------------|------------------|--------------------7-5-|
                                                                               "Thought I..."
Thought I know I'll never lose affection
For people and things that went before
I know I'll often stop and think about them
In my life I'll love you more
In my life I'll love you more

 ending
e|----5------4---4-2-4-5-|
B|--2---2-3-5----3-----5-|
G|--2------------4-----6-|
D|---------------------7-|
A|-----------------------|
E|-----------------------|
2 comments total.
0 reply
droid327 wrote on May 26 2012, 12:50 am

It might not be the original song - I dont have a recording handy - but I like throwing in an E between the A and F#m, seems to keep the cadence of the song better that way.

0 reply
fduffer wrote on February 14 2014, 06:15 pm, edited at 06:16 pm

A 7 between F#minor and A F#minor to B MAJOR in second part of verse

I want to post or [tab]
guest
You may want to rate the tab now too:
select rating
Please do not post tabs as comments. Select "correction" instead!