Oops, an error
Loading. Please wait.

Ive Just Seen A Face Tab

ver3
ver3

Whole song

Interactive

Video

More versions @911Tabs.com
47,578 views 33 this week
4 commentsread comments
1 2 3 4 5
excellent!
x 11
Autoscroll
+/-
esc
set tempo
stop
Contributor
NEW! There's an official Ultimate Guitar app which is ideal
for learning songs when you're away from computer. Get the app
WARNING: You are trying to view
                                    content from Ultimate-Guitar.com
                                    in an unauthorized application,
                                    which is prohibited.

                                    Please use an official Ultimate
                                    Guitar Tabs application for iPhone,
                                    iPad or Android to access legitimate
                                    chords, guitar, bass, and drum tabs
                                    from Ultimate-Guitar.com database.

                                    Type "ultimate guitar tabs" in Apple
                                    App Store's or Android Market's
                                    search to find the application.
-------------------------------------------------------------------------
  THE BEATLES - I'VE JUST SEEN A FACE (Lennon/McCartney) From HELP album. 
                Released on 6th August 1965.
-------------------------------------------------------------------------
  Tabbed by:PJVillanueva


I've just seen a face,
I can't forget the time or place
Where we just met.
She's just the girl for me
And I want all the world to see
We've met, mmm-mmm-mmm-m'mmm-mmm.

Had it been another day
I might have looked the other way
And I'd have never been aware.
But as it is I'll dream of her
Tonight, di-di-di-di'n'di.

Falling, yes I am falling,
And she keeps calling
Me back again.

I have never known
The like of this, I've been alone
And I have missed things
And kept out of sight
But other girls were never quite
Like this, di-di-di-di'n'di.

Falling, yes I am falling,
And she keeps calling
Me back again.

Yeah!
Bup-a-lup-bup!

Falling, yes I am falling,
And she keeps calling
Me back again.

I've just seen a face,
I can't forget the time or place
Where we just met.
She's just the girl for me
And want all the world to see
We've met, mmm-mmm-mmm-di-di-di.

Falling, yes I am falling,
And she keeps calling
Me back again.

Falling, yes I am falling,
And she keeps calling
Me back again.

Oh, falling, yes I am falling,
And she keeps calling
Me back again.



e|------- ------- ------- -------|------- ------- ------- -------|
B|-------------------------------|-------------------------------|
G|-------------------------------|-------------------------------|
D|-------------------------------|7---------------6--------------|
A|-------------------------------|-------------------------------|
E|-------------------------------|5---------------4--------------|

e|------- ------- ------- -------|------- ------- ------- -------|
B|-------------------------------|-------------------------------|
G|-------------------------------|-------------------------------|
D|-------------------------------|-------------------------------|
A|-------------------------------|-------------------------------|
E|-------------------------------|-------------------------------|




  
e|------- ------- ------- -------|------- ------- ------- -------|
B|-------------------------------|-------------------------------|
G|-------------------------------|-------------------------------|
D|4------------------------------|-------------------------------|
A|-------------------------------|-------------------------------|
E|2------------------------------|-------------------------------|

e|-----2- ------- 2------ ----2--|-----5- ------- 5------ ----5--|
B|-------------------------------|-------------------------------|
G|2----------2----------2--------|6----------6----------6--------|
D|-------------------------------|-------------------------------|
A|-------------------------------|-------------------------------|
E|-------------------------------|-------------------------------|




e|------- ------- ------- -------|------- ------- ------- -------|
B|-------------------------------|-------------------------------|
G|-------------------------------|11--------------9--------------|
D|-------------------------------|-------------------------------|
A|-------------------------------|-9--------------7--------------|
E|-------------------------------|-------------------------------|

e|-----9- ------- 9------ ----9--|-----14 ------- 14----- ---14--|
B|-------------------------------|-------------------------------|
G|11---------11--------11--------|14---------14--------14--------|
D|-------------------------------|-------------------------------|
A|-------------------------------|-------------------------------|
E|-------------------------------|-------------------------------|




e|------- ------- ------- -------|------- ------- ------- -------|
B|-------------------------------|-------------------------------|
G|7------------------------------|-------------------------------|
D|-------------------------------|-------------------------------|
A|5------------------------------|-------------------------------|
E|-------------------------------|-------------------------------|

e|-----10 ------- 10----- ---10--|-----12 ------- 12----- ---12--|
B|-------------------------------|12---------12--------12--------|
G|11---------11--------11--------|12---------12--------12--------|
D|-------------------------------|-------------------------------|
A|-------------------------------|-------------------------------|
E|-------------------------------|-------------------------------|




e|------- ------- ------- -------|------- ------- ------- -------|
B|-------------------------------|-------------------------------|
G|-------------------------------|7---------------6--------------|
D|-------------------------------|-------------------------------|
A|-------------------------------|5---------------4--------------|
E|-------------------------------|-------------------------------|

e|-----14 ------- 14----- ---14--|-----14 ------- 14----- ---14--|
B|14---------14--------14--------|14---------14--------14--------|
G|14---------14--------14--------|14---------14--------14--------|
D|-------------------------------|-------------------------------|
A|-------------------------------|-------------------------------|
E|-------------------------------|-------------------------------|




e|------- ------- ------- -------|------- ------- ------- -------|
B|-------------------------------|-------------------------------|
G|-------------------------------|-------------------------------|
D|9------------------------------|7---------------6--------------|
A|-------------------------------|-------------------------------|
E|7------------------------------|5---------------4--------------|

e|-----12 ------- 12----- ---12--|-----10 ------- 10----- ---10--|
B|12---------12--------12--------|11---------11--------11--------|
G|13---------13--------13--------|11---------11--------11--------|
D|-------------------------------|-------------------------------|
A|-------------------------------|-------------------------------|
E|-------------------------------|-------------------------------|


  A 
e|0------ 0------ ----0-- 0------|0------ 0------ 0------ 0------|
B|2-------2-----------2---2------|2-------2-------2-------2------|
G|2-------2-----------2---2------|2-------2-------2-------2------|
D|2-------2-----------2---2------|2-------2-------2-------2------|
A|0-------0-----------0---0------|0-------0-------0-------0------|
E|-------------------------------|-------------------------------|
  I've    just    seen a      face,       I       can't   for....
e|------- ------- ------- -------|------- ------- ------- -------|
B|-------------------------------|-------------------------------|
G|-------------------------------|-------------------------------|
D|7------------------------------|----------------2--------------|
A|-------------------------------|-------------------------------|
E|5------------------------------|----------------0--------------|




  
e|0------ 0------ ----0-- 0------|0------ 0------ ----0-- 0------|
B|2-------2-----------2---2------|2-------2-----------2---2------|
G|2-------2-----------2---2------|2-------2-----------2---2------|
D|2-------2-----------2---2------|2-------2-----------2---2------|
A|0-------0-----------0---0------|0-------0-----------0---0------|
E|-------------------------------|-------------------------------|
  get     the time        or      place   where   we just 
e|------- ------- ------- -------|------- ------- ------- -------|
B|-------------------------------|-------------------------------|
G|-------------------------------|-------------------------------|
D|5---------------2--------------|7---------------6--------------|
A|-------------------------------|-------------------------------|
E|5---------------0--------------|5---------------4--------------|



  F#m  
e|2------ 2------ 2---2-- 2------|2------ 2------ 2---2-- 2------|
B|2-------2-------2---2---2------|2-------2-------2---2---2------|
G|2-------2-------2---2---2------|2-------2-------2---2---2------|
D|4-------4-------4---4---4------|4-------4-------4---4---4------|
A|4-------4-------4---4---4------|4-------4-------4---4---4------|
E|2-------2-------2---2---2------|2-------2-------2---2---2------|
  met.    She's   just    the girl        for me          and
e|------- ------- ------- -------|------- ------- ------- -------|
B|-------------------------------|-------------------------------|
G|----------------6--------------|----------------6--------------|
D|4------------------------------|4------------------------------|
A|----------------4--------------|----------------4--------------|
E|2------------------------------|2------------------------------|





  
e|2------ 2------ 2---2-- 2------|2------ 2------ 2---2-- 2------|
B|2-------2-------2---2---2------|2-------2-------2---2---2------|
G|2-------2-------2---2---2------|2-------2-------2---2---2------|
D|4-------4-------4---4---4------|4-------4-------4---4---4------|
A|4-------4-------4---4---4------|4-------4-------4---4---4------|
E|2-------2-------2---2---2------|2-------2-------2---2---2------|
  I       want    all    the world        to see          we've
e|------- ------- ------- -------|------- ------- ------- -------|
B|-------------------------------|-------------------------------|
G|----------------6--------------|11--------------9--------------|
D|4------------------------------|-------------------------------|
A|----------------4--------------|-9--------------7--------------|
E|2------------------------------|-------------------------------|



  D  
e|2------ 2---2-- 2---2-- 2------|2------ 2------ ----2-- 2------|
B|3-------3---3---3---3---3------|3-------3-----------3---3------|
G|2-------2---2---2---2---2------|2-------2-----------2---2------|
D|0-------0---0---0---0---0------|0-------0-----------0---0------|
A|-------------------------------|-------------------------------|
E|-------------------------------|-------------------------------|
  met                             Mmmmmmmmmmmmmmmmmmmmmmmmmmmmmmm
e|------- ------- ------- -------|------- ------- ------- -------|
B|-------------------------------|-------------------------------|
G|7------------------------------|7---------------6--------------|
D|-------------------------------|-------------------------------|
A|5------------------------------|5---------------4--------------|
E|-------------------------------|-------------------------------|



  E                               A
e|0------ 0------ ----0-- -0-----|0------ 0------ 0------ -------|
B|0-------0-----------0----0-----|2-------2-------0-H-2----------|
G|1-------1-----------1----1-----|2-------2-------2--------------|
D|2-------2-----------2----2-----|2-------2-------2--------------|
A|2-------2-----------2----2-----|0-------0-------0--------------|
E|0-------0-----------0----0-----|-------------------------------|
  mmmmmmmmmmmmmmmmmmmmmmmmmmmmmmmm
e|------- ------- ------- -------|------- ------- ------- -------|
B|-------------------------------|-------------------------------|
G|-------------------------------|-------------------------------|
D|9---------------7---6----------|7------------------------------|
A|-------------------------------|-------------------------------|
E|7---------------5---4----------|5------------------------------|





  
e|0------ 0------ ----0-- 0------|0------ 0------ ----0-- 0------|
B|2-------2-----------2---2------|2-------2-----------2---2------|
G|2-------2-----------2---2------|2-------2-----------2---2------|
D|2-------2-----------2---2------|2-------2-----------2---2------|
A|0-------0-----------0---0------|0-------0-----------0---0------|
E|-------------------------------|-------------------------------|
  Had it      been        another             day         I
e|------- ------- ------- -------|------- ------- ------- -------|
B|-------------------------------|-------------------------------|
G|-------------------------------|-------------------------------|
D|7---------------2--------------|7---------------2--------------|
A|-------------------------------|-------------------------------|
E|5---------------0--------------|5---------------0--------------|





  
e|0------ 0------ ----0-- 0------|0------ 0------ ----0-- 0------|
B|2-------2-----------2---2------|2-------2-----------2---2------|
G|2-------2-----------2---2------|2-------2-----------2---2------|
D|2-------2-----------2---2------|2-------2-----------2---2------|
A|0-------0-----------0---0------|0-------0-----------0---0------|
E|-------------------------------|-------------------------------|
  might   have    looked  the     other way               And 
e|------- ------- ------- -------|------- ------- ------- -------|
B|-------------------------------|-------------------------------|
G|-------------------------------|-------------------------------|
D|7---------------2--------------|7---------------6--------------|
A|-------------------------------|-------------------------------|
E|5---------------0--------------|5---------------4--------------|




  F#m  
e|2------ 2------ ----2-- 2------|2------ 2------ 2---2-- 2------|
B|2-------2-----------2---2------|2-------2-------2---2---2------|
G|2-------2-----------2---2------|2-------2-------2---2---2------|
D|4-------4-----------4---4------|4-------4-------4---4---4------|
A|4-------4-----------4---4------|4-------4-------4---4---4------|
E|2-------2-----------2---2------|2-------2-------2---2---2------|
  I'd     have    never       been        aware.              But as
e|------- ------- ------- -------|------- ------- ------- -------|
B|-------------------------------|-------------------------------|
G|----------------6--------------|----------------6--------------|
D|4------------------------------|4------------------------------|
A|----------------4--------------|----------------4--------------|
E|2------------------------------|2------------------------------|



         
e|2------ 2------ ----2-- 2------|2------ 2------ ----2-- 2------|
B|2-------2-----------2---2------|2-------2-----------2---2------|
G|2-------2-----------2---2------|2-------2-----------2---2------|
D|4-------4-----------4---4------|4-------4-----------4---4------|
A|4-------4-----------4---4------|4-------4-----------4---4------|
E|2-------2-----------2---2------|2-------2-----------2---2------|
          it is           I'll    dream of    her         Tonight, 
e|------- ------- ------- -------|------- ------- ------- -------|
B|-------------------------------|-------------------------------|
G|----------------6--------------|11--------------9--------------|
D|4------------------------------|-------------------------------|
A|----------------4--------------|-9--------------7--------------|
E|2------------------------------|-------------------------------|



  D
e|2------ 2---2-- 2---2-- 2------|2------ 2------ ----2-- 2------|
B|3-------3---3---3---3---3------|3-------3-----------3---3------|
G|2-------2---2---2---2---2------|2-------2-----------2---2------|
D|0-------0---0---0---0---0------|0-------0-----------0---0------|
A|-------------------------------|-------------------------------|
E|-------------------------------|-------------------------------|
                                  di-             di-             
e|------- ------- ------- -------|------- ------- ------- -------|
B|-------------------------------|-------------------------------|
G|7------------------------------|7---------------6--------------|
D|-------------------------------|-------------------------------|
A|5------------------------------|5---------------4--------------|
E|-------------------------------|-------------------------------|




  E                               A  
e|0------ 0------ 0---0-- -0-----|0------ 0---0-- ----0-- 0------|
B|0-------0-------0---0----0-----|2-------2---2-------2---2------|
G|1-------1-------1---1----1-----|2-------2---2-------2---2------|
D|2-------2-------2---2----2-----|2-------2---2-------2---2------|
A|2-------2-------2---2----2-----|0-------0---0-------0---0------|
E|0-------0-------0---0----0-----|-------------------------------|
  di-             di' n '     di.
e|------- ------- ------- -------|------- ------- ------- -------|
B|-------------------------------|-------------------------------|
G|-------------------------------|-------------------------------|
D|9---------------7-------6------|7------------------------------|
A|-------------------------------|-------------------------------|
E|7---------------5-------4------|5------------------------------|



  E
e|0------ 0------ ----0-- 0------|0------ 0------ ----0-- 0------|
B|0-------0-----------0---0------|0-------0-----------0---0------|
G|1-------1-----------1---1------|1-------1-----------1---1------|
D|2-------2-----------2---2------|2-------2-----------2---2------|
A|2-------2-----------2---2------|2-------2-----------2---2------|
E|0-------0-----------0---0------|0-------0-----------0---0------|
  Fallin',                                yes     I   am


  D
e|2------ 2------ 2---2-- 2------|2------ ----2-- ----2-- 2------|
B|3-------3-------3---3---3------|3-----------3-------3---3------|
G|2-------2-------2---2---2------|2-----------2-------2---2------|
D|0-------0-------0---0---0------|0-----------0-------0---0------|
A|-------------------------------|-------------------------------|
E|-------------------------------|-------------------------------|
  fallin'                                 and     she keeps 

  A                               D
e|0------ 0------ ----0-- 0------|2------ ------- ----2-- 2------|
B|2-------2-----------2---2------|3-------------------3---3------|
G|2-------2-----------2---2------|2-------------------2---2------|
D|2-------2-----------2---2------|0-------------------0---0------|
A|0-------0-----------0---0------|-------------------------------|
E|-------------------------------|-------------------------------|
  callin'                                 me      back    again

  A
e|0------ 0------ ----0-- 0------|0------ 0------ ----0-- 0------|
B|2-------2-----------2---2------|2-------2-----------2---2------|
G|2-------2-----------2---2------|2-------2-----------2---2------|
D|2-------2-----------2---2------|2-------2-----------2---2------|
A|0-------0-----------0---0------|0-------0-----------0---0------|
E|-------------------------------|-------------------------------| 




 
e|0------ 0------ ----0-- 0------|0------ 0------ ----0-- 0------|
B|2-------2-----------2---2------|2-------2-----------2---2------|
G|2-------2-----------2---2------|2-------2-----------2---2------|
D|2-------2-----------2---2------|2-------2-----------2---2------|
A|0-------0-----------0---0------|0-------0-----------0---0------|
E|-------------------------------|-------------------------------|
   I       have    never       known       the like        of 
e|------- ------- ------- -------|------- ------- ------- -------|
B|-------------------------------|-------------------------------|
G|6---------------7--------------|6------------------------------|
D|-------------------------------|----------------9--------------|
A|4---------------5--------------|4------------------------------|
E|-------------------------------|----------------7--------------|





  
e|0------ 0------ ----0-- 0------|0------ 0------ ----0-- 0------|
B|2-------2-----------2---2------|2-------2-----------2---2------|
G|2-------2-----------2---2------|2-------2-----------2---2------|
D|2-------2-----------2---2------|2-------2-----------2---2------|
A|0-------0-----------0---0------|0-------0-----------0---0------|
E|-------------------------------|-------------------------------|
  this,   I've    been alone              And I           have        
e|------- ------- ------- -------|------- ------- ------- -------|
B|-------------------------------|-------------------------------|
G|-------------------------------|-------------------------------|
D|7---------------2--------------|7---------------6--------------|
A|-------------------------------|-------------------------------|
E|5---------------0--------------|5---------------4--------------|




  F#m 
e|2------ 2------ ----2-- 2------|2------ 2------ 2---2-- 2------|
B|2-------2-----------2---2------|2-------2-------2---2---2------|
G|2-------2-----------2---2------|2-------2-------2---2---2------|
D|4-------4-----------4---4------|4-------4-------4---4---4------|
A|4-------4-----------4---4------|4-------4-------4---4---4------|
E|2-------2-----------2---2------|2-------2-------2---2---2------|
  missed  things  And     kept    out of      sight,       But
e|------- ------- ------- -------|------- ------- ------- -------|
B|-------------------------------|-------------------------------|
G|----------------6--------------|----------------6--------------|
D|4------------------------------|4------------------------------|
A|----------------4--------------|----------------4--------------|
E|2------------------------------|2------------------------------|





  
e|2------ 2------ ----2-- 2------|2------ 2------ ----2-- 2------|
B|2-------2-----------2---2------|2-------2-----------2---2------|
G|2-------2-----------2---2------|2-------2-----------2---2------|
D|4-------4-----------4---4------|4-------4-----------4---4------|
A|4-------4-----------4---4------|4-------4-----------4---4------|
E|2-------2-----------2---2------|2-------2-----------2---2------|
  other       girls       were    never       quite       like      
e|------- ------- ------- -------|------- ------- ------- -------|
B|-------------------------------|-------------------------------|
G|----------------6--------------|11--------------9--------------|
D|4------------------------------|-------------------------------|
A|----------------4--------------|-9--------------7--------------|
E|2------------------------------|-------------------------------|



  D  
e|2------ 2------ 2---2-- 2------|2------ 2------ ----2-- 2------|
B|3-------3-------3---3---3------|3-------3-----------3---3------|
G|2-------2-------2---2---2------|2-------2-----------2---2------|
D|0-------0-------0---0---0------|0-------0-----------0---0------|
A|-------------------------------|-------------------------------|
E|-------------------------------|-------------------------------|
  this                           di-             di-             
e|------- ------- ------- -------|------- ------- ------- -------|
B|-------------------------------|-------------------------------|
G|7------------------------------|7---------------6--------------|
D|-------------------------------|-------------------------------|
A|5------------------------------|5---------------4--------------|
E|-------------------------------|-------------------------------|



  E                               A 
e|0------ 0------ ----0-- -0-----|0------ 0---0-- 0---0-- 0------|
B|0-------0-----------0----0-----|2-------2---2---0---2---2------|
G|1-------1-----------1----1-----|2-------2---2---2---2---2------|
D|2-------2-----------2----2-----|2-------2---2---2---2---2------|
A|2-------2-----------2----2-----|0-------0---0---0---0---0------|
E|0-------0-----------0----0-----|-------------------------------|
  di-             di' n '     di.
e|------- ------- ------- -------|------- ------- ------- -------|
B|-------------------------------|-------------------------------|
G|-------------------------------|-------------------------------|
D|9---------------7-------6------|7------------------------------|
A|-------------------------------|-------------------------------|
E|7---------------5-------4------|5------------------------------|



  E 
e|0------ 0------ ----0-- 0------|0------ 0------ ----0-- -------|
B|0-------0-----------0---0------|0-------0-----------0----------|
G|1-------1-----------1---1------|1-------1-----------1----------|
D|2-------2-----------2---2------|2-------2-----------2----------|
A|2-------2-----------2---2------|2-------2-----------2----------|
E|0-------0-----------0---0------|0-------0-----------0----------|
  Fallin',                                yes     I   am


  D
e|2------ 2------ 2---2-- 2------|2------ ----2-- ----2-- 2------|
B|3-------3-------3---3---3------|3-----------3-------3---3------|
G|2-------2-------2---2---2------|2-----------2-------2---2------|
D|0-------0-------0---0---0------|0-----------0-------0---0------|
A|-------------------------------|-------------------------------|
E|-------------------------------|-------------------------------|
  fallin'                                 and     she keeps 

  A                               D
e|0------ 0------ ----0-- 0------|2------ 2------ ----2-- 2------|
B|2-------2-----------2---2------|3-------3-----------3---3------|
G|2-------2-----------2---2------|2-------2-----------2---2------|
D|2-------2-----------2---2------|0-------0-----------0---0------|
A|0-------0-----------0---0------|-------------------------------|
E|-------------------------------|-------------------------------|
  callin'                                 me      back    again

  A
e|0------ 0------ ----0-- 0------|0------ ----0-- ----0-- 0------|
B|2-------2-----------2---2------|2-----------2-------2---2------|
G|2-------2-----------2---2------|2-----------2-------2---2------|
D|2-------2-----------2---2------|2-----------2-------2---2------|
A|0-------0-----------0---0------|0-----------0-------0---0------|
E|-------------------------------|-------------------------------|


Solo
  A
e|------- ------- ------- -------|------- ------- ------- -------|
B|-------------------------------|-------------------------------|
G|-------------------------------|-------------------------------|
D|7---------------2--------------|7---------------2--------------|
A|-------------------------------|-------------------------------|
E|5---------------0--------------|5---------------0--------------|
  
e|0------ 0------ ----0-- 0------|0------ 0------ ----0-- 0------|
B|2-------2-----------2---2------|2-------2-----------2---2------|
G|2-------2-----------2---2------|2-------2-----------2---2------|
D|2-------2-----------2---2------|2-------2-----------2---2------|
A|0-------0-----------0---0------|0-------0-----------0---0------|
E|-------------------------------|-------------------------------|

e|------- ------- ------- -------|------- ------- ------- -------|
B|-------------------------------|-------------------------------|
G|-------------------------------|------------------------6------|
D|7-------7-------7-------9---9--|----7---7-------7--------------|
A|-------------------------------|------------------------4------|
E|5-------5-------5-------7---7--|----5---5-------5--------------|




e|------- ------- ------- -------|------- ------- ------- -------|
B|-------------------------------|-------------------------------|
G|-------------------------------|-------------------------------|
D|7---------------2--------------|7---------------6--------------|
A|-------------------------------|-------------------------------|
E|5---------------0--------------|5---------------4--------------|
    
e|0------ 0------ 0---0-- 0------|0------ 0------ ----0-- 0------|
B|2-------2-------2---2---2------|2-------2-----------2---2------|
G|2-------2-------2---2---2------|2-------2-----------2---2------|
D|2-------2-------2---2---2------|2-------2-----------2---2------|
A|0-------0-------0---0---0------|0-------0-----------0---0------|
E|-------------------------------|-------------------------------|

e|------- ------- ------- -------|------- ------- ------- -------|
B|-------------------------------|-------------------------------|
G|6-----------------------7------|7-------6-------6--------------|
D|--------7-------7--------------|------------------------9------|
A|4-----------------------5------|5-------4-------4--------------|
E|--------5-------5--------------|------------------------7------|




  F#m
e|------- ------- ------- -------|------- ------- ------- -------|
B|-------------------------------|-------------------------------|
G|----------------6--------------|-----------------6-------------|
D|4------------------------------|4------------------------------|
A|----------------4--------------|-----------------4-------------|
E|2------------------------------|2------------------------------|
  
e|2------ 2------ ----2-- 2------|2------ ----2-- ----2-- 2------|
B|2-------2-----------2---2------|2-----------2-------2---2------|
G|2-------2-----------2---2------|2-----------2-------2---2------|
D|4-------4-----------4---4------|4-----------4-------4---4------|
A|4-------4-----------4---4------|4-----------4-------4---4------|
E|2-------2-----------2---2------|2-----------2-------2---2------|

e|------- ------- ------- -------|------- ------- ------- -------|
B|-------------------------------|-------------------------------|
G|-------------------------------|------------------------6------|
D|7-------7-------7-------9---9--|----7---7-------7--------------|
A|-------------------------------|------------------------4------|
E|5-------5-------5-------7---7--|----5---5-------5--------------|





e|------- ------- ------- -------|------- ------- ------- -------|
B|-------------------------------|-------------------------------|
G|----------------6--------------|11--------------9--------------|
D|4------------------------------|-------------------------------|
A|----------------4--------------|-9--------------7--------------|
E|2------------------------------|-------------------------------|
     
e|2------ 2------ ----2-- 2------|2------ 2------ 2------ 2------|
B|2-------2-----------2---2------|2-------2-------2-------2------|
G|2-------2-----------2---2------|2-------2-------2-------2------|
D|4-------4-----------4---4------|4-------4-------4-------4------|
A|4-------4-----------4---4------|4-------4-------4-------4------|
E|2-------2-----------2---2------|2-------2-------2-------2------|

e|------- ------- ------- -------|------- ------- ------- -------|
B|-------------------------------|-------------------------------|
G|6-----------------------7------|7-------6-------6--------------|
D|--------7-------7--------------|------------------------9------|
A|4-----------------------5------|5-------4-------4--------------|
E|--------5-------5--------------|------------------------7------|




  D
e|------- ------- ------- -------|------- ------- ------- -------|
B|-------------------------------|-------------------------------|
G|7------------------------------|7---------------6--------------|
D|-------------------------------|-------------------------------|
A|5------------------------------|5---------------4--------------|
E|-------------------------------|-------------------------------|
    
e|2------ 2------ ----2-- 2------|2------ 2------ ----2-- 2------|
B|3-------3-----------3---3------|3-------3-----------3---3------|
G|2-------2-----------2---2------|2-------2-----------2---2------|
D|0-------0-----------0---0------|0-------0-----------0---0------|
A|-------------------------------|-------------------------------|
E|-------------------------------|-------------------------------|

e|------- ------- ------- -------|------- ------- ------- -------|
B|-------------------------------|-------------------------------|
G|-------------------------------|-------------------------------|
D|7------------------------------|9---------------7--------------|
A|-------------------------------|-------------------------------|
E|5------------------------------|7---------------5--------------|




  E                               A
e|------- ------- ------- -------|------- ------- ------- -------|
B|-------------------------------|-------------------------------|
G|-------------------------------|-------------------------------|
D|9---------------7-------6------|7------------------------------|
A|-------------------------------|-------------------------------|
E|7---------------5-------4------|5------------------------------|

e|0------ 0------ ----0-- -0-----|0------ 0------ ----0-- 0------|
B|0-------0-----------0----0-----|2-------2-----------2---2------|
G|1-------1-----------1----1-----|2-------2-----------2---2------|
D|2-------2-----------2----2-----|2-------2-----------2---2------|
A|2-------2-----------2----2-----|0-------0-----------0---0------|
E|0-------0-----------0----0-----|-------------------------------|
  
e|------- ------- ------- -------|------- ------- 5------ -------|
B|-------------------------------|----------------5--------------|
G|-------------------------------|----------------6--------------|
D|6---------------4-------6------|7------------------------------|
A|-------------------------------|-------------------------------|
E|4---------------2-------4------|5------------------------------|




  E
e|0------ 0------ ----0-- 0------|0------ 0------ ----0-- 0------|
B|0-------0-----------0---0------|0-------0-----------0---0------|
G|1-------1-----------1---1------|1-------1-----------1---1------|
D|2-------2-----------2---2------|2-------2-----------2---2------|
A|2-------2-----------2---2------|2-------2-----------2---2------|
E|0-------0-----------0---0------|0-------0-----------0---0------|
  Fallin',                                yes     I   am


  D
e|2------ 2------ ----2-- 2------|2------ 2------ ----2-- 2------|
B|3-------3-----------3---3------|3-------3-----------3---3------|
G|2-------2-----------2---2------|2-------2-----------2---2------|
D|0-------0-----------0---0------|0-------0-----------0---0------|
A|-------------------------------|-------------------------------|
E|-------------------------------|-------------------------------|
  fallin'                                 and     she keeps 

  A                               D
e|0------ 0------ ----0-- 0------|2------ 2------ ----2-- 2------|
B|2-------2-----------2---2------|3-------3-----------3---3------|
G|2-------2-----------2---2------|2-------2-----------2---2------|
D|2-------2-----------2---2------|0-------0-----------0---0------|
A|0-------0-----------0---0------|-------------------------------|
E|-------------------------------|-------------------------------|
  callin'                                 me      back    again


  A
e|0------ 0------ 0---0-- 0------|0------ ----0-- ----0-- 0------|
B|2-------2-------2---2---2------|2-----------2-------2---2------|
G|2-------2-------2---2---2------|2-----------2-------2---2------|
D|2-------2-------2---2---2------|2-----------2-------2---2------|
A|0-------0-------0---0---0------|0-----------0-------0---0------|
E|-------------------------------|-------------------------------| 





 
e|0------ 0------ ----0-- 0------|0------ 0------ ----0-- 0------|
B|2-------2-----------2---2------|2-------2-----------2---2------|
G|2-------2-----------2---2------|2-------2-----------2---2------|
D|2-------2-----------2---2------|2-------2-----------2---2------|
A|0-------0-----------0---0------|0-------0-----------0---0------|
E|-------------------------------|-------------------------------|
   I've    just    seen a      face,       I       can't   for....
e|------- ------- ------- -------|------- ------- ------- -------|
B|-------------------------------|-------------------------------|
G|6---------------7--------------|6------------------------------|
D|-------------------------------|----------------9--------------|
A|4---------------5--------------|4------------------------------|
E|-------------------------------|----------------7--------------|





  
e|0------ 0---0-- 0---0-- 0------|0------ 0---0-- 0---0-- 0---0--|
B|2-------2---2---2---2---2------|2-------2---2---2---2---2---2--|
G|2-------2---2---2---2---2------|2-------2---2---2---2---2---2--|
D|2-------2---2---2---2---2------|2-------2---2---2---2---2---2--|
A|0-------0---0---0---0---0------|0-------0---0---0---0---0---0--|
E|-------------------------------|-------------------------------|
  get     the time        or      place   where   we just 
e|------- ------- ------- -------|------- ------- ------- -------|
B|-------------------------------|-------------------------------|
G|-------------------------------|-------------------------------|
D|7---------------2--------------|7---------------6--------------|
A|-------------------------------|-------------------------------|
E|5---------------0--------------|5---------------4--------------|




  F#m 
e|2------ 2---2-- 2---2-- 2------|2------ 2---2-- 2---2-- 2------|
B|2-------2---2---2---2---2------|2-------2---2---2---2---2------|
G|2-------2---2---2---2---2------|2-------2---2---2---2---2------|
D|4-------4---4---4---4---4------|4-------4---4---4---4---4------|
A|4-------4---4---4---4---4------|4-------4---4---4---4---4------|
E|2-------2---2---2---2---2------|2-------2---2---2---2---2------|
   met.    She's   just    the girl        for me          and
e|------- ------- ------- -------|------- ------- ------- -------|
B|-------------------------------|-------------------------------|
G|----------------6--------------|----------------6--------------|
D|4------------------------------|4------------------------------|
A|----------------4--------------|----------------4--------------|
E|2------------------------------|2------------------------------|





  
e|2------ 2---2-- 2---2-- 2------|2------ 2---2-- 2------ 2------|
B|2-------2---2---2---2---2------|2-------2---2---2-------2------|
G|2-------2---2---2---2---2------|2-------2---2---2-------2------|
D|4-------4---4---4---4---4------|4-------4---4---4-------4------|
A|4-------4---4---4---4---4------|4-------4---4---4-------4------|
E|2-------2---2---2---2---2------|2-------2---2---2-------2------|
  I       want    all    the world        to see          we've
e|------- ------- ------- -------|------- ------- ------- -------|
B|-------------------------------|-------------------------------|
G|----------------6--------------|11--------------9--------------|
D|4------------------------------|-------------------------------|
A|----------------4--------------|-9--------------7--------------|
E|2------------------------------|-------------------------------|



  D 
e|2------ 2---2-- 2---2-- 2------|2------ 2------ 2---2-- 2------|
B|3-------3---3---3---3---3------|3-------3-------3---3---3------|
G|2-------2---2---2---2---2------|2-------2-------2---2---2------|
D|0-------0---0---0---0---0------|0-------0-------0---0---0------|
A|-------------------------------|-------------------------------|
E|-------------------------------|-------------------------------|
  met                             Mmmmmmmmmmmmmmmmmmmmmmmmmmmmmmm
e|------- ------- ------- -------|------- ------- ------- -------|
B|-------------------------------|-------------------------------|
G|7------------------------------|7---------------6--------------|
D|-------------------------------|-------------------------------|
A|5------------------------------|5---------------4--------------|
E|-------------------------------|-------------------------------|




  E                               A
e|0------ 0------ 0---0-- -0-----|0------ 0------ ----0-- 0------|
B|0-------0-------0---0----0-----|2-------2-----------2---2------|
G|1-------1-------1---1----1-----|2-------2-----------2---2------|
D|2-------2-------2---2----2-----|2-------2-----------2---2------|
A|2-------2-------2---2----2-----|0-------0-----------0---0------|
E|0-------0-------0---0----0-----|-------------------------------|
  mmmmmmmmmmmmmmm di- di      di
e|------- ------- ------- -------|------- ------- ------- -------|
B|-------------------------------|-------------------------------|
G|-------------------------------|-------------------------------|
D|9---------------7-------6------|7------------------------------|
A|-------------------------------|-------------------------------|
E|7---------------5-------4------|5------------------------------|



  E
e|0------ 0------ ----0-- 0------|0------ ----0-- ----0-- 0------|
B|0-------0-----------0---0------|0-----------0-------0---0------|
G|1-------1-----------1---1------|1-----------1-------1---1------|
D|2-------2-----------2---2------|2-----------2-------2---2------|
A|2-------2-----------2---2------|2-----------2-------2---2------|
E|0-------0-----------0---0------|0-----------0-------0---0------|
  Fallin',                                yes     I   am


  D
e|2------ 2------ 3-P-2-- -------|2------ ------- 3------ -------|
B|3-------3-------3--------------|3---------------3--------------|
G|2-------2-------2--------------|2---------------2--------------|
D|0-------0-------0--------------|0---------------0--------------|
A|-------------------------------|-------------------------------|
E|-------------------------------|-------------------------------|
  fallin'                                 and     she keeps 


  A                               D
e|0------ 0------ 0---0-- 0------|2------ 2------ ------- 3------|
B|2-------2-------2---2---2------|3-------3---------------3------|
G|2-------2-------2---2---2------|2-------2---------------2------|
D|2-------2-------2---2---2------|0-------0---------------0------|
A|0-------0-------0---0---0------|-------------------------------|
E|-------------------------------|-------------------------------|
  callin'                                 me      back    again


  A
e|0------ 0------ 0---0-- 0------|0------ ----0-- ----0-- 0------|
B|2-------2-------2---2---2------|2-----------2-------2---2------|
G|2-------2-------2---2---2------|2-----------2-------2---2------|
D|2-------2-------2---2---2------|2-----------2-------2---2------|
A|0-------0-------0---0---0------|0-----------0-------0---0------|
E|-------------------------------|-------------------------------| 
                                                              Fa..


  E
e|0------ 0------ ----0-- 0------|0------ 0------ 0---0-- 0------|
B|0-------0-----------0---0------|0-------0-------0---0---0------|
G|1-------1-----------1---1------|1-------1-------1---1---1------|
D|2-------2-----------2---2------|2-------2-------2---2---2------|
A|2-------2-----------2---2------|2-------2-------2---2---2------|
E|0-------0-----------0---0------|0-------0-------0---0---0------|
  ........llin',                          yes     I   am


  D
e|2------ 2------ 3-P-2-- -------|2------ 2------ 2---2-- 2------|
B|3-------3-------3--------------|3-------3-------3---3---3------|
G|2-------2-------2--------------|2-------2-------2---2---2------|
D|0-------0-------0--------------|0-------0-------0---0---0------|
A|-------------------------------|-------------------------------|
E|-------------------------------|-------------------------------|
  fallin'                                 and     she keeps 


  A                               D
e|0------ 0------ 0---0-- 0------|3-P-2-- ----2-- ----2-- 2------|
B|2-------2-------2---2---2------|3-----------3-------3---3------|
G|2-------2-------2---2---2------|2-----------2-------2---2------|
D|2-------2-------2---2---2------|0-----------0-------0---0------|
A|0-------0-------0---0---0------|-------------------------------|
E|-------------------------------|-------------------------------|
  callin'                                 me      back    again



  A    
e|0------ 0------ ----0-- 0------|0------ ----0-- ----0-- 0---0--|
B|2-------2-----------2---2------|2-----------2-------2---2---2--|
G|2-------2-----------2---2------|2-----------2-------2---2---2--|
D|2-------2-----------2---2------|2-----------2-------2---2---2--|
A|0-------0-----------0---0------|0-----------0-------0---0---0--|
E|-------------------------------|-------------------------------| 
                                                          Oh,
e|------- ------- ------- -------|------- ------- ------- -------|
B|-------------------------------|-------------------------------|
G|-------------------------------|-------------------------------|
D|-------------------------------|--------7-------6-------4------|
A|-------------------------------|-------------------------------|
E|-------------------------------|--------5-------4-------2------|




  E
e|0------ 0------ ----0-- 0------|0------ 0------ ----0-- 0------|
B|0-------0-----------0---0------|0-------0-----------0---0------|
G|1-------1-----------1---1------|1-------1-----------1---1------|
D|2-------2-----------2---2------|2-------2-----------2---2------|
A|2-------2-----------2---2------|2-------2-----------2---2------|
E|0-------0-----------0---0------|0-------0-----------0---0------|
          Fallin',                        yes     I   am
e|------- ------- ------- -------|------- ------- ------- -------|
B|-------------------------------|-------------------------------|
G|-------------------------------|-------------------------------|
D|2------------------------------|-------------------------------|
A|-------------------------------|-------------------------------|
E|0------------------------------|-------------------------------|



  D
e|2------ 2------ ----2-- 2------|2------ ----2-- ----2-- 2------|
B|3-------3-----------3---3------|3-----------3-------3---3------|
G|2-------2-----------2---2------|2-----------2-------2---2------|
D|0-------0-----------0---0------|0-----------0-------0---0------|
A|-------------------------------|-------------------------------|
E|-------------------------------|-------------------------------|
  fallin'                                 and     she keeps 


  A                               D
e|0------ 0------ ----0-- 0------|2------ ------- ----2-- 2------|
B|2-------2-----------2---2------|3-------------------3---3------|
G|2-------2-----------2---2------|2-------------------2---2------|
D|2-------2-----------2---2------|0-------------------0---0------|
A|0-------0-----------0---0------|-------------------------------|
E|-------------------------------|-------------------------------|
  callin'                                 me      back    again


                                  E
e|2------ 2------ ----2-- 2------|0------ 0------ ----0-- 0------|
B|3-------3-----------3---3------|0-------0-----------0---0------|
G|2-------2-----------2---2------|1-------1-----------1---1------|
D|0-------0-----------0---0------|2-------2-----------2---2------|
A|-------------------------------|2-------2-----------2---2------|
E|-------------------------------|0-------0-----------0---0------|

e|------- ------- ------- -------|------- ------- ------- -------|
B|-------------------------------|-------------------------------|
G|7---------------6--------------|-------------------------------|
D|-------------------------------|9---------------7-------6------|
A|5---------------4--------------|-------------------------------|
E|-------------------------------|7---------------5-------4------|



  A
e|0------ ------- ------- -------|------- ------- ------- -------|
B|2------------------------------|-------------------------------|
G|2------------------------------|-------------------------------|
D|2------------------------------|-------------------------------|
A|0------------------------------|-------------------------------|
E|-------------------------------|-------------------------------|
                 (.
e|------- ------- 5------ -------|------- ------- ------- -------|
B|----------------5--------------|-------------------------------|
G|----------------6--------------|-------------------------------|
D|7------------------------------|-------------------------------|
A|-------------------------------|-------------------------------|
E|5------------------------------|-------------------------------|


        B  Bend
        R  Release
        /  slide up
        \  slide down
        H  hammer-on
        P  pull-off
        ~  vibrato
        +  harmonic
        x  Mute note
        . - play note like a dot in standard notation
        ^ - ties two notes together
        (. Pause
comments
print report bad tab
4 comments total. Showing first comments.
+1 reply
stoneman44 wrote on March 11 2008, 08:01 am

great tab by a great man

0 reply
noxusrules wrote on January 13 2009, 12:33 pm

Dude, all you're tabs ruleZ!!!! Keep them coming!!!

0 reply
nrrjw wrote on May 4 2010, 08:02 pm

Please talk to me, PJ.

I want to post or [tab]
guest
You may want to rate the tab now too:
select rating
Please do not post tabs as comments. Select "correction" instead!