Oops, an error
Loading. Please wait.

Lady Madonna Bass Tab

ver5
ver5
More versions @911Tabs.com
10,322 views 22 this week
1 commentread comment
1 2 3 4 5
accurate
x 6
Autoscroll
+/-
esc
set tempo
stop
Contributor
WARNING: You are trying to view
                                    content from Ultimate-Guitar.com
                                    in an unauthorized application,
                                    which is prohibited.

                                    Please use an official Ultimate
                                    Guitar Tabs application for iPhone,
                                    iPad or Android to access legitimate
                                    chords, guitar, bass, and drum tabs
                                    from Ultimate-Guitar.com database.

                                    Type "ultimate guitar tabs" in Apple
                                    App Store's or Android Market's
                                    search to find the application.
    ------------------------------------------------------------
  
     THE BEATLES - LADY MADONNA (Lennon & McCartney) Released as 
                   a single with THE INNER LIGHT as flip side on 
                   15th March 1968.

    ------------------------------------------------------------

     Bass tab by:PJVillanueva





                                     
    Lady Madonna, children at your feet 
    Wonder how you manage to make ends meet 
    Who finds the money when you pay the rent 
    Did you think that money was heaven sent 

    Friday night arrives without a suitcase 
    Sunday morning creeping like a nun 
    Monday's child has learned to tie his bootlegs 
    See how they run 

    Lady Madonna, baby at your breast 
    Wonders how you manage to feed the rest 
    Pa pa pa pa ... 
    See how they run 

    Lady Madonna lying on the bed 
    Listen to the music playing in your head 

    Tuesday afternoon is never ending 
    Wednesday morning papers didn't come 
    Thursday night you stocking needed mending 
    See how they run 

    Lady Madonna, children at your feet 
    Wonder how you manage to make ends meet 





  G|------- ------- ------- -------|------- ------- ------- -------|
  D|-------------------------------|-------------------------------|
  A|-------------------------------|-------------------------------|
  E|-------------------------------|-------------------------------|




  G|------- ------- ------- -------|------- ------- ------- -------|
  D|-------------------------------|-------------------------------|
  A|-------------------------------|------------------------------0|
  E|-------------------------------|-------------------------------|



      00:09
  G|------- ------- ------- ----2--|------- ------- ------- ----2--|
  D|------------------------3/4----|------------------------3/4----|
  A|0---0---3---4-0-5---5----------|0---0---3---4-0-5---5----------|
  E|-------------------------------|-------------------------------|
    Lady        Madonna,            children    your  
                                       at          feet



  G|------- ------- ------- -------|------- ------- ------- -------|
  D|-------------------------------|--------5---5-5-7---7---7------|
  A|0---0---3---4-0-5---5---7---7--|8---8-----------------------7-\|
  E|-------------------------------|-------------------------------|
    Wonder  how you manage  to  make    ends    meet 



    00:17
  G|------- ------- ------- ----2--|------- ------- ------- ----2--|  
  D|------------------------3/4----|------------------------3-4----|
  A|0---0---3-3-4---5---5----------|0---0---3---4-0-5---5----------|
  E|-------------------------------|-------------------------------|
    Who finds  the                  when    pay   rent 
                  money                you     the



  G|------- ------- ------- -------|------- ------- ------- -------|
  D|-------------------------------|--------5---5-/-7---7---7------|
  A|0---0---3---4-0-5---5---7---7--|8---8-----------------------7-\|
  E|-------------------------------|-------------------------------|
    Did you think   money was       heaven      sent 
                that



    00:26
  G|------- ------- ------- -------|------- ------- ------- -------|
  D|----------------------------7--|5---5--------------------------|
  A|5---5--------------------------|--------8---8---7---7---5---5--|
  E|--------8---8---7---7---5------|-------------------------------|
    Friday      arrives without a   suitcase 
          night



  G|------- ------- ------- -------|------- ------- ------- -------|
  D|-------------------------------|-------------------------------|
  A|3---3---2---2------------------|----0-------------------7---7--|
  E|----------------5---5---3---3-/|5-------7---7---8---8----------| 
    Sunday          creeping    a   nun
          morning           like 



  G|------- ------- ------- -------|------- ------- ------- -------|
  D|----------------------------7--|5---5--------------------------|
  A|5---5--------------------------|--------8---8---7---7---5---5--|
  E|--------8---8---7---7---5------|-------------------------------|
    Monday's    has learned     his bootlegs 
            child       to  
                          tie


    00:39
  G|------- ------- ------- -------|------- ------- ------- -------|
  D|-------------------------------|2------------------------------|
  A|3---------------2--------------|-------------------------------|
  E|-------------------------------|----------------0--------------|
    See             how     they    run



    00:44
  G|------- ------- ------- ----2--|------- ------- ------- ----2--|
  D|------------------------3-4----|------------------------3-4----|
  A|0---0---3---4-0-5---5----------|0---0---3---4-0-5---5----------|
  E|-------------------------------|-------------------------------|
    Lady        Madonna,            baby  at    your breast 



  G|------- ------- ------- -------|------- ------- ------- -------|
  D|-------------------------------|--------5---5-/-7---7---7------|
  A|0---0---3---4-0-5---5---7---7--|8---8-----------------------7-\|
  E|-------------------------------|-------------------------------|
    Wonder  how     manage  to  feed        the rest 
                you



    00:53
  G|------- ------- ------- ----2--|------- ------- ------- ----2--|
  D|------------------------3/4----|------------------------3/4----|
  A|0---0---3---4-0-5---5----------|0-0-0---3---4-0-5---5----------|
  E|-------------------------------|-------------------------------|




  G|------- ------- ------- -------|------- ------- ------- -------|
  D|-------------------------------|--------5---5-5-7---7---7------|
  A|0---0---3---4-0-5---5---7---7--|8---8-----------------------7--|
  E|-------------------------------|-------------------------------|


   
    SAX SOLO
    01:02
  G|------- ------- ------- -------|------- ------- ------- -------|
  D|-------------------------------|5---5--------------------------|
  A|5------------------------------|--------8---8---7---7---5---5--|
  E|--------8-------7-------5------|-------------------------------| 




  G|------- ------- ------- -------|------- ------- ------- -------|
  D|-------------------------------|-------------------------------|
  A|3---3---2---2------------------|------------5-------7-------3-/|
  E|----------------5-------3------|5---7---8----------------------|




  G|------- ------- ------- -------|------- ------- ------- -------|
  D|------------------------7------|5---5--------------------------|
  A|5------------------------------|--------8---8---7---7---5---5--|
  E|--------8---8---7---7----------|-------------------------------|




    01:14
  G|------- ------- ------- -------|------- ------- ------- -------|
  D|-------------------------------|2---------------2-------2------|
  A|3---------------2--------------|-------------------------------|
  E|-------------------------------|-------------------------------|
    See             how     they    run



    01:19
  G|------- ------- ------- ----2--|------- ------- ------- ----2--|
  D|------------------------3/4----|------------------------3-4----|
  A|0---0---3---4-0-5---5----------|0---0---3---4-0-5---5----------|
  E|-------------------------------|-------------------------------|
    Lady        Madonna             lying   on the 
                                                  bed 


  G|------- ------- ------- -------|------- ------- ------- -------|
  D|-------------------------------|--------5---5-/-7---7---7------|
  A|0---0---3---4-0-5---5---7---7--|8---8-x---------------------7-\|
  E|-------------------------------|-------------------------------|
    Listen  to  the         playing in  your    head
                  music 


    01:28
  G|------- ------- ------- ----2--|------- ------- ------- ----2--|
  D|------------------------3-4----|------------------------3-4----|
  A|0---0---3---4-0-5---5----------|0---0---3---4-0-5---5----------|
  E|-------------------------------|-------------------------------|




  G|------- ------- ----7-- ----9--|----10- ------- ------- -------|
  D|-------------------------------|--------5---5-/-7---7---7------|
  A|0---0---3---4-0-5-------7------|8---------------------------7-\|
  E|-------------------------------|-------------------------------|




    01:36
  G|------- ------- ------- -------|------- ------- ------- -------| 
  D|----------------------------7--|5---5-----------------------0--|
  A|5---5--------------------------|--------8---8---7---7---5------|
  E|--------8---8---7---7---5------|-------------------------------|
    Tuesday afternoon   is  never   
                                ending 
   (Pa pa   pa pa           pa pa   pa pa   pa)


  G|------- ------- ------- -------|------- ------- ------- -------|
  D|-------------------------------|-------------------------------|
  A|3---3---2---2-------0----------|----0-------------------7---7--|
  E|----------------5-------3---3-/|5-------7---7---8---8----------|
    Wednesday       papers  didn't  
          morning                 come
   (Pa pa   pa pa           pa pa   pa      pa pa      pa   pa)


  G|------- ------- ------- -------|------- ------- ------- -------| 
  D|----0-----------------------7--|5---5--------------------------|
  A|5------------------------------|--------8---8---7---7---5---5--|
  E|--------8---8---7---7---5------|-------------------------------|
    Thursday    your        needed  mending 
          night     stockings
   (Pa pa   pa pa           pa pa   pa pa   pa) 


    01:49
  G|------- ------- ------- -------|------- ------- ------- -------|
  D|-------------------------------|2---------------2---2----------|
  A|3---------------2--------------|-------------------------------|
  E|-------------------------------|----------------------------0--|
    See             how     they    run 



    01:54
  G|------- ------- ------- ----2--|------- ------- ------- ----2--|
  D|------------------------3/4----|------------------------3-4----|
  A|0---0---3---4-x-5---5----------|0---0---3---4-x-5---5----------| 
  E|-------------------------------|-------------------------------|
    Lady       Madonna,             children    your 
                                          at        feet 



  G|------- ------- ----7-- ----9--|----10- -------|
  D|-------------------------------|--------5---5--|
  A|0---0---3---4-0-5-------7------|8--------------|
  E|-------------------------------|---------------|
    Wonder  how you manage  to  make    ends    meet 


                                                        x x x x x
                                               (.
  G|------- ------- ------- -------|------- ------- ------- -------|
  D|7------------------------------|-------------------------------|
  A|----0---0-0-0---2---2---2---2--|2B3-----2---0------------------|
  E|-------------------------------|-------------------------------|



                                               (.
  G|------- ------- ------- -------|------- ------- ------- -------|
  D|-------------------------------|-------------------------------|
  A|-------------------------------|3-------2---0------------------|
  E|-------------------------------|-------------------------------|








        B  Bend
        R  Release
        /  slide up
        \  slide down
        H  hammer-on
        P  pull-off
        ~  vibrato
        +  harmonic
        x  Mute note
        . - play note like a dot in standard notation
        ^ - ties two notes together
        (.  Pause


comments
print report bad tab
1 comment total.
0 reply
Beatles_Lover13 wrote on March 29 2012, 09:14 pm

on the main riff you have 4 0 5 but that 0 shouldnt be there.

I want to post or [tab]
guest
You may want to rate the tab now too:
select rating
Please do not post tabs as comments. Select "correction" instead!