Oops, an error
Loading. Please wait.

Let It Be Tab

ver1
583,949 views 694 this week
5 commentsread comments
1 2 3 4 5
accurate
x 17
Autoscroll
+/-
esc
set tempo
stop
Contributor
Hey! There's an official Ultimate Guitar app which is ideal
for learning songs when you're away from computer. Get the app
WARNING: You are trying to view
                                    content from Ultimate-Guitar.com
                                    in an unauthorized application,
                                    which is prohibited.

                                    Please use an official Ultimate
                                    Guitar Tabs application for iPhone,
                                    iPad or Android to access legitimate
                                    chords, guitar, bass, and drum tabs
                                    from Ultimate-Guitar.com database.

                                    Type "ultimate guitar tabs" in Apple
                                    App Store's or Android Market's
                                    search to find the application.
Let It Be
Album


1. Two Of Us
2. Dig A Pony
3. Across The Universe
4. I Me Mine
5. Dig It
6. Let It Be
7. Maggie Mae
8. I've Got A Feeling
9. One After 909
10. The Long And Winding Road
11. For You Blue
12. Get Back

========================================================================


            Two Of Us


Intro:
   (no chord)
-|-----7-----7~--7-----------7-----7~--7-----------------------|
-|-------------------------------------------------------------|
-|--7-----7---------7--9--7-----7---------7--9-----------------|
-|-------------------------------------------------------------|
-|-------------------------------------------------------------|
-|-------------------------------------------------------------|

     G
-|-------------------------------------------------------------|
-|-------------------------------------------------------------|
-|-------------------------------------------------------------|
-|----------5---------------5-----5---------------5------------|
-|------------------5--5/7----------------5--5/7---------------|
-|---3---------5/7-------------3-----5/7-----------------------|


Verse:
    G
-|--------------------------------------------------------------|
-|--------------------------------------------------------------|
-|--------------------------------------------------------------|
-|----------5---------------5-----5---------------5-----5-------|
-|------------------5--5/7----------------5--5/7----------------|
-|---3---------5/7-------------3-----5/7-------------3----------|
    Two of us  ri-----ding nowhere  spen------------------------|ding  someone's

    C     Bm     Am7
-|-------------------------------------------------------------|
-|-------------------------------------------------------------|
-|-------------------------------------------------------------|
-|-------------------------------------------------------------|
-|--3--3--2--2---0-----0---------------------------------------|
-|------------------3-----3--2---------------------------------|
   Hard   earned pay

    G
-|--------------------------------------------------------------|
-|--------------------------------------------------------------|
-|--------------------------------------------------------------|
-|----------5---------------5-----5---------------5-----5-------|
-|------------------5--5/7----------------5--5/7----------------|
-|---3---------5/7-------------3-----5/7-------------3----------|
    You and me Sun-----day   driving not     ar-----------------|riving

    C     Bm     Am7             G              D
-|-------------------------------------------------------------|
-|-------------------------------------------------------------|
-|-------------------------------------------------------------|
-|-------------------------------------------------------------|
-|--3--3--2--2---0-----0------------------2--3--5--------------|
-|------------------3-----3--2---3--2--3-----------------------|
   On     our    way      back  home


----------------------------------------------------------

TWO OF US

  G
Two of us riding nowhere
                  Cadd9    Bm   Am7
Spending someone's hard  earned pay.
 G
You and me Sunday driving, not arriving
Cadd9  Bm  Am7       G    G\D  Cadd9  D
On     our way back home
            Cadd9    G    G\D  Cadd9  D
We're on our way    home
            Cadd9    G    G\D  Cadd9
We're on our way    home
      Cadd9   G
We're going  home.


 G
Two of us sending postcards
               Cadd9  Bm Am7
Writing letters on    my wall
G
You and me burning matches, lifting latches
Cadd9  Bm  Am7       G   G\D  Cadd9  D
On     our way back home
             Cadd9   G   G\D  Cadd9  D
We're on our way    home
            Cadd9    G   G\D  Cadd9
We're on our way    home
      Cadd9 G
We're going home.


Bb               Dm
You and I have memories
  Gm             Am                 Am7       D
Longer than the road that stretches out ahead


G
Two of us wearing raincoats
             Cadd9  Bm  Am7
Standing solo in    the sun.
 G
You and me chasing paper, getting nowhere
Cadd9  Bm  Am7       G   G/D  Cadd9  D
On     our way back home
            Cadd9   G   G/D  Cadd9  D
We're on our way   home
            Cadd9   G   G/D  Cadd9
We're on our way   home
      Cadd9   G
We're going  home.

Bb             Dm
You and I have memories
Gm               Am                  Am7      D
Longer than the road that stretches out ahead

 G
Two of us wearing raincoats
             Cadd9  Bm  Am7
Standing solo in    the sun.
G
You and me chasing paper, getting nowhere
Cadd9  Bm  Am7       G   G/D  Cadd9  D
On     our way back home
D            Cadd9   G   G/D  Cadd9  D
We're on our way    home
D            Cadd9   G   G/D  Cadd9
We're on our way    home
      Cadd   G
We're going home.

[

========================================================================


	I Dig A Pony

False start:
    A-one-two-three HOLD IT!
-|------------------------------|
-|------------------------------|
-|------------------------------|
-|------------------------------|
-|------------------------------|
-|---------------------------3--|


Intro (also use as ending):
    G                 D
-|--------------------------------------|
-|--------------------------------------|
-|-----------------------------4--7--4--|
-|-----------2--5--2-----4--7-----------|
-|-----2--5-----------5-----------------|
-|--3-----------------------------------|

    A
-|-------------------------------------------------|
-|-------------------------------------------------|
-|-----------------------------2-------------------|  (repeat)
-|--5--5--5---------2--h3--h4-----4--2---------2---|
-|--0--0--0--3--h4----------------------3--h4------|
-|-------------------------------------------------|


Verse:
    I                          dig a pony
    A      F#m
-|--5--5----5--5----5--5----5----------2--|
-|--2--2h3--2--2h3--2--2h3--2----------2--|
-|--2--2----2--2----2--2----2----------2--|
-|--2--2h4--2--2h4--2--2h4--2----------4--|
-|--0--0----0--0----0--0----0----------4--|
-|-------------------------------------2--|

            Well you can celebrate any thing you want (*)   yes
                           Bm           G
-|------------------------------------------------3--5--5/7--5--|
-|--------------------------------------------------------------|
-|------------------------------------------------4--5--5/7--5--|
-|--2h4--2------------------------------------------------------|
-|---------------4-------2--------------------------------------|
-|--------------------------------------------------------------|

    You can celebrate any thing you want          oh
             Bm            G           E7                  A
-|--3--------2-------------3-------------0--2--4--5--7--8--9-------|
-|-----------------------------------------------------------------|
-|--4--------4-------------4-------------1--2--4--6--7--8--9-------|
-|-----------------------------------------------------------------|
-|-----------------------------------------------------------------|
-|-----------------------------------------------------------------|

A        F#m
I do a roadhog
               Bm           G
Well you can penetrate any place you go
               Bm           G
Yes you can penetrate any place you go

          I told you so
    E7
-|--9--7-----4----2--0----|
-|------------------------|
-|--9--7-----4----2--1----|
-|------------------------|
-|------------------------|
-|------------------------|

    All   I  want  is you
    G        D        A
-|------------------------------------------------------------------|
-|------------------------------------------------------------------|
-|------------------------------------------------------------------|
-|-----------------------------------------------2------------------|
-|-----2--5--------5--5--5--5---------2--h3--h4-----4--2---------2--|
-|--3--------2--5-----0--0--0--3--h4----------------------3--h4-----|

    Everything has got to be the way you want it to ... because
    G                 D
-|---------------------------------------------------|
-|---------------------------------------------------|
-|-----------------------------------4---7----4------|
-|-------------2---5---2-----4---7---------------5---|
-|-----2--5---------------5----------------------0---|
-|--3------------------------------------------------|


Verse:
I pick a moondog
Well you can radiate every thing you are
Yes you can radiate every thing you are
I wrote a story
Well ou can imitate everyone you know
Yes you can imitate everyone you know
I told you so
All I want is you
Everything has got to be the way you want it to.
Because...


Guitar solo:
    A                                                              F#m
-|----------------------------------------------------14---------------|
-|-----------------10--12--p10------12b(14)--12b(14)------b(14)12------|
-|--9--11--p9-------------------11---------------------------------11--|
-|-------------11------------------------------------------------------|
-|---------------------------------------------------------------------|
-|---------------------------------------------------------------------|

             Bm              G
-|---------------------------------------------------------------------|
-|--10--12--12b(15)--(15)--b(15)12-------------------------------------|
-|----------------------------------10--12b(14)12--10------------------|
-|---------------------------------------------------------------------|
-|---------------------------------------------------------------------|
-|---------------------------------------------------------------------|

     Bm              G             E7
-|-------------------------------------0------14------16--14--12-------|
-|--12b(15)--(15)--b(15)12---------------------------------------------|
-|--------------------------12--12/13-----14------16------14--13-------|
-|---------------------------------------------------------------------|
-|---------------------------------------------------------------------|
-|---------------------------------------------------------------------|


Verse:
I fell the wind blow
Well you can indicate everything you see
Yes you can indicate anything you see
I wrote a lorry (??? you tell me ???)
Well you can syndicate any boat you row
Yes you can syndicate any boat you row
I told you so
All I want is you
Everything has got to be the way you want it to.
Because...


Ending is same as intro:

----------------------------
Miscellaneous info:

Note this figure played over the A chord in the verses.
John was really into this around the "Let It Be" years.
This is also the basis of the intro and main rhythm part
for "I've Got A Feeling."

-|--5---5----|
-|--2--h3----|
-|--2---2----|
-|--2--h4----|
-|--0---0----|
-|-----------|


========================================================================


		   ACROSS THE UNIVERSE
                           (Lennon/McCartney)
          		      The Beatles
                            Let It Be (1970)


This is Across the universe as I believe John originally played it.
The song was sped up for inclusion on the World Wildlife Fund album
(as heard on Past Masters volume II), and then slowed down again for
the Let It Be album.  When Phil Spector (producer of Let It Be) slowed
the song down, he actually brought the song down a half step; from D
to roughly C#.  You can play along with the album by playing in C#,
tuning your guitar down a half step and playing in D, or using a capo
on the first fret and playing in C. Here it is in original form in D...


Intro :

|-2----/10----9--7--5---------------------------------------------------|
|---------------------7--2--2--2--2--2--2--2--2--------------2----------|
|-2----/11----9--7--6----2--4--2--4--2--4--2--4--2--4--2--4--2--4--2--4-|
|---0------0-------------4--4--4--4--4--4--4--4--2--2--2--2--2--2--2--2-|
|------------------------x--x--x--x--x--x--x--x--0-----0-----0-----0----|
|------------------------2-----2-----2-----2----------------------------|


     D                 Bm               F#m
   Words are flowing out like endless rain into a paper cup
    Em7                                    A                 A7
   They slither while they pass they slip away across the Universe.
     D               Bm               F#m
   Pools of sorrow, waves of joy are drifting through my opened mind
    Em7              Gm
   Possessing and caressing me.


    D             A7
   Jai Guru Deva Om
    A7
   Nothing's gonna change my world
    G			        D
   Nothing's gonna change my world
    A7
   Nothing's gonna change my world
    G			        D
   Nothing's gonna change my world


     D         Bm	           F#m	                         Em7
   Images of broken light which dance before me like a million eyes
                               A          A7
   They call me on and on across the Universe.
     D               Bm	      F#m
   Thoughts meander like a restless wind inside a letterbox
         Em7			             A                A7
   They tumble blindly as they make their way across the Universe.


    D              A7
   Jai Guru De Va  Om
    A7
   Nothing's gonna change my world
    G                          D
   Nothing's gonna change my world
    A7
   Nothing's gonna change my world
    G                          D
   Nothing's gonna change my world


    D                   Bm	               F#m
   Sounds of laughter, shades of earth are ringing through my opened ears
    Em7	    Gm
   Inciting and inviting me.
    D	           Bm		    F#m			           Em7
   Limitless, undying love which shines around me like a million suns
                             A          A7
   And calls me on and on across the Universe.


    D              A7
   Jai Guru De Va  Om
    A7
   Nothing's gonna change my world
    G                          D
   Nothing's gonna change my world
    A7
   Nothing's gonna change my world
    G                          D
   Nothing's gonna change my world


    D
   Jai Guru Deva.  (Repeat and fade)


========================================================================

	                     I Me Mine

by George Harrison
from Let It Be

Intro  riff:
  Am                           D
E|----------------------------|----------5--------8----10----|
B|----------------------------|5----8------------------------|
G|------------------------5h7-|------------------------------|
D|--------------------5h7-----|------------------------------|
A|----------------------------|------------------------------|
E|5---------------------------|------------------------------|
  G            E7
E|10b11-------------8----10----|
B|-----------------------------|
G|-----------------------------|
D|-----------------------------|
A|-----------------------------|
E|-----------------------------|

Verse:
Am                        D7
All______ through the day
         G          E          Am
I me mine, I me mine, I me mine___
Am                         D7
All______ through the night
         G          E          Am
I me mine, I me mine, I me mine___


Pre-Chorus:
            Dm
Now they're frightened of leaving it

Everyone's reading it
E7
Coming on strong all the time
Am   Am7
All through the day
Am6             Fmaj7
I, me, mine_____


Chorus:
Am
I me me mine____

I me me mine____
Dm
I me me mine____
Am               E7
I me me mine____


Verse:
Am                  D7
All______ I can hear
         G          E          Am
I me mine, I me mine, I me mine___
Am              D7
Even those tears
         G          E          Am
I me mine, I me mine, I me mine___


Pre-Chorus:
         Dm
No one's frightened of playing it

Everyone's saying it
E7
Flowing more freely than wine
Am   Am7
All through the day
Am6              Fmaj7
I, me, mine_____


Chorus:
Am
I me me mine____

I me me mine____
Dm
I me me mine____
Am               E7
I me me mine____


Verse:
Am                  D7
All______ I can hear
         G          E          Am
I me mine, I me mine, I me mine___
Am              D7
Even those tears
         G          E          Am
I me mine, I me mine, I me mine___


Pre-Chorus:
         Dm
No one's frightened of playing it

Everyone's saying it
E7
Flowing more freely than wine
Am   Am7
All through the day
Am6              Fmaj7
I, me, mine_____


Ending:
Am   Am7
All through the life
                 Fmaj7
I, me, mine_____


CHORDS:

Am- X02210
Amaj7- X02120
Am6- XXX553
Am7- X02010
D- XX0232
D7- XX0212
Dm- XX0231
E- 022100
E7- 020100
Fmaj7- 1X2210
G- 320011


========================================================================


DIG IT


The chords (all open form): D - A - D - E  (over and over...)


...like a rolling stone...

...like a rolling stone...

...like a rolling stone...

...like the FBI

and the CIA...

and the BBC...

B.B. King...

and Doris Day...

Matt Busby...

Dig it...

Dig it...

Dig it...

(fade)

========================================================================


LET IT BE


intro:
C   G   Am   F (Dm/F) <--Paul plays this chord on the piano,
C   G    F  C G C        but most guitarists will just hold out F


         C             G
When I find myself in times of trouble,
  Am         F
Mother Mary comes to me,
   C                G            F  C  G  C
Speaking words of wisdom, let it be.
    C                G
And in my hour of darkness,
         Am                F
She is standing right in front of me,
   C                 G            F  C  G  C
Speaking words of wisdom, let it be.


            Am         G           F         C
     Let it be, let it be, let it be, let it be.
       C                 G            F  C  G  C
     Whisper words of wisdom, let it be.


     C                G
And when the broken hearted people
  Am            F
Living in the world agree,
   C               G            F  C  G  C
There will be an answer, let it be.
      C                   G
For though they may be parted,
           Am                  F
There is still a chance that they will see,
  C                G            F  C  G  C
There will be an answer, let it be.


            Am         G           F         C
     Let it be, let it be, let it be, let it be.
           C                 G            F  C  G  C
     Yea, there will be an answer, let it be.
            Am         G           F         C
     Let it be, let it be, let it be, let it be.
       C                 G           F  C  G  C
     Whisper words of wisdom, let it be.

F  C G C   Bb F G  F  C
F  C G C   Bb F G  F  C

[solo] (see below)


           Am         G           F         C
     Let it be, let it be, let it be, let it be.
       C                 G           F  C  G  C
     Whisper words of wisdom, let it be.


     C                  G
And when the night is cloudy,
           Am                 F
There is still a light that shines on me,
  C            G              F  C  G  C
Shine until tomorrow, let it be.
   C               G
I wake up to the sound of music,
  Am          F
Mother Mary comes to me,
   C                G           F  C  G  C
speaking words of wisdom, let it be.


            Am         G           F         C
     Let it be, let it be, let it be, let it be.
       C                 G            F  C  G  C
     There will be an answer, let it be.
            Am         G           F             C
     Let it be, let it be, let it be, yea let it be.
       C                 G           F  C  G  C
     There will be an answer, let it be.
            Am         G           F             C
     Let it be, let it be, let it be, yea let it be.
       C                 G           F  C  G  C
     Whisper words of wisdom, let it be.


F  C G C   Bb F G  F  C


solo:

|-------------------------------------------------------------------|
|-------------------------------------------------------------------|
|---5----5-------------------------------------5---7b(9)---(9)b7--5-|
|---5h7--5-------------------5--5-----5---5h7-----------------------|
|------------7\5---3---5/7---------7--------------------------------|
|-------------------------------------------------------------------|

|------8-------------------5----------------------------------------|
|--------------------------5----------------------------------------|
|--7/9---9\7---5h7---7b(9)----(9)b7--5------------------------------|
|--------------------------------------7h5---7h5--------------------|
|-------------------------------------------------7\5--3h5--3-------|
|-------------------------------------------------------------------|

|--------------------------------------------------------8--10b(12)-|
|---------------------------8-------8-------8--10--8h10-------------|
|--------5--5------5---7/9-----7/9-----7/9--------------------------|
|---5/7---------7---------------------------------------------------|
|-------------------------------------------------------------------|
|-------------------------------------------------------------------|

|-(12)b10--8--10--8----(17)b15--------------------------------------|
|-------------------------------(17)b15--13--15--(17)b15---13h15----|
|-------------------------------------------------------------------|
|-------------------------------------------------------------------|
|-------------------------------------------------------------------|
|-------------------------------------------------------------------|


========================================================================

Maggie Mae

Intro: G

    C
Oh, dirty Maggie Mae
          G
they have taken her away
                                            D
and she'll never walk down Lime(?) Street any mower.
        G
Oh, the judge he guilty found her
   C
of robbing the home-ward bounder
     D7                            G
that dirty, no good robbin' Maggie Mae.
         C
It's the part of Liverpool
G
she returned me to
                C         G      D
Two pound ten a week that was my pay.

========================================================================

I've Got A Feeling

4/4 Time signature                        Key of A

Intro:                      Main Riff:
 A           D/A             A           D/A
|--------5------------5-----|--------5------------5----|
|--------2----2---3---3-----|--------2----2---3---3----|
|-----2-----2_h_4---4---2---|-----2-----2_h_4---4---2--|
|---------------------------|--2-----------------------|
|---0-----------------------|--0-----------------------|
|---0-----------------------|--------------------------|

w/ Main Riff x 8
A             D/A  | A              D/A        | A  D/A       | A        D/A
Ive got a feeling a feeling deep inside Oh yeah        Oh yeah  Thats right


A             D/A  |   A           D/A       | A  D/A     | A   D/A
Ive got a feeling a feeling i cant hide oh no  no    oh no          oh no


Git 1 plays chords when not playing the riff (see bottom for shapes)
Git 2 plays:

 A7                              E       G          D
|-------------------------------|-----------------------------------|
|--8-------8------8------8------|-----------------------------------|
|--9-9-9---9-9-9--9-9-9--9-9-9--|-----------------------------------|
|--7-7-7---7-7-7--7-7-7--7-7-7--|-----------------------------------|
|-------------------------------|---------0-2-3-4-5-----------------|
|-------------------------------|-0-2-3-4---------------------------|
             yeah                  yeah             ive got a feel

 w/ Main Riff Git 1 x 10
  A            D/A           A            D/A
|----12-\--9---------------|----12-\--9---------------|
|----14--\-10--7- 8-7------|----14--\-10--7- 8-7------|
|--------------7-h7-7------|--------------7-h7-7------|
|--------------7- 9-7------|--------------7- 9-7------|
|--------------------------|--------------------------|
|--------------------------|--------------------------|
- ing  yeah

   A     D/A                 A                    D/A
|------------5------5----|---------5--------------5--------5------5-|
|------------5------5----|---------5--------------5--------5------5-|
|------------6------6----|---------6--------------6--------6------6-|
|------------7------7----|---------7--------------7--------7------7-|
|------------------------|------------------------------------------|
|------------------------|------------------------------------------|
Oh  please believe me,I'd hate to miss the train   Oh yeah
Ive got a  feel ing  that keeps me on  my  toes    Oh yeah


  A     D/A          A             D/A      A                 D/A
|-5--5-------------|-5--5--------5------5-|----5-------------------------|
|-5--5--7--8-------|-5--5--7--8--5------5-|----5--------------7-------5--|
|-6--6--7--7-------|----6--7--7--6------6-|----6--------------7-------6--|
|-7--7--7--9-------|----7--7--9--7------7-|----7--------------7-------7--|
|------------------|----------------------|------------------------------|
|------------------|----------------------|------------------------------|
  yeah       Oh yeah.                      And if you leave me        I
             Oh yeah.                      Ive got a feeling I think that


  A                 D/A          A     D/A           A     D/A
|-----------------------5------|-5--5--------------|-5--5--------------|
|------------5----------5------|-5--5--7--8--------|-5--5--7--8--7-----|
|------------6--7---7---6------|-6--6--7--7--------|-6--6--7--7--7-----|
|------------7--7---7---7------|-7--7--7--9--------|-7--7--7--9--7-----|
|------------------------------|-------------------|-------------------|
|------------------------------|-------------------|-------------------|
  won't be late again   oh no               oh no                oh no
  every    body knows   oh yeah             oh yeah            oh yeah


 A7                             E       G          D
|------------------------------|-----------------------------------|
|--8------8------8------8------|-----------------------------------|
|--9-9-9--9-9-9--9-9-9--9-9-9--|-----------------------------------|
|--7-7-7--7-7-7--7-7-7--7-7-7--|-----------------------------------|
|------------------------------|---------0-2-3-4-5-----------------|
|------------------------------|-0-2-3-4---------------------------|
            yeah                  yeah             Ive got a feel
            yeah                  yeah             Ive got a feel


  A            D/A           A              D/A
|----12-\--9---------------|----12-\--9-----------------|
|----14--\-10--7- 8-7------|----14--\-10----7- 8-7------|
|--------------7-h7-7------|----------------7-h7-7------|
|--------------7- 9-7------|----------------7- 9-7------|
|--------------------------|----------------------------|
|--------------------------|----------------------------|
- ing  yeah                 Ive got a feeling
- ing  yeah                                 yeah

  _____
 |1.
  E                                        G7
|-10b12----10b12------10b11~11~11~11r10-7-|-7---7----7--------7------7------7-|
|-----------------------------------------|-8b9b10---8b10r8---8b10r8-8b10r8-8-|
|-----------------------------------------|-----------------------------------|
|-----------------------------------------|-----------------------------------|
|-----------------------------------------|-----------------------------------|
|-----------------------------------------|-----------------------------------|
 All these years I've been wandering around,Wondering how come nobody told me


 D7
|----8b10~10----------------8b10~10~10~10r8--5--------------|
|-----------------------------------------------------------|
|-----------------------------------------------------------|
|-----------------------------------------------------------|
|-----------------------------------------------------------|
|-----------------------------------------------------------|
 All that I was looking for was somebody Who looked like you.


 A7          /\/\/\/\/\/\/\/\/\/\/\
|-----------------|------------------------||
|-----------------|-----------------------x||
|-7b9~9b10b11r9r8-|-(7)b8~8~8~8~8~-5b7r5---||
|-----------------|----------------------7x||
|-----------------|------------------------||
|-----------------|------------------------||

 ____
|2.   w/ Main Riff x6
  A        D/A              A          D/A
||---5--5-----------------|-5--5---5----------------|
||---5--5--7- 8--7--------|-5--5---5-0-7- 8--7---7--|
||---6--6--7-h7--7--------|-6--6---6---7-h7--7---7--|
||---7--7--7- 9--7--------|-7--7---7---7- 9--7---7--|
||------------------------|-------------------------|
||------------------------|-------------------------|
 Ev'rybody had a hard year Ev'rybody had a good time
 Ev'rybody had a good year,Ev'ry let their hair down


    A              D/A           A               D/A
|---5--5----------------------|---5--5-------------------------|
|---5--5--7- 8-----7-----7----|---5--5--7- 8-----7-----7-------|
|---6--6--7-h7-----7-----7----|---6--6--7-h7-----7-----7-------|
|---7--7--7- 9-----7-----7----|---7--7--7- 9-----7-----7-------|
|-----------------------------|--------------------------------|
|-----------------------------|--------------------------------|
 Ev'rybody had a   wet   dream,  Ev'rybody saw the sunshine
 Ev'rybody pulled their socks up Ev'rybody put their foot down.


 ______                                ___
|1.                                   |2.  See end for notes
 A       D/A    A        D/A           A7 [Edim/A      D#dim/A Ddim/A]
|--------------|---------------------||-------------------------------|
|--------7--7--|---5--5--7- 8-----7-x||----8-8-8--8-8-8--7-7-7--6-6-6-|
|--------7--7--|---6--6--7-h7-----7--||--9---9-9--9-9-9--8-8-8--7-7-7-|
|--------7--7--|---7--7--7- 9-----7-x||-----(8)---------(7)----(6)----|
|--------------|---------------------||-------------------------------|
|--------------|---------------------||-------------------------------|
 Oh yeah,    Oh    yeah.


[C#dim/A        Cdim/A Bdim/A]     A        D/A         A       D/A
|-------------------------------|-----5----------5---|----5-----------5----||
|-5-5-5--5-5-5--6-6-6--7-7-7--8-|--------------------|---------------------||
|-6-6-6--6-6-6--7-7-7--8-8-8--9-|---------2---2----2-|--2-----2---2--------||
|(5)-----------(6)----(7)-------|---2---2-h-4--4-----|------2---4---4----2-||
|-------------------------------|-0------------------|-0-------------------||
|-------------------------------|--------------------|---------------------||

                                                     ______
   w/ Main riff 4x                                  |1.
    A        D/A            A        D/A              A        D/A
||-------12-12b14~r12-----|---9------------------12-|------------------------|
||x--12b14----------------|--------------10-12b14---|-----------7---8----7---|
||------------------------|-------------------------|-----------7 h 7----7---|
||x--1.-I-got-a-feeling-a-|-feeling-i-cant-hide-o-no|-----------7---9----7---|
||---2.-I-got-a-feeling-a-|-feeling-deep-inside-o-ye|--------oh---yeah-------|
||------------------------|-------------------------|------------------------|
 Ev'rybody had a good year Ev'rybody had a hard time Ev'rybody had a wet dream
 Ev'rybody had a good year,Ev'ry let their hair down

                              _____
                             |2.
  A         D/A                     A           D/A
|----------------------------||-----5--------------------------|
|-----------7---8--7---7----x||-----5----5------7---8--7----7--|
|-----------7-h-7--7---7-----||-----6-----------7-h-7--7----7--|
|-----------7---9--7---7----x||-----7-----------7---9--7----7--|
|----------------------------||--------------------Oh-no-no-no-|
|----------------------------||--------------------------------|
 Everybody saw the sun shine   Ev'rybody pulled their socks up

  A         D/A                     A7 [Edim/A D#dim/A Ddim/A]
|--------5----------------5-------|----------------------------|
|-5--5---5--7- -8---------7-------|------8-----7-----7---------|
|-6--6---6--7-h-7---------7-------|------9-9-9-8-8-8-8---------|
|-7--7---7--7- -9---------7-------|----------------------------|
|-----------------------------yeh-|----------------------------|
|---------------------------------|----------------------------|
 Everybody put their foot down oh   yeah

 [C#dim/A    Ddim/A D#dim/A] [Edim/A D#dim/A Ddim/A]
|---------------------------|-----5-5-5-7-7-7-8-8-8--|
|-5-5--5-5-5-7-7-7-6-6-6----|-5---5-5-5-6-6-6-7-7-7--|
|-6-6--6-6-6-8-8-8-7-7-7----|-6---6-6-6-7-7-7-8-8-8--|
|---------------------------|------------------------|
|---Ive-got-a-feeling-------|------------------------|
|---------------------------|------------------------|

 [C#dim/A  Ddim/A D#dim/A] [Edim/A D#dim/A Ddim/A]
|-9-9-9-9-9-9-8-8-8-7-7-7-|-5---5-5-5-7-7-7-8-8-8-|
|-8-8-8-8-8-8-7-7-7-6-6-6-|-5---5-5-5-6-6-6-7-7-7-|
|-9-9-9-9-9-9-8-8-8-7-7-7-|-6---6-6-6-7-7-7-8-8-8-|
|-------------------------|-----------------------|
|-------------------------|---------------Ive-got-|
|-------------------------|----------------a-feel-|
          Oh yeah

 [C#dim/A  Ddim/A D#dim/A]  A
|-9----9-9-9-8-8-8-7-7-7--|----------------------------||
|-8----8-8-8-7-7-7-6-6-6--|-5--------------------------||
|-9----9-9-9-8-8-8-7-7-7--|-6--------------------------||
|-------------------------|-7--------------------------||
|-ing--------yeah---------|----------------------------||
|-------------------------|----------------------------||


Guitar 1 wierd shape info

                    The tab here is shows the timing that should
                    be used. They are triplets.

                   [Edim/A    D#dim/A Ddim/A] [C#dim/A Cdim/A Bdim/A]
Bdim/A    x0343x  |-------------------------|--------------------------|
Cdim/A    x0454x  |-8-8-8-8-8-8--7-7-7-6-6-6|-5-5-5-5-5-5--4-4-4-3-3-3-|
C#dim/A   x0565x  |-9-9-9-9-9-9--8-8-8-7-7-7|-6-6-6-6-6-6--5-5-5-4-4-4-|
Ddim/A    x0676x  |-8-8-8-8-8-8--7-7-7-6-6-6|-5-5-5-5-5-5--4-4-4-3-3-3-|
D#dim/A   x0787x  |-------------------------|--------------------------|
Edim/A    x0898x  |---I got a feeling-------|--------------------------|
                                \ these are overdubbed voices

These D shapes     [Edim/A    D#dim/A Ddim/A] [C#dim/A    Ddim/A D#dim/A]
are moved up &    |-------------------------|---------------------------|
down. Usually     |-8-8-8-8-8-8--7-7-7-6-6-6|-5-5-5-5-5-5--6-6-6-7-7-7--|
they correspond   |-9-9-9-9-9-9--8-8-8-7-7-7|-6-6-6-6-6-6--7-7-7-8-8-8--|
to what Git 2     |-8-8-8-8-8-8--7-7-7-6-6-6|-5-5-5-5-5-5--6-6-6-7-7-7--|
is playing but    |-------------------------|---------------------------|
not always        |-------------------------|---------------------------|
                   these two bars are repeated three times


========================================================================


	One After Nine-Oh-Nine


Verse:
    B
My baby said she's traveling on the one after nine oh nine

I said move over honey  I'm traveling on that line

I said move over once  move over twice
  E
C'mon baby don't be cold as ice
 B                        F#7                B
Said she's traveling on the one after nine oh nine


Verse:
I begged her not to go and I begged her on my bended knees
I Said you're only fooling round  only fooling round with me
I said move over once  move over twice
C'mon baby don't be cold as ice
Said I'm traveling on the one after nine oh nine


Middle:
  E                  B
Picked up the bags    Run to the station
 C#                          F#
Rail man said   You got the wrong location
  E                    B
Picked up the bags    Run right home
 C#                      F#7
Then I find   I got the number wrong    well

Verse:
Said she's traveling on the one after nine oh nine
I said move over honey  I'm traveling on that line
I said move over once  move over twice
C'mon baby don't be cold as ice
Said I'm traveling on the one after nine oh nine


Guitar lead played to verse chords:


Repeat Middle.:


Last verse and outro:
    B
My baby said she's traveling on the one after nine oh nine

I said move over honey  I'm traveling on that line

I said move over once  move over twice
  E
C'mon baby don't be cold as ice
 B                        F#7
Said I'm traveling on the one after nine oh
 B                        F#7
Said I'm traveling on the one after nine oh
 B                        F#7                B
Said I'm traveling on the one after nine oh nine.


==========================================================================

	                     The Long and Winding Road


Verse 1:
    Cm                    Ab/Bb
The long and winding road
          Eb     Eb7          Ab
that leads       to your door
     Gm          Cm
Will never disappear
Fm             Bb7         Db/Eb
I've seen that road before
    Gm          Cm
It always leads me here
Fm      Bb7         Eb
Lead me to your door

Verse 2:
    Cm                   Ab/Bb
The wild and windy night
            Eb      Eb7         Ab
that the rain       washed away
    Gm     Cm
Has left a pool of tears
Fm     Bb7         Db/Eb
Crying for the day
    Gm           Cm
Why leave me standing here
Fm      Bb7         Eb
Let me know the way

Bridge:
Eb/Bb     Ab
Many times I've been alone  and
E/G                Fm  Bb7
many times I've cried
Eb/Bb     Ab
Anyway you'll never know   the
E/G               Fm   Bb7
many ways I've tried       but


Verse 3:
Cm                      Ab/Bb
still they lead me back
            Eb      Eb7         Ab
to the long        winding road
    Gm          Cm
You left me standing here
Fm     Bb7         Db/Eb
A long long time ago
      Gm           Cm
Don't leave me waiting here
Fm      Bb7         Eb
Lead me to your door

Instrumental bridge:
Eb/Bb     Ab

E/G                Fm  Bb7

Eb/Bb     Ab

E/G               Fm   Bb7


Verse 4:
Cm                      Ab/Bb
still they lead me back
            Eb      Eb7         Ab
to the long        winding road
    Gm          Cm
You left me standing here
Fm     Bb7         Db/Eb
A long long time ago
      Gm           Cm
Don't leave me waiting here
Fm      Bb7         Eb
Lead me to your door
Ab/Bb               Eb
      Yeah yeah yeah....

============================================================================

      For You Blue


As you may have guessed, this is just a blues song so I won't
bother with the main body of the song - it's just A D and E.

It does have a nice little intro on acoustic though :


I think you need a capo for this one - on the 3rd or 4th fret.

E-----------------------------------------------2--2-2--2-------------|
B-----------------------------------------------1--1-1--1-------------|
G--------------------------------------------2--2--2-2--2-------------|
D------2p0-----------2--2-2--2-2--2-------------0--0-0--0-------------|
A--------------0--2--0--0-0--0-0--0-----------------------------------|
E---0-------3------------------------0--1--2--------------------------|

E------------2--2-2--2-2--2--------0--------0---------0-------0------|
B------------0--0-0--0-0--0-------------3-------3---------3-------3--|
G------------2--2-2--2-2--2----0h1----------------0h1----------------|
D---------1--1--1-1--1-1--1------------------------------------------|
A---0-1-2----2--2-2--2-2--2------------------------------------------|
E------------------------------------0----0---0---------0---0---0----|


Then into :

A  D   A
D      A
E  D   A    E7


========================================================================

              Get Back


Intro:
[the intro shows the flavor of the rhythm guitar
playing throughout the song]

    A
-|----------------------------------------------------|
-|----------------------------------------------------|
-|--X--2--X--2--X--2--X--2--X--2--X--2--X--2--X--2----|
-|--X--2--X--2--X--2--X--2--X--2--X--2--X--2--X--2----|
-|--X--0--X--2--X--2--X--2--X--2--X--2--X--2--X--2----|
-|----------------------------------------------------|

                                 G/A D/A A
-|--------------------------5--5--3---2--0-------------|
-|--------------------------2--2--0---3--2-------------|
-|--X--2--X--2--X--2--X--2--2--2--0---2--2-------------|
-|--X--2--X--2--X--2--X--2--------2---0--2-------------|
-|--X--0--X--2--X--2--X--2--------0---0--0-------------|
-|-----------------------------------------------------|


Verse:
[the remainder of the tab is for the lead guitar]
    A
-|-----------------------------------------------------|
-|-----------------------------------------------------|
-|-----------------------------------------------------|
-|-----------------------------------------------------|
-|--7----9-----7---9----7---------9-----7----9---------|
-|--5----5-----5---5----5---------5-----5----5---------|
   Jojo was a man who thought he was a loner

    D                       A
-|-------------------------------------------12------------------------|
-|------------------------------10--12b(14)------b(14)12--10------10---|
-|-------------------------/11--------------------------------11-------|
-|--7------9-------7---9-----------------------------------------------|
-|--5------5-------5---5-----------------------------------------------|
-|---------------------------------------------------------------------|
   But he knew it couldn't last

    A
-|---------------------------------------------------|
-|---------------------------------------------------|
-|---------------------------------------------------|
-|---------------------------------------------------|
-|--7----9--------7---9----7-----9----7----9---------|
-|--5----5--------5---5----5-----5----5----5---------|
   Jojo left his home in Tucson Ari  zona

    D                       A
-|------------------------------------------12------------------------|
-|-----------------------------10--12b(14)------b(14)12--10------10---|
-|------------------------/11--------------------------------11-------|
-|--7---------9---7---9-----------------------------------------------|
-|--5---------5---5---5-----------------------------------------------|
-|--------------------------------------------------------------------|
   For some Cali fornia grass                                Get back

     A
-|---------------9--9--9--9--9---------------9--9--9--9--9--------|
-|---------------8--8--8--8--8---------------8--8--8--8--8--------|
-|---------------9--9--9--9--9---------------9--9--9--9--9--------|
-|------------7---------------------------7-----------------------|
-|------7--9------------------------7--9--------------------------|
-|--/9--------------------------/9--------------------------------|
                          Get Back                   Get Back

     D7                         A           G/A    D/A   A
-|---------------8--8--8--8--8---------------9--9--9--9--9--------|
-|---------------7--7--7--7--7---------------8--8--8--8--8--------|
-|---------------7--7--7--7--7---------------9--9--9--9--9--------|
-|------------7---------------------------7-----------------------|
-|------7--9------------------------7--9--------------------------|
-|--/9--------------------------/9--------------------------------|
   to where you once   be long                      Get  back

     A
-|---------------9--9--9--9--9---------------9--9--9--9--9--------|
-|---------------8--8--8--8--8---------------8--8--8--8--8--------|
-|---------------9--9--9--9--9---------------9--9--9--9--9--------|
-|------------7---------------------------7-----------------------|
-|------7--9------------------------7--9--------------------------|
-|--/9--------------------------/9--------------------------------|
                          Get Back                   Get Back

     D7                         A
-|---------------8--8--8--8--8---------------9--9--9--9--9--------|
-|---------------7--7--7--7--7---------------8--8--8--8--8--------|
-|---------------7--7--7--7--7---------------9--9--9--9--9--------|
-|------------7---------------------------7-----------------------|
-|------7--9------------------------7--9--------------------------|
-|--/9--------------------------/9--------------------------------|
   to where you once   be long


Guitar Lead:
     A
-|--------------------------------12------------------------------|
-|-------10--10--10--12--12b(14)------b(14)12--10-----------------|
-|--/11--------------------------------------------11-------------|
-|----------------------------------------------------------------|
-|----------------------------------------------------------------|
-|----------------------------------------------------------------|

    D                   A          G   D
-|---------------------------------------------------------------|
-|---------------------------------------------------------------|
-|-----------7---------------------------------------------------|
-|-----7--9-----10--7--10b(11)-----------------------------------|
-|--9------------------------------------------------------------|
-|---------------------------------------------------------------|

     A
-|--------------------------------12------------------------------|
-|-------10--10--10--12--12b(14)------b(14)12--10------10---------|
-|--/11--------------------------------------------11-------------|
-|----------------------------------------------------------------|
-|----------------------------------------------------------------|
-|----------------------------------------------------------------|

    D                   A               G            D
-|----------------------------------------------------------------|
-|--------------------------8--5----------------------------------|
-|------------7----------------------5--7b(9)--5-----5------------|
-|-----7--10-----10--7--10--------7---------------7---------------|
-|--9-------------------------------------------------------------|
-|----------------------------------------------------------------|


--------------------------------------------
Get Back - The Beatles


The intro ,goes with an E5 played in eights, and then we have:

e-----------------|-----------------|-----------------|-----------------|
B---------3-------|-----------------|-----------------|-----------------|
G---------2---2---|-----------------|-----------------|-----------------|
D-2-2-2-2-0---2---|-----------------|-----------------|-2-2-4-4-2-2-4-4-|
A-2-2-2-2-----0---|-2-2-4-4-2-2-4-4-|-2-2-4-4-2-2-4-4-|-0-0-0-0-0-0-0-0-|
E-0-0-0-0---------|-0-0-0-0-0-0-0-0-|-0-0-0-0-0-0-0-0-|-----------------|
                    Here we start singning.........

e-----------------|
B---------3-------|
G---------2---2---|
D---------0---2---|
A-2-2-4-4-----0---|
E-0-0-0-0---------|
          ^ these are only done the 2nd verse I think.. (listen to the record..)

All this goes twice, and then we have:

Chorus:
e-----------------|--same again--|-----------------|-----------------|
B-----2-3---------|--------------|-----------------|---------3-------|
G---4-------------|--------------|-2-2-2-2-2-2-2-2-|---------2---2---|
D-2---------------|--------------|-2-2-2-2-2-2-2-2-|-2-2-2-2-0---2---|
A-----------------|--------------|-0-0-0-0-0-0-0-0-|-2-2-2-2-----0---|
E-----------------|--------------|-----------------|-0-0-0-0---------|
This is the riff for the lead guitar.. If you play it by yourself you'd better
stick to E5 or perhaps an E7-chord for the two first measures..

This is also repeated twice.. And VOILA.. Get Back.. I'm not sure about the
end though, but then again I don't think the Beatles were two sure about that
either...

Jojo was a man who thought he was a loner,
A                  A
But he knew it couldn't last.
D                       A   G D
1      2       3     4  1 2 3 4
Jojo left his home in Tuscon, Arizona
A                     A
For some California grass
D                   A  G D

Get back,  get back
A          A
Back to where you once belonged
D                        A      G D
Get back,  get back
A          A
Back to where you once belonged - Get back Jo!
D                        A

[Electric Piano solo - same chords as verse]

[Chorus]

Sweet Loretta Martin thought she was a woman,
But she was another man.
All the girls around her said she's got it comin',
But she gets it while she can.

[Chorus]
comments
print report bad tab
5 comments total. Showing first comments. show 1 bad comment
+1 reply
Rounder01 wrote on March 29 2008, 02:30 pm

Great Job

0 reply
oasismad94 wrote on August 17 2009, 08:45 am

fantastic 10/10!!

I want to post or [tab]
guest
You may want to rate the tab now too:
select rating
Please do not post tabs as comments. Select "correction" instead!