Oops, an error
Loading. Please wait.

Let It Be Naked Tab

23,932 views 60 this week
1 commentread comment
1 2 3 4 5
accurate
x 2
Autoscroll
+/-
esc
set tempo
stop
Contributor
Hey! There's an official Ultimate Guitar app which is ideal
for learning songs when you're away from computer. Get the app
WARNING: You are trying to view
                                    content from Ultimate-Guitar.com
                                    in an unauthorized application,
                                    which is prohibited.

                                    Please use an official Ultimate
                                    Guitar Tabs application for iPhone,
                                    iPad or Android to access legitimate
                                    chords, guitar, bass, and drum tabs
                                    from Ultimate-Guitar.com database.

                                    Type "ultimate guitar tabs" in Apple
                                    App Store's or Android Market's
                                    search to find the application.
                  THE BEATLES - LET IT BE NAKED

               1  GET BACK
               2  DIG A PONY
               3  FOR YOU BLUE
               4  THE LONG AND WINDING ROAD
               5  TWO OF US
               6  I'VE GOT A FEELING
               7  ONE AFTER 909
               8  DON'T LET ME DOWN
               9  I ME MINE
              10  ACROSS THE UNIVERSE
              11  LET IT BE


  ----------------------------------------------------------------

  THE BEATLES - GET BACK (Lennon & McCartney) Released in the U.K.
                as a single (With DON'T LET ME DOWN as B side) on
                April 11th 1969.

  ----------------------------------------------------------------

  Tabbed by:PJVillanueva


  Jojo was a man who thought he was a loner
  But he knew it wouldn't last.
  Jojo left his home in Tucson, Arizona
  For some California grass.

  Get back, get back.
  Get back to where you once belonged
  Get back, get back.
  Get back to where you once belonged.
  Get back Jojo. Go home

  Get back, get back.
  Back to where you once belonged
  Get back, get back.
  Back to where you once belonged.
  Get back Jo.

  Sweet Loretta Martin thought she was a woman
  But she was another man
  All the girls around her say she's got it coming
  But she gets it while she can

  Get back, get back.
  Get back to where you once belonged
  Get back, get back.
  Get back to where you once belonged.
  Get back Loretta. Go home

  Get back, get back.
  Get back to where you once belonged
  Get back, get back.
  Get back to where you once belonged.
  Get back Loretta
  Your mother's waiting for you
  Wearing her high-heel shoes
  And her low-neck sweater
  Get on home Loretta
  Get back, get back.
  Get back to where you once belonged.


  4/4 Time

  A5
e|------- ------- ------- -------|------- ------- ------- -------|
B|-------------------------------|-------------------------------|
G|-------------------------------|-------------------------------|
D|2-------2---2---2---2---2---2--|2-------2-------2---2---2---2--|
A|0-------0---0---0---0---0---0--|0-------0-------0---0---0---0--|
E|-------------------------------|-------------------------------|

e|------- ------- ------- -------|------- ------- ------- -------|
B|-------------------------------|-------------------------------|
G|----2-------2-------2-------2--|----2-------2-------2-------2--|
D|----2-------2-------2-------2--|----2-------2-------2-------2--|
A|----0-------0-------0-------0--|----0-------0-------0-------0--|
E|-------------------------------|-------------------------------|


                                                  G       D
e|------- ------- ------- -------|------- ------- ------- -------|
B|-------------------------------|-------------------------------|
G|-------------------------------|-------------------------------|
D|2---2---2-------2---2---2---2--|2---2---2-------0-------0------|
A|0---0---0-------0---0---0---0--|0---0---0-------2-------0------|
E|-------------------------------|----------------3-------2------|

e|------- ------- ------- -------|------- ------- 3------ 2------|
B|-------------------------------|----------------3-------3------|
G|----2-------2-------2-------2--|2---2---2-------0-------2------|
D|----2-------2-------2-------2--|2---2---2-------0-------0------|
A|----0-------0-------0-------0--|0---0---0-------2--------------|
E|-------------------------------|----------------3--------------|


  A5      A6      A5 ...
e|------- ------- ------- -------|------- ------- ------- -------|
B|-------------------------------|-------------------------------|
G|-------------------------------|-------------------------------|
D|2-------4-------2-------4------|2-------4-------2-------4---/--|
A|0-------0-------0-------0------|0-------0-------0-------0------|
E|-------------------------------|-------------------------------|

e|------- ------- ------- -------|------- ------- ------- -------|
B|-------------------------------|-------------------------------|
G|2-------2-------2-------2---2--|--------2---2-----------2------|
D|2-------2-------2-------2---2--|--------2---2-----------2------|
A|0-------0-------0-------0---0--|--------0---0-----------0------|
E|-------------------------------|-------------------------------|
  Jojo    was a   man     who thought he  was a   loner       But

  D5      D6      D5 ...          A5
e|------- ------- ------- -------|------- ------- ------- -------|
B|-------------------------------|-------------------------------|
G|2-------4-------2-------4------|-------------------------------|
D|0-------0-------0-------0------|-------------------------------|
A|-------------------------------|-------------------------------|
E|-------------------------------|-------------------------------|

e|------- ------- ------- -------|------- ------- ------- -------|
B|----3-------3-------3-------3--|-------------------------------|
G|----2-------2-------2-------2--|2-----------2---------------2--|
D|----0-------0-------0-------0--|2-----------2---------------2--|
A|-------------------------------|0-----------0---------------0--|
E|-------------------------------|-------------------------------|
      he  knew    wouldn't    last.
              it


  A
e|------- ------- ------- -------|------- ------- ------- -------|
B|-------------------------------|-------------------------------|
G|-------------------------------|-------------------------------|
D|----2---4-------2-------4------|2-------4-------2-------4---2-/|
A|----0---0-------0-------0------|0-------0-------0-------0---0-/|
E|----0--------------------------|-------------------------------|

e|------- ------- ------- -------|------- ------- ------- -------|
B|-------------------------------|----------------------------3--|
G|----2-------2---------------2--|----2-------2-------2-------2--|
D|----2-------2---------------2--|----2-------2-------2-------0--|
A|----0-------0---------------0--|----0-------0-------0----------|
E|-------------------------------|-------------------------------|
  Jojo    left    home    in  Tucson,     Arizona             for
              his


  D                               A
e|------- ------- ------- -------|------- ----12- ------- -------|
B|-------------------------------|----10--12B14---14R1210--------|
G|2-------4-------2--------------/11----------------------11-----|
D|0-------0-------0-------4------|-------------------------------|
A|------------------------0------|-------------------------------|
E|-------------------------------|-------------------------------|

e|------- ------- ------- -------|------- ------- ------- -------|
B|----3-------3-------3----------|-------------------------------|
G|----2-------2-------2-------2--|----2-------2-------2----------|
D|----0-------0-------0-------2--|----2-------2-------2----------|
A|----------------------------0--|----0-------0-------0----------|
E|-------------------------------|-------------------------------|
     some California          grass.                      Get back

                     (A7)
e|------- ------- ----9-9 9-9-9--|------- ------- ----9-9 9-9-9--|
B|--------------------8-8-8-8-8--|--------------------8-8-8-8-8--|
G|--------------------9-9-9-9-9--|--------------------9-9-9-9-9--|
D|------------7------------------|------------7------------------|
A|----7---9----------------------|-----7--9----------------------|
E/9------------------------------/9------------------------------|

e|------- ------- ------- -------|------- ------- ------- -------|
B|-------------------------------|-------------------------------|
G|----2-------2------------------|2-------2-------2-------2------|
D|----2-------2------------------|2-------2-------2-------2------|
A|----0-------0------------------|0-------0-------0-------0------|
E|-------------------------------|-------------------------------|
                          Get back                        Get back

                     (D7)                            (A7)
e|------- ------- ----8-8 8-8-8--|------- ------- ----9-9 9-9-9--|
B|--------------------7-7-7-7-7--|--------------------8-8-8-8-8--|
G|--------------------7-7-7-7-7--|--------------------9-9-9-9-9--|
D|------------7------------------|------------7------------------|
A|----7---9----------------------|----7---9----------------------|
E/9------------------------------/9------------------------------|

e|------- ------- ------- -------|------- ------- --3---- 2------|
B|3-------3-------3-------3------|------------------3-----3------|
G|2-------2-------2-------2------|2---2-------2-----0-----2------|
D|0-------0-------0-------0------|2---2-------2-----0-----0------|
A|-------------------------------|0---0-------0-----2------------|
E|-------------------------------|------------------3------------|
      to  where   once    belonged                        Get back
              you

e|------- ------- ----9-9 9-9-9--|------- ------- ----9-9 9-9-9--|
B|--------------------8-8-8-8-8--|--------------------8-8-8-8-8--|
G|--------------------9-9-9-9-9--|--------------------9-9-9-9-9--|
D|------------7------------------|------------7------------------|
A|----7---9----------------------|-----7--9----------------------|
E/9------------------------------/9------------------------------|

e|------- ----3-- ------- -------|------- ----3-- ------- -------|
B|------------2------------------|------------2------------------|
G|------------0------------------|------------0------------------|
D|------------2------------------|2---2-------2------------------|
A|------------0------------------|0---0-------0------------------|
E|-------------------------------|-------------------------------|

e|------- ------- ------- -------|------- ------- ------- -------|
B|-------------------------------|-------------------------------|
G|------------5------------------|------------5------------------|
D|------------5------------------|------------5------------------|
A|------------0------------------|------------0------------------|
E|-------------------------------|-------------------------------|
                          Get back                        Get back

                      D7          A
e|------- ------- ----8-8 8-8-8--|------- ------- ------- -------|
B|--------------------7-7-7-7-7--|-------------------------------|
G|--------------------7-7-7-7-7--|-------------------------------|
D|------------7------------------|------------7------------------|
A|----7---9----------------------|----7---9----------------------|
E/9------------------------------/9------------------------------|

e|------- ------- ------- -------|------- ------- ------- -------|
B|3---3-------3-------3----------|-------------------------------|
G|2---2-------2-------2-------2--|----2------2--------2-------2--|
D|0---0-------0-------0-------2--|----2------2--------2-------2--|
A|----------------------------0--|----0------0--------0-------0--|
E|-------------------------------|-------------------------------|
      to  where   once    belonged           Get  back  Jo
              you                                     Jo

e|------- ------- ------- -------|----12- ------- ------- -------|
B|----10--10--10------10--12--12B|14----------14-R12--10------10-\-|
G|11-----------------------------|------------------------11-------|
D|-------------------------------|---------------------------------|
A|-------------------------------|---------------------------------|
E|-------------------------------|---------------------------------|

e|------- ------- ------- -------|------- ------- ------- -------|
B|-------------------------------|-------------------------------|
G|2-------2-------2-------2------|2-------2-------2-------2------|
D|2-------2-------2-------2------|2-------2-------2-------2------|
A|0-------0-------0-------0------|0-------0-------0-------0------|
E|-------------------------------|-------------------------------|


  D                               A               G       D
e|------- ------- ------- -------|------- ------- ------- -------|
B|-------------------------------|-------------------------------|
G|------------7-------5-------5--B---6---------------------------|
D|----7-------------------7------|-------------------------------|
A|9-------9----------------------|-------------------------------|
E|-------------------------------|-------------------------------|

e|------- ------- ------- -------|------- ------- 3------ 2------|
B|--------3---------------3------|----------------3-------3------|
G|--------2---------------2------|--------2-------0-------2------|
D|--------0---------------0------|--------2-------0-------0------|
A|-------------------------------|--------0-------2--------------|
E|-------------------------------|----------------3--------------|


  A
e|------- ------- ------- -------|----12- ------- ------- -------|
B|--10---10---10---10---------12-12B14--------14-R12--10------10-\-|
G/11-----------------------------|------------------------11-------|
D|-------------------------------|---------------------------------|
A|-------------------------------|---------------------------------|
E|-------------------------------|---------------------------------|

e|------- ------- ------- -------|------- ------- ------- -------|
B|-------------------------------|-------------------------------|
G|2-------2-------2-------2------|2-------2-------2-------2------|
D|2-------2-------2-------2------|2-------2-------2-------2------|
A|0-------0-------0-------0------|0-------0-------0-------0------|
E|-------------------------------|-------------------------------|


  D                               A               G       D
e|------- ------- ------- -------|------- ------- ------- -------|
B|-------------------------------|----7B8-5----------------------|
G|------------7-------5-------5--B-6----------5---7B9-5---5------|
D|----7---9---------------7------|----------7-----------7--------|
A|9------------------------------|-------------------------------|
E|-------------------------------|-------------------------------|

e|------- ------- ------- -------|------- ------- 3------ 2------|
B|3-------3-------3--------------|----------------3-------3------|
G|2-------2-------2--------------|2-------2-------0-------2------|
D|0-------0-------0--------------|2-------2-------0-------0------|
A|-------------------------------|0-------0-------2--------------|
E|-------------------------------|----------------3--------------|
                                                          Get back

  A
e|------- ------- ------- -------|------- ------- ------- -------|
B|-------------------------------|-------------------------------|
G|-------------------------------|-------------------------------|
D|2-------4-------5-------4------|--------4-------5-------4------|
A|0-------0-------0-------0------|--------0-------0-------0---/--|
E|-------------------------------|-------------------------------|

e|------- ------- ------- -------|------- ------- ------- -------|
B|-------------------------------|-------------------------------|
G|--------2-------2--------------|----2-------2-------2-------2--|
D|--------2-------2--------------|----2-------2-------2-------2--|
A|--------0-------0--------------|----0-------0-------0-------0--|
E|-------------------------------|-------------------------------|

e|------- ------- ------- -------|------- ------- ------- -------|
B|-------------------------------|-------------------------------|
G|------------5------------------|------------5------------------|
D|------------5------------------|------------5------------------|
A|------------0------------------|------------0------------------|
E|-------------------------------|-------------------------------|
                          Get back                        Get back

  D                               A               G       D
e|------- ------- ------- -------|------- ------- ------- -------|
B|-------------------------------|-------------------------------|
G|2-------4-------2-------2------|-------------------------------|
D|0-------0-------0-------0------|2-------4-------5--------------|
A|-------------------------------|0-------0-------0--------------|
E|-------------------------------|-------------------------------|

e|------- ------- ------- -------|------- ------- 3------ 2------|
B|----3-------3-------3-------3--|----------------3-------3------|
G|----2-------2-------2-------2--|2---------------0-------2------|
D|----0-------0-------0-------0--|2---------------0-------0------|
A|-------------------------------|0---------------2--------------|
E|-------------------------------|----------------3--------------|
      to  where   once    belonged                        Get back
              you


  A
e|------- ------- ------- -------|------- ------- ------- -------|
B|-------------------------------|-------------------------------|
G|-------------------------------|-------------------------------|
D|2-------4-------5-------4------|2-------4-------2-------4------|
A|0-------0-------0-------0------|0-------0-------0-------0------|
E|-------------------------------|-------------------------------|

e|------- ----5-- ------- -------|------- ----5-- ------- -------|
B|------------8------------------|------------5------------------|
G|------------6------------------|------------6------------------|
D|------------5------------------|------------5------------------|
A|------------7------------------|------------7------------------|
E|------------5------------------|----5---5---5------------------|

e|------- ------- ------- -------|------- ------- ------- -------|
B|-------------------------------|-------------------------------|
G|------------5------------------|------------5------------------|
D|------------5------------------|------------5------------------|
A|------------0------------------|------------0------------------|
E|-------------------------------|-------------------------------|
                          Get back                        Get back

                          C   D
e|------- ------- ------- -------|------- ------- ------- -------|
B|------------------------5-/-7--|-------------------------------|
G|------------------------5-/-7--|-------------------------------|
D|2-------4-------2-------5-/-7--|-------------------------------|
A|0-------0-------0-------3-/-5--|-------------------------------|
E|-------------------------------|-------------------------------|

e|------- ------- ------- ----2--|------- ------- ------- -------|
B|----------------------------3--|-------------------------------|
G|----2-------2---------------2--|-------------------------------|
D|----2-------2---------------0--|-------------------------------|
A|----0-------0------------------|-------------------------------|
E|-------------------------------|-------------------------------|

e|------- ------- ------- -------|------- ------- ------- -------|
B|-------------------------------|--------7-----------5----------|
G|-------------------------------|-------------------------------|
D|------------------------------5/7-----------5-----------4------|
A|-------------------------------|-------------------------------|
E|-------------------------------|-------------------------------|
      To  where   once    belonged
               you

e|------- ------- ------- -------|
B|3-----------1-------0----------|
G|----------------------------2--|
D|----2-----------0--------------|
A|------------------------3------|
E|-------------------------------|

  PIANO SOLO
  A
e|------- ------- ------- -------|------- ------- ------- -------|
B|-------------------------------|-------------------------------|
G|-------------------------------|-------------------------------|
D|2-------4-------2-------4------|2-------4-------2-------4---2-/|
A|0-------0-------0-------0------|0-------0-------0-------0---0--|
E|-------------------------------|-------------------------------|

e|------- ------- ------- -------|------- ------- ------- -------|
B|---10-----10----10--10--10-10--|---10-----10-------------------|
G|----9------9-11--9---9-/11--9--|----9------9--9---------9---9--|
D|-------------------------------|--------------9H10P9P7------7--|
A|-------------------------------|------------------------9------|
E|-------------------------------|-------------------------------|


  D                               A               G       D
e|------- ------- ------- -------|------- ------- ----9-9 9-9-9--|
B|-------------------------------|--------------------8-8-8-8-8--|
G|2-------4---2---2-------4------|--------------------9-9-9-9-9--|
D|0-------0---0---0-------0------|------------7------------------|
A|-------------------------------|----7---9----------------------|
E|-------------------------------/9------------------------------|

e|------- ------- ------- -------|------- ------- 0------ -------|
B|-------------------------------|--------2-------0-------3------|
G|-------------------------------|--------2-------0-------2------|
D|-------------------------------|--------2-------0-------0------|
A|-------------------------------|--------0-------2--------------|
E|-------------------------------|----------------3--------------|

e|------- ------- ------- -------|------- ------- ------- -------|
B|----7-------7------------------|-------------------------------|
G|----7--------7--7-------5------|-------------------------------|
D|--------------7-7---5---5---7--|----7--------------------------|
A|----------------------------7--|----7--------------------------|
E|-------------------------------|-------------------------------|


  A
e|------- ------- ------- -------|------- ------- ------- -------|
B|-------------------------------|-------------------------------|
G|-------------------------------|-------------------------------|
D|2-------4-------2-------4------|2-------4-------2-------4---/--|
A|0-------0-------0-------0------|0-------0-------0-------0------|
E|-------------------------------|-------------------------------|

e|------- ------- ------- -------|------- ------- ------- -------|
B|----10--10---10---10-10----10--|---10------10------------------|
G|9-11-9---9----9----9--9/11--9--|----9H11----9-9---------9---9--|
D|-------------------------------|--------------9H10P9P7------7--|
A|-------------------------------|------------------------9------|
E|-------------------------------|-------------------------------|


  D                               A               G       D
e|------- ------- ------- -------|------- ------- ----9-9 9-9-9--|
B|-------------------------------|--------------------8-8-8-8-8--|
G|2-------4-------2-------4------|--------------------9-9-9-9-9--|
D|0-------0-------0-------0------|------------7------------------|
A|-------------------------------|----7---9----------------------|
E|-------------------------------/9------------------------------|

e|------- ------- ------- -------|------- ------- 0------ 0------|
B|3-------3---3---3--------------|----------------0-------3------|
G|2-------2---2---2--------------|----------------0-------2------|
D|0-------0---0---0--------------|----------------0-------0------|
A|-------------------------------|----------------2--------------|
E|-------------------------------|----------------3--------------|

e|------- ------- ------- -------|------- ------- ------- -------|
B|----7-------7------------------|---10-----------8--------------|
G|----7--------7--7-------5------|----9-----------7--------------|
D|--------------7-7---5---5---7--|----------------7--------------|
A|----------------------------7--|----------------7--------------|
E|-------------------------------|-------------------------------|

  A
e|------- ------- ------- -------|------- ------- ------- -------|
B|-------------------------------|-------------------------------|
G|-------------------------------|-------------------------------|
D|2-------4-------2-------4------|2-------4-------2---2---4---2--|
A|0-------0-------0-------0------|0-------0-------0---0---0---0--|
E|-------------------------------|-------------------------------|

e|------- ------- ------- -------|------- ------- ------- -------|
B|-------------------------------|----------------------------3--|
G|2-------2-------2-------2---2--|--------2---2---------------2--|
D|2-------2-------2-------2---2--|--------2---2---------------0--|
A|0-------0-------0-------0---0--|--------0---0------------------|
E|-------------------------------|-------------------------------|
  Sweet           Martin      thought she was a   woman       but
      Loretta


  D                               A
e|------- ------- ------- -------|------- ----12- ------- -------|
B|-------------------------------|----10--12B14---14R1210--------|
G|2-------4-------2--------------/11----------------------11-----|
D|0-------0-------0-------4------|-------------------------------|
A|------------------------0------|-------------------------------|
E|-------------------------------|-------------------------------|

e|------- ------- ------- -------|------- ------- ------- -------|
B|----3-------3-------3----------|-------------------------------|
G|----2-------2-------2-------2--|----2---2---------------2------|
D|----0-------0-------0-------2--|----2---2---------------2------|
A|----------------------------0--|----0---0---------------0------|
E|-------------------------------|-------------------------------|
      she was another         man                             All


e|------- ------- ------- -------|------- ------- ------- -------|
B|-------------------------------|-------------------------------|
G|-------------------------------|-------------------------------|
D|----2---4-------2-------4------|2-------4-------2-------4---2-/|
A|----0---0-------0-------0------|0-------0-------0-------0---0-/|
E|-------------------------------|-------------------------------|

e|------- ------- ------- -------|------- ------- ------- -------|
B|-------------------------------|-------------------------------|
G|2-------2---------------2------|2-------2-------2-------2------|
D|2-------2---------------2------|2-------2-------2-------2------|
A|0-------0---------------0------|0-------0-------0-------0------|
E|-------------------------------|-------------------------------|
      the girls           her say    she's    it  coming      but
              around                      got


  D                               A               G6/9
e|------- ------- ------- -------|------- ------- ------- -------|
B|-------------------------------|----7B8-5----------------------|
G|2-------4-------2-------4------|------------5---7B9-5---5------|
D|0-------0-------0-------0------|----------7-----------7--------|
A|-------------------------------|----------------------------5--|
E|-------------------------------|-------------------------------|

e|------- ------- ------- -------|------- ------- 0------ -------|
B|3-------3---------------3------|----------------0--------------|
G|2-------2---------------2------|--------2-------0--------------|
D|0-------0---------------0------|--------2-------0--------------|
A|-------------------------------|--------0-------0--------------|
E|-------------------------------|-------------------------------|
      she gets    while   she can                         Get back
              it


  A
e|------- ------- ----9-9 9-9-9--|------- ------- ----9-9 9-9-9--|
B|--------------------8-8-8-8-8--|--------------------8-8-8-8-8--|
G|--------------------9-9-9-9-9--|--------------------9-9-9-9-9--|
D|------------7------------------|------------7------------------|
A|----7---9----------------------|-----7--9----------------------|
E/9------------------------------/9------------------------------|

e|------- ------- ------- -------|------- ------- ------- -------|
B|-------------------------------|-------------------------------|
G|----2-------2------------------|-------------------------------|
D|----2-------2------------------|-------------------------------|
A|----0-------0------------------|-------------------------------|
E|-------------------------------|-------------------------------|
                          Get back                        Get back

  D
e|------- ------- ----8-8 8-8-8--|------- ------- ----9-9 9-9-9--|
B|--------------------7-7-7-7-7--|--------------------8-8-8-8-8--|
G|--------------------7-7-7-7-7--|--------------------9-9-9-9-9--|
D|------------7------------------|------------7------------------|
A|----7---9----------------------|----7---9----------------------|
E/9------------------------------/9------------------------------|

e|------- ------- ------- -------|------- ------- 0------ -------|
B|----3-------3-------3----------|----------------0--------------|
G|----2-------2-------2----------|----2-------2---0--------------|
D|----0-------0-------0----------|----2-------2---0--------------|
A|-------------------------------|----0-------0---0--------------|
E|-------------------------------|----------------0--------------|
      to  where   once    belonged                        Get back
              you


  A           A7
e|------- ------- ----9-9 9-9-9--|------- ------- ----9-9 9-9-9--|
B|--------------------8-8-8-8-8--|--------------------8-8-8-8-8--|
G|--------------------9-9-9-9-9--|--------------------9-9-9-9-9--|
D|------------7------------------|------------7------------------|
A|----7---9----------------------|-----7--9----------------------|
E/9------------------------------/9------------------------------|

e|------- ------- ------- -------|------- ------- ------- -------|
B|------------2------------------|------------2-----------2------|
G|---2--------0------------------|------------0-----------0------|
D|---2--------2------------------|------------2-----------2------|
A|---0--------0------------------|------------0-----------0------|
E|-------------------------------|-------------------------------|

e|------- ------- ------- -------|------- ------- ------- -------|
B|-------------------------------|-------------------------------|
G|------------5------------------|------------5------------------|
D|------------5------------------|------------5------------------|
A|------------0------------------|------------0------------------|
E|-------------------------------|-------------------------------|
                          Get back                        Get back

  D                               A
e|------- ------- ----8-8 8-8-8--|------- ------- ----9-9 9-9-9--|
B|--------------------7-7-7-7-7--|--------------------8-8-8-8-8--|
G|--------------------7-7-7-7-7--|--------------------9-9-9-9-9--|
D|------------7------------------|------------7------------------|
A|----7---9----------------------|----7---9----------------------|
E/9------------------------------/9------------------------------|

e|------- ------- ------- -------|------- ------- ------- -------|
B|3-------------------3-------3--|-------------------------------|
G|2-------------------2-------2--|2---2-------2-------2----------|
D|0-------------------0-------0--|2---2-------2-------2----------|
A|-------------------------------|0---0-------0-------0----------|
E|-------------------------------|-------------------------------|
      to  where   once     belonged           Get back
                                                      Loretta

e|------- ------- ------- -------|----12- ------- ------- -------|
B|-10--10-10-1010---1010--12--12-12B14-------14-R-12--10------10-\-|
G/11-----------------------------|-----------------------/11-------|
D|-------------------------------|---------------------------------|
A|-------------------------------|---------------------------------|
E|-------------------------------|---------------------------------|

e|------- ------- ------- -------|------- ------- ------- -------|
B|-------------------------------|-------------------------------|
G|2-------2-------2-------2------|2---------------2-------2------|
D|2-------2-------2-------2------|2---------------2-------2------|
A|0-------0-------0-------0------|0---------------0-------0------|
E|-------------------------------|-------------------------------|


  D                               A               G       D
e|------- ------- ------- -------|------- ------- ------- -------|
B|-------------------------------|----7B8-5----------------------|
G|------------7-------5-------5-B|6-----------5---7B9-5---5---7--|
D|----7-------------------7------|----------7-----------7--------|
A|9-------9----------------------|-------------------------------|
E|-------------------------------|-------------------------------|

e|------- ------- ------- -------|------- ------- 3------ 2------|
B|3---------------3-------3------|----------------3-------3------|
G|2---------------2-------2------|2-------2-------0-------2------|
D|0---------------0-------0------|2-------2-------0-------0------|
A|-------------------------------|0-------0-------2--------------|
E|-------------------------------|----------------3--------------|

  A
e|------- ------- ------- -------|------- ------- ------- -------|
B|----10--10--10-----10-H-12--12-|12B14------14---14R1210---12B14|
G|11-----------------------------|------------------------11-----|
D|-------------------------------|-------------------------------|
A|-------------------------------|-------------------------------|
E|-------------------------------|-------------------------------|

e|------- ------- ------- -------|------- ------- ------- -------|
B|-------------------------------|-------------------------------|
G|2-------2-------2-------2------|2---------------2-------2------|
D|2-------2-------2-------2------|2---------------2-------2------|
A|0-------0-------0-------0------|0---------------0-------0------|
E|-------------------------------|-------------------------------|


  D                               A               G6/9
e|------- ------- ------- -------|------- ------- ------- -------|
B|----10--12B1410-12B1410-12B1410|--12B14-10-12--12B1410--10--12-|
G|-------------------------------|----------12----------11-------|
D|-------------------------------|-------------------------------|
A|-------------------------------|-------------------------------|
E|-------------------------------|-------------------------------|

e|------- ------- ------- -------|------- ------- 0------ -------|
B|3-------3-------3-------3------|----------------0--------------|
G|2-------2-------2-------2------|2-------2-------0--------------|
D|0-------0-------0-------0------|2-------2-------0--------------|
A|-------------------------------|0-------0-------0--------------|
E|-------------------------------|-------------------------------|
                                     Go home

  A           A7                  A           A7
e|------- ------- ----9-9 9-9-9--|------- ------- ----9-9 9-9-9--|
B|--------------------8-8-8-8-8--|--------------------8-8-8-8-8--|
G|--------------------9-9-9-9-9--|--------------------9-9-9-9-9--|
D|------------7------------------|------------7------------------|
A|----7---9----------------------|-----7--9----------------------|
E/9------------------------------/9------------------------------|

e|------- ----3-- ------- -------|------- ----3-- ------- -------|
B|------------2------------------|------------2------------------|
G|------------0------------------|------------0------------------|
D|2-------2---2------------------|2---2---2---2------------------|
A|0-------0---0------------------|0---0---0---0------------------|
E|-------------------------------|-------------------------------|

e|------- ------- ------- -------|------- ------- ------- -------|
B|-------------------------------|-------------------------------|
G|------------5------------------|------------5------------------|
D|------------5------------------|------------5------------------|
A|------------0------------------|------------0------------------|
E|-------------------------------|-------------------------------|
                          Get back                        Get back

  D                               A
e|------- ------- ----8-8 8-8-8--|------- ------- ----9-9 9-9-9--|
B|--------------------7-7-7-7-7--|--------------------8-8-8-8-8--|
G|--------------------7-7-7-7-7--|--------------------9-9-9-9-9--|
D|------------7------------------|------------7------------------|
A|----7---9----------------------|----7---9----------------------|
E/9------------------------------/9------------------------------|

e|------- ------- ------- -------|------- ------- ------- -------|
B|------------3------------------|----2-------2-------2----------|
G|------------2------------------|----2-------0-------2----------|
D|------------0------------------|----2-------2-------2----------|
A|-------------------------------|----0-------0-------0----------|
E|-------------------------------|-------------------------------|
      to  where   once    belonged                        Get back
              you

  A           A7                  A           A7
e|------- ------- ----9-9 9-9-9--|------- ------- ----9-9 9-9-9--|
B|--------------------8-8-8-8-8--|--------------------8-8-8-8-8--|
G|--------------------9-9-9-9-9--|--------------------9-9-9-9-9--|
D|------------7------------------|------------7------------------|
A|----7---9----------------------|-----7--9----------------------|
E/9------------------------------/9------------------------------|

e|------- ----3-- ------- -------|------- ----3-- ------- -------|
B|------------2------------------|------------2------------------|
G|------------0------------------|------------0------------------|
D|2-------2---2------------------|2-------2---2------------------|
A|0-------0---0------------------|0-------0---0------------------|
E|-------------------------------|-------------------------------|

e|------- ------- ------- -------|------- ------- ------- -------|
B|-------------------------------|-------------------------------|
G|------------5------------------|------------5------------------|
D|------------5------------------|------------5------------------|
A|------------0------------------|------------0------------------|
E|-------------------------------|-------------------------------|
                          Get back                        Get back


                              (.
                          C   D
e|------- ------- ------- -------|------- ------- ------- -------|
B|------------------------5-/-7--|-------------------------------|
G|------------------------5-/-7--|-------------------------------|
D|x-------x-------x-------5-/-7--|-------------------------------|
A|x-------x-------x-------3-/-5--|-------------------------------|
E|-------------------------------|-------------------------------|

e|------- ------- ------- ----2--|------- ------- ------- -------|
B|----------------------------3--|-------------------------------|
G|----------------------------2--|-------------------------------|
D|----------------------------0--|-------------------------------|
A|----0--------------------------|-------------------------------|
E|-------------------------------|-------------------------------|
                                                          (.
e|------- ------- ------- -------|------- ------- ------- -------|
B|-------------------------------|--------7-----------5---3------|
G|-------------------------------|------------------------5------|
D|------------------------------5/7-----------5-----------4------|
A|-------------------------------|-------------------------------|
E|-------------------------------|-------------------------------|
      to where    once    belonged                      Oooooooh
             you

e|------- ------- ------- -------|------- ------- ------- -------|
B|-------------------------------|-------------------------------|
G|-------------------------------|-------------------------------|
D|-------------------------------|-------------------------------|
A|-------------------------------|-------------------------------|
E|-------------------------------|-------------------------------|

  x x  x  X   X

e|------- -------|
B|---------------|
G|---------------|
D|---------------|
A|---------------|
E|---------------|

  A
e|------- ------- ------- -------|------- ------- ------- -------|
B|-------------------------------|-------------------------------|
G|-------------------------------|-------------------------------|
D|--------4-------2-------4------|2-------4-------2-------4---2-/|
A|--------0-------0-------0------|0-------0-------0-------0---0--|
E|-------------------------------|-------------------------------|

e|------- ------- ------- -------|------- ------- ------- -------|
B|-------------------------------|-------------------------------|
G|--------2-------2-------2------|2-------2-------2-------2------|
D|--------2-------2-------2------|2-------2-------2-------2------|
A|--------0-------0-------0------|0-------0-------0-------0------|
E|-------------------------------|-------------------------------|
                                            Get back Loretta

  D                               A               G       D
e|------- ------- ------- -------|------- ------- ----9-9 9-9-9--|
B|-------------------------------|--------------------8-8-8-8-8--|
G|2-------4-------2-------4------|--------------------9-9-9-9-9--|
D|0-------0-------0-------0------|------------7------------------|
A|-------------------------------|----7---9----------------------|
E|-------------------------------/9------------------------------|

e|------- ------- ------- -------|------- ------- 3------ 2------|
B|3---------------3-------3------|----------------3-------3------|
G|2---------------2-------2------|2---------------0-------2------|
D|0---------------0-------0------|2---------------0-------0------|
A|-------------------------------|0---------------2--------------|
E|-------------------------------|----------------3--------------|
                    Your mama's waiting for you      wearing her
                                                               high


  A
e|------- ------- ----9-9 9-9----|------- ------- ----9-9 9------|
B|--------------------8-8-8-8----|--------------------8-8-8------|
G|--------------------9-9-9-9----|--------------------9-9-9------|
D|------------7------------------|------------7------------------|
A|----7---9----------------------|-----7--9----------------------|
E/9------------------------------/9------------------------------|

e|------- ------- ------- -------|------- ------- ------- -------|
B|-------------------------------|-------------------------------|
G|2---------------2--------------|2-------2-------2-------2------|
D|2---------------2--------------|2-------2-------2-------2------|
A|0---------------0--------------|0-------0-------0-------0------|
E|-------------------------------|-------------------------------|
      heeled  shoes                         and her low neck sweater

  D                               A               G       D
e|------- ------- ----8-8 8-8----|------- ------- ----9-9 9-9----|
B|--------------------7-7-7-7----|--------------------8-8-8-8----|
G|--------------------7-7-7-7----|--------------------9-9-9-9----|
D|------------7------------------|------------7------------------|
A|----7---9----------------------|----7---9----------------------|
E/9------------------------------/9------------------------------|

e|------- ------- ------- -------|------- ------- 3------ 2------|
B|3---------------3-------3------|----------------3-------3------|
G|2---------------2-------2------|2-------2---2---0-------2------|
D|0---------------0-------0------|2-------2---2---0-------0------|
A|-------------------------------|0-------0---0---2--------------|
E|-------------------------------|----------------3--------------|
                    Get back home    Loretta              Get back

  A           A7                  A           A7
e|------- ------- ----9-9 9-9----|------- ------- ----9-9 9-9----|
B|--------------------8-8-8-8----|--------------------8-8-8-8----|
G|--------------------9-9-9-9----|--------------------9-9-9-9----|
D|------------7------------------|------------7------------------|
A|----7---9----------------------|-----7--9----------------------|
E/9------------------------------/9------------------------------|

e|------- ----3-- ------- -------|------- ----3-- ------- -------|
B|------------2------------------|------------2------------------|
G|------------0------------------|------------0------------------|
D|--------2---2------------------|2-------2---2------------------|
A|--------0---0------------------|0-------0---0------------------|
E|-------------------------------|-------------------------------|

e|------- ------- ------- -------|------- ------- ------- -------|
B|-------------------------------|-------------------------------|
G|------------5------------------|------------5------------------|
D|------------5------------------|------------5------------------|
A|------------0------------------|------------0------------------|
E|-------------------------------|-------------------------------|
                          Get back                        Get back

  D                           A                   G6/9
e|------- ------- ----8-8 8-8----|------- ------- ----9-9 9-9----|
B|--------------------7-7-7-7----|--------------------8-8-8-8----|
G|--------------------7-7-7-7----|--------------------9-9-9-9----|
D|------------7------------------|------------7------------------|
A|----7---9----------------------|----7---9----------------------|
E/9------------------------------/9------------------------------|

e|------- ------- ------- -------|------- ------- 0------ -------|
B|3-------3---3---3-------3------|----------------0--------------|
G|2-------2---2---2-------2---2--|----2-------2---0--------------|
D|0-------0---0---0-------0---2--|----2-------2---0--------------|
A|----------------------------0--|----0-------0---0--------------|
E|-------------------------------|----------------0--------------|
      to  where once belonged                         Oh  Get back
              you


  A           A7                  A           A7
e|------- ------- ----9-9 9-9----|------- ------- ----9-9 9--9---|
B|--------------------8-8-8-8----|--------------------8-8-8--8---|
G|--------------------9-9-9-9----|--------------------9-9-9--9---|
D|------------7------------------|------------7------------------|
A|----7---9----------------------|-----7--9----------------------|
E/9------------------------------/9------------------------------|

e|------- ----3-- ------- 3------|------- ----3-- ------- 3---3--|
B|------------2-----------2------|------------2-----------2---2--|
G|------------0-----------0------|------------0-----------0---0--|
D|2-------2---2-----------2------|2---2-------2-----------2---2--|
A|0-------0---0-----------0------|0---0-------0-----------0---0--|
E|-------------------------------|-------------------------------|
                      Get back                            Get back
  .............................Fade..............................


  D                               A
e|------- ------- ----8-8 8--8---|------- ------- ----9-9 9--9---|
B|--------------------7-7-7--7---|--------------------8-8-8--8---|
G|--------------------7-7-7--7---|--------------------9-9-9--9---|
D|------------7------------------|------------7------------------|
A|----7---9----------------------|----7---9----------------------|
E/9------------------------------/9------------------------------|

e|------- ------- ------- -------|------- ------- ------- -------|
B|------------3-------3-------3--|-------------------------------|
G|------------2-------2-------2--|----2---2-----------2-------2--|
D|------------0-------0-------0--|----2---2-----------2-------2--|
A|-------------------------------|----0---0-----------0-------0--|
E|-------------------------------|-------------------------------|
                      Oh  yeah                               JoJo
  ...............................................................

e|------- ------- ----9-9 9--9---|
B|--------------------8-8-8--8---|
G|--------------------9-9-9--9---|
D|------------7------------------|
A|----7---9----------------------|
E/9------------------------------|

e|------- ------- ------- -------|
B|-------------------------------|
G|----2-------2-------2-------2--|
D|----2-------2-------2-------2--|
A|----0-------0-------0-------0--|
E|-------------------------------|
  ..............................

        B  Bend
        R  Release
        /  slide up
        \  slide down
        H  hammer-on
        P  pull-off
        ~  vibrato
        +  harmonic
        x  Mute note
        . - play note like a dot in standard notation
        ^ - ties two notes together
        (.  Pause

  ------------------------------------------------------------------

  THE BEATLES - DIG A PONY (Lennon & McCartney) This tab is based on
                the LET IT BE NAKED album. Released 18th November
                2003.

  ------------------------------------------------------------------

  Tabbed by:PJVillanueva

  I hi hi hi hi dig a pony
  Well you can celebrate anything you want
  Yes, you can celebrate anything you want
  Ooooh.
  I hi hi hi hi do a road hog
  Well you can penetrate any place you go
  Yes you can penetrate any place you go
  I told you, all I want is you.
  Ev'rything has got to be just like you want it to
  Because

  I hi hi hi hi pick a moon dog
  Well you can radiate ev'rything you are
  Yes you can radiate ev'rything you are
  Ooooh.
  I hi hi hi hi roll a stoney
  Well you can imitate ev'ryone you know
  Yes you can imitate ev'ryone you know
  I told you, all I want is you.
  Ev'rything has got to bejust like you want it to
  Because

  I hi hi hi hi feel the wind blow
  Well you can indicate ev'rything you see
  Yes you can indicate ev'rything you see
  Ooooh now
  I hi hi hi hi Laurie Laurie
  Well you can syndicate any boat you row
  Yes you can syndicate any boat you row
  I told you, all I want is you.
  Ev'rything has got to bejust like you want it to
  Because

  G                             D
e|3-------- --------- ---------|2-------- --------- ---------|
B|3----------------------------|3----------------------------|
G|0----------------------------|2----------------------------|
D|0----------------------------|0----------------------------|
A|2----------------------------|-----------------------------|
E|3----------------------------|-----------------------------|

e|--------- --------- ---------|--------- --------- ---------|
B|-----------------------------|-----------------------------|
G|-----------------------------|--------------------7--------|
D|--------------------5--------|----------7-----9---------9--|
A|----------5-----7---------7--|5--/--9----------------------|
E|3--/--7----------------------|-----------------------------|


  A
e|0-----0-- 0-----0-- ---------|0-----0-- 0-----0-- 0--------|
B|2-----2---2-----2------------|2-----2---2-----2---2--------|
G|2-----2---2-----2------------|2-----2---2-----2---2--------|
D|2-----2---2-----2------------|2-----2---2-----2---2--------|
A|0-----0---0-----0------------|0-----0---0-----0---0--------|
E|-----------------------------|-----------------------------|

e|--------- --------- ---------|--------- --------- ---------|
B|-----------------------------|-----------------------------|
G|-----------------------------|-----------------------------|
D|7-----7---7------------------|------7----------------------|
A|7-----7---7---------------7--|8-H-9-----9-----7---------0--|
E|5-----5---5-----8---9--------|---------------------8-H-9---|


  G                             D
e|3-------- --------- ---------|2-------- --------- ---------|
B|3----------------------------|3----------------------------|
G|0----------------------------|2----------------------------|
D|0----------------------------|0----------------------------|
A|2----------------------------|-----------------------------|
E|3----------------------------|-----------------------------|

e|--------- --------- ---------|--------- --------- ---------|
B|-----------------------------|-----------------------------|
G|-----------------------------|--------------------7--------|
D|--------------------5--------|----------7-----9---------9--|
A|----------5-----7---------7--|5--/--9----------------------|
E|3--/--7----------------------|-----------------------------|


  A
e|0-----0-- 0-------- 0--------|0--0--0-- 0-------- 0--------|
B|2-----2---2---------2--------|2--2--2---2---------2--------|
G|2-----2---2---------2--------|2--2--2---2---------2--------|
D|2-----2---2---------2--------|2--2--2---2---------2--------|
A|0-----0---0---------0--------|0--0--0---0---------0--------|
E|-----------------------------|-----------------------------|

e|--------- --------- ---------|--------- --------- ---------|
B|-----------------------------|-----------------------------|
G|-----------------------------|-----------------------------|
D|7-----7---7------------------|------7----------------------|
A|7-----7---7---------------7--|8-H-9-----9-----7---------7--|
E|5-----5---5-----8---9--------|---------------------8-H-9---|

                      A6sus4    A                       A6sus4
e|--------- ------5-- ---------|--------- ------5-- ---------|
B|2---------2-----2---3--------|2---------------2---2-H-3----|
G|2---------2-----2---2--------|2---------------2---2--------|
D|2---------2-----2---4--------|2---------------2---2-H-3----|
A|0---------0-----0---0--------|0---------------0---0--------|
E|-----------------------------|-----------------------------|
  I                   hi        hi                  hi

  A                   A6sus4    A
e|--------- ------5-- ---------|--------- ------5-- ------5--|
B|2---------2-----2---3--------|2---------2-----2---2-----2--|
G|2---------2-----2---2--------|2---------2-----2---2-----2--|
D|2---------2-----2---4--------|2---------2-----2---2-----2--|
A|0---------0-----0---0--------|0---------0-----0---0-----0--|
E|-----------------------------|-----------------------------|
  hi                                                dig a pony


  F#m
e|2-------- 2-----2-- 2-----2--|2-------- 2-----2-- 2-----2--|
B|2---------2-----2---2-----2--|2---------2-----2---2-----2--|
G|2---------2-----2---2-----2--|2---------2-----2---2-----2--|
D|4---------4-----4---4-----4--|4---------4-----4---4-----4--|
A|4---------4-----4---4-----4--|4---------4-----4---4-----4--|
E|2---------2-----2---2-----2--|2---------2-----2---2-----2--|
                                               Well you   can
e|--------- --------- ---------|--------- --------- ---------|
B|-----------------------------|-----------------------------|
G|-----------------------------|-----------------------------|
D|--------------------------2--|4---------2------------------|
A|-----------------------------|--------------------4--------|
E|-----------------------------|-----------------------------|

e|--------- --------- ------0-H|2-----0-H 2-----0-H 2--------|
B|--------------------------0-H|2-----0-H-2-----0-H-2--------|
G|--------------------------1-H|2-----1-H-2-----1-H-2--------|
D|-----------------------------|-----------------------------|
A|-----------------------------|-----------------------------|
E|-----------------------------|-----------------------------|

  Bm                            G7
e|2-----2-- ------2-- ------2--|3-----3-- ------3-- ------3--|
B|3-----3---------3---------3--|6-----6---------6---------6--|
G|4-----4---------4---------4--|4-----4---------4---------4--|
D|4-----4---------4---------4--|3-----3---------3---------3--|
A|2-----2---------2---------2--|5-----5---------5---------5--|
E|-----------------------------|3-----3---------3---------3--|
  celebrate      anything   you want
e|--------- --------- ---------|--------- 3-------- 5-/-7----|
B|-----------------------------|-----------------------------|
G|-----------------------------|----------4---------5-/-7----|
D|-----------------------------|-----------------------------|
A|-----------------------------|-----------------------------|
E|-----------------------------|-----------------------------|

                            Bm
e|--------- 3-----3-- 3-----2--|------2-- ------2-- ---------|
B|----------6-----6---6-----3--|------3---------3------------|
G|----------4-----4---4-----4--|------4---------4------------|
D|----------3-----3---3-----4--|------4---------4------------|
A|----------5-----5---5-----2--|------2---------2------------|
E|----------3-----3---3--------|-----------------------------|
                      Yes,      you  can  celebrate       any..
e|5-------- 3-------- ---------|2-------- --------- ---------|
B|-----------------------------|-----------------------------|
G|5---------4------------------|4----------------------------|
D|-----------------------------|-----------------------------|
A|-----------------------------|-----------------------------|
E|-----------------------------|-----------------------------|

  G7                        E
e|3-----3-- ------3-- ------0--|0-------- 0-----0-- ------0--|
B|6-----6---------6---------0--|0---------0-----0---------0--|
G|4-----4---------4---------1--|1---------1-----1---------1--|
D|3-----3---------3---------2--|2---------2-----2---------2--|
A|5-----5---------5---------2--|2---------2-----2---------1--|
E|3-----3---------3---------0--|0---------0-----0---------0--|
  thing     you   want
e|--------- --------- ---------|-0------- -2------- -4-------|
B|-----------------------------|-----------------------------|
G|--------------------------0-H|1---------2---------4--------|
D|-----------------------------|-----------------------------|
A|-----------------------------|-----------------------------|
E|-----------------------------|-----------------------------|

e|0-------- 0-----0-- 0--------|
B|0---------0-----0---0--------|
G|1---------1-----1---1--------|
D|2---------2-----2---2--------|
A|2---------2-----2---2--------|
E|0---------0-----0---0--------|
  Ooooh
e|-5------- -7------- -8-------|
B|-----------------------------|
G|6---------7---------8--------|
D|-----------------------------|
A|-----------------------------|
E|-----------------------------|


  A                   A6sus4    A                   A6sus4
e|--------- ------5-- ---------|--------- ------5-- ---------|
B|2---------2-----2---3--------|2---------------2---3--------|
G|2---------2-----2---2--------|2---------------2---2--------|
D|2---------2-----2---4--------|2---------------2---4--------|
A|0---------0-----0---0--------|0---------------0---0--------|
E|-----------------------------|-----------------------------|
  I                   hi        hi                  hi
e|9-------- --------- ---------|--------- --------- ---------|
B|-----------------------------|-----------------------------|
G|9----------------------------|-----------------------------|
D|-----------------------------|-----------------------------|
A|-----------------------------|-----------------------------|
E|-----------------------------|-----------------------------|


  A                   A6sus4    A                         F#m
e|--------- ------5-- ---------|--------- ------5-- ------2--|
B|2---------2-----2---3-----3--|2---------2-----2---------2--|
G|2---------2-----2---2-----2--|2---------2-----2---------2--|
D|2---------2-----2---4-----4--|2---------2-----2---------4--|
A|0---------0-----0---0-----0--|0---------0-----0---------4--|
E|-----------------------------|--------------------------2--|
  hi                                                do    a
e|--------- --------- ---------|--------- --------- ---------|
B|-----------------------------|-----------------------------|
G|-----------------------------|4---------2---------4--------|
D|-----------------------------|-----------------------------|
A|-----------------------------|-----------------------------|
E|-----------------------------|-----------------------------|



e|--------- 2-------- 2-----2--|2-------- 2-----2-- 2-----2--|
B|----------2---------2-----2--|2---------2-----2---2-----2--|
G|----------2---------2-----2--|2---------2-----2---2-----2--|
D|----------4---------4-----4--|4---------4-----4---4-----4--|
A|----------4---------4-----4--|4---------4-----4---4-----4--|
E|----------2---------2-----2--|2---------2-----2---2-----2--|
  road  hog                                    Well you   can
e|--------- --------- ---------|--------- --------- ---------|
B|-----------------------------|-----------------------------|
G|-----------------------------|-----------------------------|
D|4----------------------------|4---------2------------------|
A|-----------------------------|--------------------4--------|
E|-----------------------------|-----------------------------|


  Bm                            G7
e|2-----2-- 2-----2-- ---------|3-----3-- 3-----3-- 3-----3--|
B|3-----3---3-----3------------|6-----6---6-----6---6-----6--|
G|4-----4---4-----4------------|4-----4---4-----4---4-----4--|
D|4-----4---4-----4------------|3-----3---3-----3---3-----3--|
A|2-----2---2-----2------------|5-----5---5-----5---5-----5--|
E|-----------------------------|3-----3---3-----3---3-----3--|
  penetrate    any place you go
e|--------- --------- ---------|--------- ------3-/ 5------5/|
B|-----------------------------|-----------------------------|
G|-----------------------------|----------------4-/-5------5/|
D|-----------------------------|-----------------------------|
A|2----------------------------|-----------------------------|
E|-----------------------------|-----------------------------|


                            Bm
e|--------- 3-----3-- 3-----2--|------2-- 2-----2-- 2-----2--|
B|----------6-----6---6-----3--|------3---3-----3---3-----3--|
G|----------4-----4---4-----4--|------4---4-----4---4-----4--|
D|----------3-----3---3-----4--|------4---4-----4---4-----4--|
A|----------5-----5---5-----2--|------2---2-----2---2-----2--|
E|----------3-----3---3--------|-----------------------------|
                  Yes           you   can  penetrate   any
e|7-------- 5-------- 3--------|--------- --------- ---------|
B|-----------------------------|-----------------------------|
G|7---------5---------4--------|-----------------------------|
D|-----------------------------|-----------------------------|
A|-----------------------------|-----------------------------|
E|-----------------------------|-----------------------------|


  G7                        E
e|3-----3-- ------3-- ------0--|0-----0-- 0-----0-- 0-----0--|
B|6-----6---------6---------0--|0-----0---0-----0---0-----0--|
G|4-----4---------4---------1--|1-----1---1-----1---1-----1--|
D|3-----3---------3---------2--|2-----2---2-----2---2-----2--|
A|5-----5---------5---------2--|2-----2---2-----2---2-----1--|
E|3-----3---------3---------0--|0-----0---0-----0---0-----0--|
  place     you   go                                I
e|--------- --------- ---------|9---\---- 7-------- ------4--|
B|-----------------------------|-----------------------------|
G|--------------------------7/9|----\---7-----------7-\-4----|
D|-----------------------------|-----------------------------|
A|-----------------------------|-----------------------------|
E|-----------------------------|-----------------------------|

e|0-----0-- 0-----0-- 0-----0--|
B|0-----0---0-----0---0-----0--|
G|1-----1---1-----1---1-----1--|
D|2-----2---2-----2---2-----2--|
A|2-----2---2-----2---2-----2--|
E|0-----0---0-----0---0-----0--|
  told      you   so
e|--------- 0-------- ---------|
B|-----------------------------|
G|----------1------------------|
D|-----------------------------|
A|-----------------------------|
E|-----------------------------|

  G                             D
e|3-------- 3-------- 3--------|2-------- 2-----2-- 2--------|
B|3---------3---------3--------|3---------3-----3---3--------|
G|0---------0---------0--------|2---------2-----2---2--------|
D|0---------0---------0--------|0---------0-----0---0--------|
A|2---------2---------2--------|-----------------------------|
E|3---------3---------3--------|-----------------------------|
  All                 I         want                is
e|--------- --------- ---------|--------- --------- ---------|
B|-----------------------------|-----------------------------|
G|-----------------------------|--------------------7--------|
D|-----------------------------|4---------7------------------|
A|--------------------5--------|-----------------------------|
E|3---------7------------------|-----------------------------|


  A5
e|--------- --------- ---------|--------- --------- ---------|
B|-----------------------------|-----------------------------|
G|2-----2---2------------------|------2----------------------|
D|2-----2---2---------------2--|3-H-4-----4-----2------------|
A|0-----0---0-----3---4--------|-------------------3-H-4--0--|
E|-----------------------------|-----------------------------|
  A5
e|--------- --------- ---------|--------- --------- ---------|
B|-----------------------------|-----------------------------|
G|-----------------------------|-----------------------------|
D|7-----7---7------------------|------7----------------------|
A|7-----7---7---------------7-H|8-H-9-----9-----7---------0--|
E|5-----5---5-----8-H-9--------|--------------------8-H-9----|
  you


  G                             D
e|3-----3-- 3-----3-- 3--------|2-----2-- 2-----2-- 2-----0--|
B|3-----3---3-----3---3--------|3-----3---3-----3---3-----0--|
G|0-----0---0-----0---0--------|2-----2---2-----2---2-----0--|
D|0-----0---0-----0---0--------|0-----0---0-----0---0--------|
A|2-----2---2-----2---2--------|-----------------------------|
E|3-----3---3-----3---3--------|-----------------------------|
  Ev'rything      has got   to  be   just like  you  want it
e|--------- --------- ---------|--------- --------- ---------|
B|-----------------------------|-----------------------------|
G|-----------------------------|--------------------7--------|
D|--------------------5--------|----------7-----9---------9--|
A|----------5-----7---------7--|5--/--9----------------------|
E|3--/--7----------------------|-----------------------------|


 (.
  A
e|0-------- --------- ---------|--------- --------- ---------|
B|2----------------------------|-----------------------------|
G|2----------------------------|-----------------------------|
D|2----------------------------|-----------------------------|
A|0----------------------------|-----------------------------|
E|-----------------------------|-----------------------------|
  to
e|--------- --------- ---------|--------- --------- ---------|
B|-----------------------------|-----------------------------|
G|-----------------------------|-----------------------------|
D|7----------------------------|-----------------------------|
A|7----------------------------|-----------------------------|
E|5----------------------------|-----------------------------|

                                   x     x         x   x  x  x

e|--------- --------- --------- --|--------- --------- ---------|
B|--------------------------------|-----------------------------|
G|--------------------------------|-----------------------------|
D|--------------------------------|-----------------------------|
A|--------------------------------|-----------------------------|
E|--------------------------------|-----------------------------|
  Be..............cause

  A                   A6sus4    A                       A6sus4
e|--------- ------5-- ---------|--------- ------5-- ---------|
B|2---------2-----2---3--------|2---------2-----2---2-H-3----|
G|2---------2-----2---2--------|2---------2-----2---2--------|
D|2---------2-----2---4--------|2---------2-----2---2-H-4----|
A|0---------0-----0---0--------|0---------0-----0---0--------|
E|-----------------------------|-----------------------------|
  I                   hi        hi                  hi


  A                   A6sus4    A
e|--------- ------5-- ---------|--------- ------5-- ------5--|
B|2---------2-----2---3--------|2---------2-----2---2-----2--|
G|2---------2-----2---2--------|2---------2-----2---2-----2--|
D|2---------2-----2---4--------|2---------2-----2---2-----2--|
A|0---------0-----0---0--------|0---------0-----0---0-----0--|
E|-----------------------------|-----------------------------|
  hi                                                pick a moon
e|--------- --------- ---------|--------- --------- ---------|
B|2--H--3---------2-H-3--------|2----------------------------|
G|2---------------2------------|2----------------------------|
D|2--H--4---------2-H-4--------|2----------------------------|
A|0---------------0------------|0----------------------------|
E|-----------------------------|-----------------------------|

  F#m
e|2-----2-- 2-----2-- 2-----2--|2-------- 2-----2-- 2-----2--|
B|2-----2---2-----2---2-----2--|2---------2-----2---2-----2--|
G|2-----2---2-----2---2-----2--|2---------2-----2---2-----2--|
D|4-----4---4-----4---4-----4--|4---------4-----4---4-----4--|
A|4-----4---4-----4---4-----4--|4---------4-----4---4-----4--|
E|2-----2---2-----2---2-----2--|2---------2-----2---2-----2--|
        dog                                     Well you  can
e|--------- --------- ---------|--------- --------- ---------|
B|-----------------------------|-----------------------------|
G|-----------------------------|-----------------------------|
D|----------------------------2H4---------2------------------|
A|-----------------------------|--------------------4--------|
E|-----------------------------|-----------------------------|

e|--------- --------- ------0-H|2-----0-H 2-----0-H 2--------|
B|--------------------------0-H|2-----0-H-2-----0-H-2--------|
G|--------------------------1-H|2-----1-H-2-----1-H-2--------|
D|-----------------------------|-----------------------------|
A|-----------------------------|-----------------------------|
E|-----------------------------|-----------------------------|


  Bm                            G7
e|2-----2-- ------2-- ------2--|3-----3-- ------3-- ------3--|
B|3-----3---------3---------3--|6-----6---------6---------6--|
G|4-----4---------4---------4--|4-----4---------4---------4--|
D|4-----4---------4---------4--|3-----3---------3---------3--|
A|2-----2---------2---------2--|5-----5---------5---------5--|
E|-----------------------------|3-----3---------3---------3--|
  radiate  ev'rything     you are
e|--------- --------- ---------|--------- 3-------- 5-------5--|
B|-----------------------------|-------------------------------|
G|-----------------------------|----------4---------5-------5--|
D|-----------------------------|-------------------------------|
A|2----------------------------|-------------------------------|
E|-----------------------------|-------------------------------|


                            Bm
e|--------- 3-----3-- 3-----2--|2-----2-- 2-----2-- ---------|
B|----------6-----6---6-----3--|3-----3---3-----3------------|
G|----------4-----4---4-----4--|4-----4---4-----4------------|
D|----------3-----3---3-----4--|4-----4---4-----4------------|
A|----------5-----5---5-----2--|2-----2---2-----2------------|
E|----------3-----3---3--------|-----------------------------|
                      Yes,      You can radiate       ev'ry...
e|7-------- 5-------- 3--------|2-------- --------- ---------|
B|-----------------------------|-----------------------------|
G|7---------5---------4--------|4----------------------------|
D|-----------------------------|-----------------------------|
A|-----------------------------|-----------------------------|
E|-----------------------------|-----------------------------|

  G7                        E
e|3-----3-- ------3-- ------0--|0-----0-- 0-----0-- 0-----0--|
B|6-----6---------6---------0--|0-----0---0-----0---0-----0--|
G|4-----4---------4---------1--|1-----1---1-----1---1-----1--|
D|3-----3---------3---------2--|2-----2---2-----2---2-----2--|
A|5-----5---------5---------2--|2-----2---2-----2---2-----1--|
E|3-----3---------3---------0--|0-----0---0-----0---0-----0--|
  thing you       are
e|--------- --------- ---------|-0------- -2------- -4-------|
B|-----------------------------|-----------------------------|
G|--------------------------0-H|1---------2---------4--------|
D|-----------------------------|-----------------------------|
A|-----------------------------|-----------------------------|
E|-----------------------------|-----------------------------|


e|0-----0-- ------0-- 0--------|
B|0-----0---------0---0--------|
G|1-----1---------1---1--------|
D|2-----2---------2---2--------|
A|2-----2---------2---2--------|
E|0-----0---------0---0--------|
  Ooooh               Now
e|-5------- -7------- -8-------|
B|-----------------------------|
G|6---------7---------8--------|
D|-----------------------------|
A|-----------------------------|
E|-----------------------------|

  A                   A6sus4    A                       A6sus4
e|5-------- 5-----5-- 5--------|5-------- 5-----5-- 5--------|
B|2---------2-----2---3--------|2---------2-----2---2-H-3----|
G|2---------2-----2---2--------|2---------2-----2---2--------|
D|2---------2-----2---4--------|2---------2-----2---2-H-4----|
A|0---------0-----0---0--------|0---------0-----0---0--------|
E|-----------------------------|-----------------------------|
  I
e|9-------- --------- ---------|--------- --------- ---------|
B|-----------------------------|-----------------------------|
G|9----------------------------|-----------------------------|
D|-----------------------------|-----------------------------|
A|-----------------------------|-----------------------------|
E|-----------------------------|-----------------------------|

  A                   A6sus4    A                         F#m
e|5-------- 5-----5-- 5--------|5-------- 5-----5-- 5-----2--|
B|2---------2-----2---3--------|2---------2-----2---2-----2--|
G|2---------2-----2---2--------|2---------2-----2---2-----2--|
D|2---------2-----2---4--------|2---------2-----2---2-----4--|
A|0---------0-----0---0--------|0---------0-----0---0-----4--|
E|-----------------------------|--------------------------2--|
                                                    roll  a


e|2-----2-- 2-----2-- 2-----2--|2-------- 2-----2-- 2-----2--|
B|2-----2---2-----2---2-----2--|2---------2-----2---2-----2--|
G|2-----2---2-----2---2-----2--|2---------2-----2---2-----2--|
D|4-----4---4-----4---4-----4--|4---------4-----4---4-----4--|
A|4-----4---4-----4---4-----4--|4---------4-----4---4-----4--|
E|2-----2---2-----2---2-----2--|2---------2-----2---2-----2--|
  stoney                                       Well you can
e|--------- --------- ---------|--------- --------- ---------|
B|2----------------------------|-----------------------------|
G|2----------------------------|-----------------------------|
D|4---------------------------2H4---------2------------------|
A|4----------------------------|--------------------4--------|
E|-----------------------------|-----------------------------|

e|--------- --------- ------0-H|2-----0-H 2-----0-H 2--------|
B|--------------------------0-H|2-----0-H-2-----0-H-2--------|
G|--------------------------1-H|2-----1-H-2-----1-H-2--------|
D|-----------------------------|-----------------------------|
A|-----------------------------|-----------------------------|
E|-----------------------------|-----------------------------|

  Bm                            G7
e|2-----2-- ------2-- ------2--|3-----3-- ------3-- ------3--|
B|3-----3---------3---------3--|6-----6---------6---------6--|
G|4-----4---------4---------4--|4-----4---------4---------4--|
D|4-----4---------4---------4--|3-----3---------3---------3--|
A|2-----2---------2---------2--|5-----5---------5---------5--|
E|-----------------------------|3-----3---------3---------3--|
  imitate         ev'ryone  you know
e|--------- --------- ---------|------3-- 5-/-7---- 5--------|
B|-----------------------------|-----------------------------|
G|-----------------------------|------4---5-/-7-----5--------|
D|-----------------------------|-----------------------------|
A|2----------------------------|-----------------------------|
E|-----------------------------|-----------------------------|

                            Bm
e|--------- 3-----3-- 3-----2--|2-----2-- 2-----2-- ---------|
B|----------6-----6---6-----3--|3-----3---3-----3------------|
G|----------4-----4---4-----4--|4-----4---4-----4------------|
D|----------3-----3---3-----4--|4-----4---4-----4------------|
A|----------5-----5---5-----2--|2-----2---2-----2------------|
E|----------3-----3---3--------|-----------------------------|
                  Yes,          you  can  imitate   every....
e|3-------- 5-------- 7--------|2-------- --------- ---------|
B|-----------------------------|-----------------------------|
G|4---------5---------7--------|4----------------------------|
D|-----------------------------|-----------------------------|
A|-----------------------------|-----------------------------|
E|-----------------------------|-----------------------------|

  G7                        E
e|3-----3-- ------3-- ------0--|0-----0-- 0-----0-- 0-----0--|
B|6-----6---------6---------0--|0-----0---0-----0---0-----0--|
G|4-----4---------4---------1--|1-----1---1-----1---1-----1--|
D|3-----3---------3---------2--|2-----2---2-----2---2-----2--|
A|5-----5---------5---------2--|2-----2---2-----2---2-----1--|
E|3-----3---------3---------0--|0-----0---0-----0---0-----0--|
  one       you   know                                    I
e|--------- --------- ---------|7------\- 5-------- ------5--|
B|-----------------------------|-----------------------------|
G|--------------------------5/7|-------\5-----------------6--|
D|-----------------------------|-----------------------------|
A|-----------------------------|-----------------------------|
E|-----------------------------|-----------------------------|


e|0-----0-- ------0-- 0--------|
B|0-----0---------0---0--------|
G|1-----1---------1---1--------|
D|2-----2---------2---2--------|
A|2-----2---------2---2--------|
E|0-----0---------0---0--------|
  told      you   so
e|--------- 4-------- ---------|
B|-----------------------------|
G|----------4------------------|
D|-----------------------------|
A|-----------------------------|
E|-----------------------------|

  G                             D
e|3-------- 3-------- 3--------|2-------- 2-----2-- 2--------|
B|3---------3---------3--------|3---------3-----3---3--------|
G|0---------0---------0--------|2---------2-----2---2--------|
D|0---------0---------0--------|0---------0-----0---0--------|
A|2---------2---------2--------|-----------------------------|
E|3---------3---------3--------|-----------------------------|
  All                 I         want                is
e|--------- --------- ---------|--------- --------- ---------|
B|-----------------------------|-----------------------------|
G|-----------------------------|--------------------7--------|
D|-----------------------------|4---------7------------------|
A|--------------------5--------|-----------------------------|
E|3---------7------------------|-----------------------------|


  A5
e|--------- --------- ---------|--------- --------- ---------|
B|-----------------------------|-----------------------------|
G|2-----2---2------------------|------2----------------------|
D|2-----2---2---------------2--|3-H-4-----4-----2------------|
A|0-----0---0-----3---4--------|-------------------3-H-4--0--|
E|-----------------------------|-----------------------------|
  A5
e|--------- --------- ---------|--------- --------- ---------|
B|-----------------------------|-----------------------------|
G|-----------------------------|-----------------------------|
D|7-----7---7------------------|------7----------------------|
A|7-----7---7---------------7-H|8-H-9-----9-----7---------7--|
E|5-----5---5-----8-H-9--------|--------------------8-H-9----|
  you


  G                             D
e|3-----3-- 3-----3-- 3--------|2-----2-- 2-----2-- 2-----0--|
B|3-----3---3-----3---3--------|3-----3---3-----3---3-----0--|
G|0-----0---0-----0---0--------|2-----2---2-----2---2-----0--|
D|0-----0---0-----0---0--------|0-----0---0-----0---0--------|
A|2-----2---2-----2---2--------|-----------------------------|
E|3-----3---3-----3---3--------|-----------------------------|
  Ev'rything      has got   to  be   just like  you  want it
e|--------- --------- ---------|--------- --------- ---------|
B|-----------------------------|-----------------------------|
G|-----------------------------|--------------------7--------|
D|--------------------5--------|----------7-----9---------9--|
A|----------5-----7---------7--|5--/--9----------------------|
E|3--/--7----------------------|-----------------------------|


 (.
  A
e|0-------- --------- ---------|--------- --------- ---------|
B|2----------------------------|-----------------------------|
G|2----------------------------|-----------------------------|
D|2----------------------------|-----------------------------|
A|0----------------------------|-----------------------------|
E|-----------------------------|-----------------------------|
  to
e|--------- --------- ---------|--------- --------- ---------|
B|-----------------------------|-----------------------------|
G|-----------------------------|-----------------------------|
D|7----------------------------|-----------------------------|
A|7----------------------------|-----------------------------|
E|5----------------------------|-----------------------------|


                                   x     x         x   x  x  x

e|--------- --------- --------- --|--------- --------- ---------|
B|--------------------------------|-----------------------------|
G|--------------------------------|-----------------------------|
D|--------------------------------|-----------------------------|
A|--------------------------------|-----------------------------|
E|--------------------------------|-----------------------------|
  Be..............cause


Solo

  A                      A6sus4 A                       A6sus4
e|5-------- 5-----5-- 5--------|5-------- 5-----5-- 5--------|
B|2---------2-----2---2-H-3----|2---------2-----2---2-H-3----|
G|2---------2-----2---2--------|2---------2-----2---2--------|
D|2---------2-----2---2-H-4----|2---------2-----2---2-H-4----|
A|0---------0-----0---0--------|0---------0-----0---0--------|
E|-----------------------------|-----------------------------|

e|--------- --------- ---------|--------- --------- ---------|
B|-----------------------------|10-----------------B12R10----|
G|9------------------B11R9-----|--------------------------11-|
D|--------------------------11-|-----------------------------|
A|-----------------------------|-----------------------------|
E|-----------------------------|-----------------------------|


  A                                                     A6sus4
e|5-------- 5-----5-- 5-----5--|5-------- 5-----5-- 5--------|
B|2---------2-----2---2-H-3-2--|2---------5-----2---2-H-3----|
G|2---------2-----2---2-----2--|2---------2-----2---2--------|
D|2---------2-----2---2-H-4-2--|2---------2-----2---2-H-4----|
A|0---------0-----0---0-----0--|0---------0-----0---0--------|
E|-----------------------------|-----------------------------|

e|--------- --------- ---------|--------- ------14- ---------|
B|-----12-B-14-R-12------------|-----12-B-14--------12P10----|
G|-----------------------------|-----------------------------|
D|-----------------------------|-----------------------------|
A|-----------------------------|-----------------------------|
E|-----------------------------|-----------------------------|


  F#m
e|2-------- --------- ---------|--------- --------- ---------|
B|2----------------------------|-----------------------------|
G|2---------------2-2H4--P--2--|----------2---------2--------|
D|4---------------2-2H4--P--2--|4---------4---------4--------|
A|4----------------------------|4---------4---------4--------|
E|2----------------------------|2---------2---------2--------|

e|--------- --------- ---------|--------- --------- ---------|
B|-----------------------------|----------10--------12-------|
G|11---------------------------|-----------------------------|
D|-----------------------------|-----------------------------|
A|-----------------------------|-----------------------------|
E|-----------------------------|-----------------------------|


  Bm                            G7
e|--------- --------- ---------|--------- --------- ---------|
B|--------------------3--------|-----------------------------|
G|-----------------------------|--------------------4--------|
D|----------4------------------|----------3------------------|
A|2----------------------------|-----------------------------|
E|-----------------------------|3----------------------------|

e|--------- --------- ---------|--------- --------- ---------|
B|12B15---------------15-------|15---R-----------------------|
G|-----------------------------|----------10-----------------|
D|-----------------------------|-----------------------------|
A|-----------------------------|-----------------------------|
E|-----------------------------|-----------------------------|


                                Bm
e|3-------- --------- ---------|--------- --------- ---------|
B|----------6------------------|--------------------3--------|
G|--------------------4--------|----------4------------------|
D|-----------------------------|4----------------------------|
A|-----------------------------|-----------------------------|
E|-----------------------------|-----------------------------|

e|--------- --------- ---------|--------- --------- ---------|
B|-----------------------------|12B15---------------15-------|
G|-----12-B-14-----R--10-------|-----------------------------|
D|-----------------------------|-----------------------------|
A|-----------------------------|-----------------------------|
E|-----------------------------|-----------------------------|


  G7                            E
e|--------- --------- 3--------|--------- --------- 0--------|
B|--------------------6--------|--------------------0--------|
G|----------4------------------|----------1------------------|
D|-----------------------------|2----------------------------|
A|5----------------------------|-----------------------------|
E|-----------------------------|-----------------------------|

e|--------- --------- ---------|------12- --------- 14---------|
B|15----R----------------------|-------------------------------|
G|----------12--------------12/|13--------13-----14-------14---|
D|-----------------------------|-------------------------------|
A|-----------------------------|-------------------------------|
E|-----------------------------|-------------------------------|

e|0-------- 0-------- 0--------|
B|0---------0---------0--------|
G|1---------1---------1--------|
D|2---------2---------2--------|
A|-----------------------------|
E|-----------------------------|
  Ooooooooooh     now
e|------16- ------14- ------12-|
B|-----------------------------|
G|16--------14--------13-------|
D|-----------------------------|
A|-----------------------------|
E|-----------------------------|


  A                      A6sus  A                       A6sus4
e|--------- ------5-- ---------|--------- 5-----5-- ---------|
B|2---------------2---2-H-3----|2---------2-----2---2-H-3----|
G|2---------------2---2--------|2---------2-----2---2--------|
D|2---------------2---2-H-4----|2---------2-----2---2-H-3----|
A|0---------------0---0--------|0---------0-----0---0--------|
E|-----------------------------|-----------------------------|
  I                   hi        hi                  hi


  A                      A6sus4 A                         F#m
e|--------- 5-----5-- ---------|5-------- 5-----5-- ------2--|
B|2---------2-----2---2-H-3----|2---------2-----2---------2--|
G|2---------2-----2---2--------|2---------2-----2---------2--|
D|2---------2-----2---2-H-4----|2---------2-----2---------4--|
A|0---------0-----0---0--------|0---------0-----0---------4--|
E|-----------------------------|--------------------------2--|
  hi                                                  feel  the
e|--------- --------- ---------|--------- --------- ---------|
B|-----------------------------|-----------------------------|
G|-----------------------------|4/6-------2------------------|
D|-----------------------------|-----------------------------|
A|-----------------------------|-----------------------------|
E|-----------------------------|-----------------------------|

e|2-------- 2-------- ------2--|2-------- 2-----2-- 2-----2--|
B|2---------2---------------2--|2---------2-----2---2-----2--|
G|2---------2---------------2--|2---------2-----2---2-----2--|
D|4---------4---------------4--|4---------4-----4---4-----4--|
A|4---------4---------------4--|4---------4-----4---4-----4--|
E|2---------2---------------2--|2---------2-----2---2-----2--|
  wind      blow                                Well you   can
e|--------- --------- ---------|--------- --------- ---------|
B|-----------------------------|-----------------------------|
G|-----------------------------|-----------------------------|
D|4-------------------------2-H|4---------2------------------|
A|-----------------------------|--------------------4--------|
E|-----------------------------|-----------------------------|

e|--------- --------- ------0-H|2-----0-H 2-----0-H 2--------|
B|--------------------------0-H|2-----0-H-2-----0-H-2--------|
G|--------------------------1-H|2-----1-H-2-----1-H-2--------|
D|-----------------------------|-----------------------------|
A|-----------------------------|-----------------------------|
E|-----------------------------|-----------------------------|

  Bm                            G7
e|2-----2-- 2-----2-- 2--------|3-------- 3-----3-- ------3--|
B|3-----3---3-----3---3--------|6---------6-----6---------6--|
G|4-----4---4-----4---4--------|4---------4-----4---------4--|
D|4-----4---4-----4---4--------|3---------3-----3---------3--|
A|2-----2---2-----2---2--------|5---------5-----5---------5--|
E|-----------------------------|3---------3-----3---------3--|
  indicate        ev'rything you see
e|--------- --------- ---------|--------- 3-------- 5--------|
B|-----------------------------|-----------------------------|
G|-----------------------------|------4---------5---------5-/|
D|-----------------------------|-----------------------------|
A|2----------------------------|-----------------------------|
E|-----------------------------|-----------------------------|

                                Bm
e|--------- 3-----3-- 3-----3--|2-------- 2-----2-- ------2--|
B|----------6-----6---6-----6--|3---------3-----3---------3--|
G|----------4-----4---4-----4--|4---------4-----4---------4--|
D|----------3-----3---3-----3--|4---------4-----4---------4--|
A|----------5-----5---5-----5--|2---------2-----2---------2--|
E|----------3-----3---3-----3--|-----------------------------|
                      Yes,         you  can  indicate      any..
e|------7-\ ------5-\ ------3-\|2-------- --------- ---------|
B|-----------------------------|-----------------------------|
G|7-------\-5-------\-4--------|-----------------------------|
D|-----------------------------|-----------------------------|
A|-----------------------------|-----------------------------|
E|-----------------------------|-----------------------------|

  G7                        E
e|3-----3-- 3-----3-- 3-----0--|0-------- 0-----0-- ------0--|
B|6-----6---6-----6---6-----0--|0---------0-----0---------0--|
G|4-----4---4-----4---4-----1--|1---------1-----1---------1--|
D|3-----3---3-----3---3-----2--|2---------2-----2---------2--|
A|5-----5---5-----5---5-----2--|2---------2-----2---------1--|
E|3-----3---3-----3---3-----0--|0---------0-----0---------0--|
  thing           you       see
e|--------- --------- ---------|0-----0-- ---2----- 4-----4--|
B|-----------------------------|-----------------------------|
G|--------------------------1--|---1------2-----2------4-----|
D|-----------------------------|-----------------------------|
A|-----------------------------|-----------------------------|
E|-----------------------------|-----------------------------|

e|0-----0-- 0-----0-- 0--------|
B|0-----0---0-----0---0--------|
G|1-----1---1-----1---1--------|
D|2-----2---2-----2---2--------|
A|2-----2---2-----2---2--------|
E|0-----0---0-----0---0--------|
  Ooooh               now
e|---5----- 7-----7-- ---8-----|
B|-----------------------------|
G|6-----6------7------8-----8--|
D|-----------------------------|
A|-----------------------------|
E|-----------------------------|


  A                   A6sus4    A                   A6sus4
e|--------- ------5-- ---------|--------- ------5-- ---------|
B|2---------------2---3--------|2---------2-----2---3--------|
G|2---------------2---2--------|2---------2-----2---2--------|
D|2---------------2---4--------|2---------2-----2---4--------|
A|0---------------0---0--------|0---------0-----0---0--------|
E|-----------------------------|-----------------------------|
  I                   hi        hi                  hi
e|9-------- --------- ---------|--------- --------- ------5--|
B|-----------------------------|--------------------------0-H|
G|9----------------------------|--------------------------0-H|
D|-----------------------------|--------------------------0-H|
A|-----------------------------|-----------------------------|
E|-----------------------------|-----------------------------|

  A                      A6sus4 A                         F#m
e|--------- ------5-- ---------|5-------- 5-----5-- 5-----2--|
B|2---------2-----2---2-H-3----|2---------2-----2---2-----2--|
G|2---------2-----2---2--------|2---------2-----2---2-----2--|
D|2---------2-----2---2-H-3----|2---------2-----2---2-----4--|
A|0---------0-----0---0--------|0---------0-----0---0-----4--|
E|-----------------------------|--------------------------2--|
  hi                                                Laurie
e|5-------- 5-------- 5--------|5-------- --------- ---------|
B|2---------2-H-3-----2-H-3----|2----------------------------|
G|2---------2---------2--------|2----------------------------|
D|2---------2-H-4-----2-H-4----|2----------------------------|
A|0---------0---------0--------|0----------------------------|
E|-----------------------------|-----------------------------|


e|2-------- 2-------- 2-----2--|2-------- 2-----2-- 2-----2--|
B|2---------2---------2-----2--|2---------2-----2---2-----2--|
G|2---------2---------2-----2--|2---------2-----2---2-----2--|
D|4---------4---------4-----4--|4---------4-----4---4-----4--|
A|4---------4---------4-----4--|4---------4-----4---4-----4--|
E|2---------2---------2-----2--|2---------2-----2---2-----2--|
  Laurie                                       Well you   can
e|--------- --------- ---------|--------- --------- ---------|
B|-----------------------------|-----------------------------|
G|-----------------------------|2H4-------2------------------|
D|-----------------------------|--------------------4--------|
A|-----------------------------|-----------------------------|
E|-----------------------------|-----------------------------|

  Bm                            G7
e|2-----2-- 2-----2-- 2--------|3-----3-- 3-------- 3-----3--|
B|3-----3---3-----3---3--------|6-----6---6---------6-----6--|
G|4-----4---4-----4---4--------|4-----4---4---------4-----4--|
D|4-----4---4-----4---4--------|3-----3---3---------3-----3--|
A|2-----2---2-----2---2--------|5-----5---5---------5-----5--|
E|-----------------------------|3-----3---3---------3-----3--|
  syndicate       any boat  you row
e|--------- --------- ---------|------3-/ 5-------- 5--------|
B|-----------------------------|-----------------------------|
G|-----------------------------|------4-/-5---------5--------|
D|-----------------------------|-----------------------------|
A|2----------------------------|-----------------------------|
E|-----------------------------|-----------------------------|

                            Bm
e|3-------- 3-----3-- 3-----2--|------2-- 2-----2-- 2-----2--|
B|6---------6-----6---6-----3--|------3---3-----3---3-----3--|
G|4---------4-----4---4-----4--|------4---4-----4---4-----4--|
D|3---------3-----3---3-----4--|------4---4-----4---4-----4--|
A|5---------5-----5---5-----2--|------2---2-----2---2-----2--|
E|3---------3-----3---3--------|-----------------------------|
                  Yes,            you can syndicate       any
e|3-------- 5-------- 7--------|2-------- --------- ---------|
B|-----------------------------|-----------------------------|
G|4---------5---------7--------|4----------------------------|
D|-----------------------------|-----------------------------|
A|-----------------------------|-----------------------------|
E|-----------------------------|-----------------------------|

  G7                        E
e|3-----3-- ------3-- ------0--|0-----0-- 0-----0-- 0-----0--|
B|6-----6---------6---------0--|0-----0---0-----0---0-----0--|
G|4-----4---------4---------1--|1-----1---1-----1---1-----1--|
D|3-----3---------3---------2--|2-----2---2-----2---2-----2--|
A|5-----5---------5---------2--|2-----2---2-----2---2-----1--|
E|3-----3---------3---------0--|0-----0---0-----0---0-----0--|
  boat      you   row                                     I
e|--------- --------- ---------|9-------- 7-------- ------0--|
B|-----------------------------|--------------------------0--|
G|------------------------7/9--|---\--7----------------------|
D|-----------------------------|-----------------------------|
A|-----------------------------|-----------------------------|
E|-----------------------------|-----------------------------|

e|0-----0-- 0-----0-- 0-----0--|
B|0-----0---0-----0---0-----0--|
G|1-----1---1-----1---1-----1--|
D|2-----2---2-----2---2-----2--|
A|2-----2---2-----2---2-----2--|
E|0-----0---0-----0---0-----0--|
  told      you   so
e|--------- --------- ---------|
B|-----------------------------|
G|14------\-13-----------------|
D|-----------------------------|
A|-----------------------------|
E|-----------------------------|

  G                             D
e|3-------- 3-------- 3--------|2-------- 2-------- 2--------|
B|3---------3---------3--------|3---------3---------3--------|
G|0---------0---------0--------|2---------2---------2--------|
D|0---------0---------0--------|0---------0---------0--------|
A|2---------2---------2--------|-----------------------------|
E|3---------3---------3--------|-----------------------------|
  All                 I         want                is
e|--------- --------- ---------|--------- --------- ---------|
B|-----------------------------|-----------------------------|
G|-----------------------------|--------------------7--------|
D|-----------------------------|4---------7------------------|
A|--------------------5--------|-----------------------------|
E|3---------7------------------|-----------------------------|

  A5
e|--------- --------- ---------|--------- --------- ---------|
B|-----------------------------|-----------------------------|
G|2-----2---2---------------2--|2-----2---2-----2------------|
D|2-----2---2---------------2--|3-H-4-----4-----2---2--------|
A|0-----0---0-----3---4--------|--------------------0--------|
E|-----------------------------|-----------------------------|
  A5
e|--------- --------- ---------|--------- --------- ---------|
B|-----------------------------|-----------------------------|
G|-----------------------------|-----------------------------|
D|7-----7---7------------------|------7----------------------|
A|7-----7---7---------------7-H|8-H-9-----9-----7---------0--|
E|5-----5---5-----8-H-9--------|--------------------8-H-9----|
  you


  G                             D
e|3-------- 3-------- 3--------|2-------- 2-------- 2-----2--|
B|3---------3---------3--------|3---------3---------3-----3--|
G|0---------0---------0--------|2---------2---------2-----2--|
D|0---------0---------0--------|0---------0---------0-----0--|
A|2---------2---------2--------|-----------------------------|
E|3---------3---------3--------|-----------------------------|
  Ev'rything      has got   to  be   just like  you  want it
e|--------- --------- ---------|--------- --------- ---------|
B|-----------------------------|-----------------------------|
G|-----------------------------|--------------------7--------|
D|--------------------5--------|----------7-----9---------9--|
A|----------5-----7---------7--|5--/--9----------------------|
E|3--/--7----------------------|-----------------------------|

 (.
  A
e|0-------- --------- ---------|--------- --------- ---------|
B|2----------------------------|-----------------------------|
G|2----------------------------|-----------------------------|
D|2----------------------------|-----------------------------|
A|0----------------------------|-----------------------------|
E|-----------------------------|-----------------------------|
  to
e|--------- --------- ---------|--------- --------- ---------|
B|-----------------------------|-----------------------------|
G|-----------------------------|-----------------------------|
D|7----------------------------|-----------------------------|
A|7----------------------------|-----------------------------|
E|5----------------------------|-----------------------------|

                                x     x         x   x  x  x

e|--------- --------- --------- --|--------- --------- ---------|
B|--------------------------------|-----------------------------|
G|--------------------------------|-----------------------------|
D|--------------------------------|-----------------------------|
A|--------------------------------|-----------------------------|
E|--------------------------------|-----------------------------|
  Be..............cause

  G                             D
e|3-------- --------- ---------|2-------- --------- ---------|
B|3----------------------------|3----------------------------|
G|0----------------------------|2----------------------------|
D|0----------------------------|0----------------------------|
A|2----------------------------|-----------------------------|
E|3----------------------------|-----------------------------|

e|--------- --------- ---------|--------- --------- ---------|
B|-----------------------------|-----------------------------|
G|-----------------------------|--------------------7--------|
D|--------------------5--------|----------7-----9---------9--|
A|----------5-----7---------7--|5--/--9----------------------|
E|3--/--7----------------------|-----------------------------|

  A
e|0-----0-- 0-----0-- ---------|0-----0-- 0-----0-- 0--0-----|
B|2-----2---2-----2------------|2-----2---2-----2---2--2-----|
G|2-----2---2-----2------------|2-----2---2-----2---2--2-----|
D|2-----2---2-----2------------|2-----2---2-----2---2--2-----|
A|0-----0---0-----0------------|0-----0---0-----0---0--0-----|
E|-----------------------------|-----------------------------|
  A5
e|--------- --------- ---------|--------- --------- ---------|
B|-----------------------------|-----------------------------|
G|-----------------------------|-----------------------------|
D|7-----7---7------------------|------7----------------------|
A|7-----7---7---------------7-H|8-H-9-----9-----7---------0--|
E|5-----5---5-----8-H-9--------|--------------------8-H-9----|

  G                             D
e|3-------- --------- ---------|2-------- --------- ---------|
B|3----------------------------|3----------------------------|
G|0----------------------------|2----------------------------|
D|0----------------------------|0----------------------------|
A|2----------------------------|-----------------------------|
E|3----------------------------|-----------------------------|

e|--------- --------- ---------|--------- --------- ---------|
B|-----------------------------|-----------------------------|
G|-----------------------------|--------------------7--------|
D|--------------------5--------|----------7-----9---------9--|
A|----------5-----7---------7--|5--/--9----------------------|
E|3--/--7----------------------|-----------------------------|

  A
e|0-----0-- 0-------- 0--------|0--0--0-- 0-------- 0--------|
B|2-----2---2---------2--------|2--2--2---2---------2--------|
G|2-----2---2---------2--------|2--2--2---2---------2--------|
D|2-----2---2---------2--------|2--2--2---2---------2--------|
A|0-----0---0---------0--------|0--0--0---0---------0--------|
E|-----------------------------|-----------------------------|
  A5
e|--------- --------- ---------|--------- --------- ---------|
B|-----------------------------|-----------------------------|
G|-----------------------------|-----------------------------|
D|7-----7---7------------------|------7----------------------|
A|7-----7---7---------------7-H|8-H-9-----9-----7---------0--|
E|5-----5---5-----8-H-9--------|--------------------8-H-9----|

 (.

e|0----------------------------------------------------------|
B|2----------------------------------------------------------|
G|2----------------------------------------------------------|
D|2----------------------------------------------------------|
A|0----------------------------------------------------------|
E|-----------------------------------------------------------|

e|--------------------------0H5P0H5P0------------------------|
B|-----------------------------------2H3P2H3P2H3P2H3P2-------|
G|-----------------------------------------------------------|
D|7----------------------------------------------------------|
A|7----------------------------------------------------------|
E|5----------------------------------------------------------|



        B  Bend
        R  Release
        /  slide up
        \  slide down
        H  hammer-on
        P  pull-off
        ~  vibrato
        +  harmonic
        x  Mute note
        . - play note like a dot in standard notation
        ^ - ties two notes together
        (. Pause

  ----------------------------------------------------------

  THE BEATLES - FOR YOU BLUE (Harrison) From LET IT BE NAKED
                album. Released 18th November 2003.

  ----------------------------------------------------------

  Tabbed by:PJVillanueva

  Because you're sweet and lovely, girl, I love you
  Because you're sweet and lovely, girl, it's true
  I love you more than ever, girl, I do

  I want you in the morning, girl, I love you
  I want you at the moment I feel blue
  I'm living every moment, girl, for you

  (Walk, ...walk cat, walk)
  (Go, Johnny, go)
  (Same old twelve bar blues)
  (Elmo James got nothin' on this, baby)

  I've loved you from the moment, I saw you
  You looked at me that's all you had to do
  I feel it now, I hope you feel it too

  Because you're sweet and lovely, girl, I love you
  Because you're sweet and lovely, girl, it's true
  I love you more than ever, girl, I do
  Rhythm and blues.


  Guitar 1: Use a capo on the fifth fret.


  Guitar 2: If you want to play Lennon's lap steel guitar
            part you may tune your guitar as follows:

                 e|0----- ------|
                 B|3------------| Up 1 1/2 steps
                 G|1------------| Up   1/2 step
                 D|2------------| Up 1 step
                 A|2------------| Up 1 step
                 E|0------------|

         e|0----|  First string will remain the same
         B|3----|  Second will sound as d when played open.
         G|1----|  Third will sound as G# when played open.
         D|2----|  Fourth will sound as e when played open.
         A|2----|  Fifth will sound as B when played open.
         E|0----|  Sixth string will also remain the same.


         Strumming open will produce an E7 chord.

 (Remember you must not use a capo with this second guitar
  and that you'll need a bottleneck (slide) or at least a
  glass to play it. Also If you put your guitar on your lap
  you will reach high notes very easily.)

  12/8

                              A5
e|------ ------ ------ ------|------ ------ ------ ------|
B|---------------------------|---------------------------|
G|---------------------------|---------------------------|
D|---------------2P0---------|2---2--2---2--2---2--------|
A|---------------------0---2-|0---0--0---0--0---0--------|
E|--------------0---3--------|---------------------0---1-|


  D7                          B7
e|------ 2---2- 2---2- ------|------ ------ ------ ------|
B|-------1---1--1---1--------|-------0---0--0---0--0---0-|
G|-------2---2--2---2--------|-------2---2--2---2--2---2-|
D|----0----------------------|----1--1---1--1---1--1---1-|
A|---------------------0---1-|2------2---2--2---2--2---2-|
E|2--------------------------|---------------------------|


  E7
e|----0- ------ ----0- ------|----0- ------ ----0- ------|
B|-----------3-------------3-|-----------3-------------3-|
G|0H1------------------------|0H1------------------------|
D|2--------------------------|2--------------------------|
A|---------------------------|---------------------------|
E|0------0------0------0-----|0------0------0------0-----|

e|------ ------ ------ ------|------ ------ ------ ------|
d|---------------------------|-------------------------/-|
G#---------------------------|-------------------------/-|
e|---------------------------|-------------------------/-|
B|---------------------------|---------------------------|
E|---------------------------|---------------------------|
                                                       Be..


  00:10
  A                           D
e|----0- ----0- ----0- ----0-|----2- ----2- ----2- ----2-|
B|----2------2------2------2-|----3------3------3------3-|
G|----2------2------2------2-|----2------2------2------2-|
D|----2------2------2------2-|----0------0------0------0-|
A|----0------0------0------0-|---------------------------|
E|---------------------------|---------------------------|

e|------ ------ ------ ------|------ ------ ------ ------|
d|10--10-----10-----10-----/-|3---3------3------3------/-|
G#10--10-----10-----10-----/-|3---3------3------3------/-|
e|10--10-----10-----10-----/-|3---3------3------3------/-|
B|---------------------------|---------------------------|
E|---------------------------|---------------------------|

e|------ 13H14- ------ 14----|------ 15---- ------ 15----|
B|-------15------------15----|-------15------------15----|
G|---------------------------|---------------------------|
D|---------------------------|---------------------------|
A|---------------------------|---------------------------|
E|---------------------------|---------------------------|
  cause      sweet and     lovely,                     I
      you're                      girl,

  A
e|----5- ----5- ----5- ----5-|------ 5----- 5----- 5-----|
B|----2------2------2------2-|-------2------2------2-----|
G|----2------2------2------2-|-------2------2------2-----|
D|----2------2------2------2-|-------2------2------2-----|
A|----0------0------0------0-|-------0------0------0-----|
E|---------------------------|---------------------------|

e|------ ------ ------ ------|------ ------ ------ ------|
d|10--10-----10-----10-----/-|10--10-----10-----10-----/-|
G#10--10-----10-----10-----/-|10--10-----10-----10-----/-|
e|10--10-----10-----10-----/-|10--10-----10-----10-----/-|
B|---------------------------|---------------------------|
E|---------------------------|---------------------------|

e|------ 13H14- ------ 13H14-|------ 13H14- ------ 13H14-|
B|-------15------------15----|-------15------------15----|
G|---------------------------|---------------------------|
D|---------------------------|---------------------------|
A|---------------------------|---------------------------|
E|---------------------------|---------------------------|
  love you                                             Be..


  00:17
  D
e|------ ------ ------ ------|------ ------ ------ ------|
B|---------------------------|---------------------------|
G|---------------------------|---------------------------|
D|---------------------------|---------------------------|
A|---------------------------|---------------------------|
E|---------------------------|---------------------------|

e|------ ------ ------ ------|------ ------ ------ ------|
d|3---3------3------3------/-|3---3------3------3------/-|
G#3---3------3------3------/-|3---3------3------3------/-|
e|3---3------3------3------/-|3---3------3------3------/-|
B|---------------------------|---------------------------|
E|---------------------------|---------------------------|

e|------ 15---- ------ 13----|------ 15---- ------ 15--13|
B|-------15------------15----|-------15------------15----|
G|---------------------------|---------------------------|
D|---------------------------|---------------------------|
A|---------------------------|---------------------------|
E|---------------------------|---------------------------|
  cause      sweet and     lovely,              it's   true
      you're                      girl,

  A                Asus4/6 A
e|----5- ------ 5----- 5---5-|------ 5----- 5----- 5-----|
B|----2---------2-H-3--3---2-|-------2------2------2-----|
G|----2---------2------2---2-|-------2------2------2-----|
D|----2---------2-H-4--4---2-|-------2------2------2-----|
A|----0---------0------0---0-|-------0------0------0-----|
E|---------------------------|---------------------------|

e|------ ------ ------ ------|------ ------ ------ ------|
d|10--10-----10-----10-----/-|10--10-----10-----10-----/-|
G#10--10-----10-----10-----/-|10--10-----10-----10-----/-|
e|10--10-----10-----10-----/-|10--10-----10-----10-----/-|
B|---------------------------|---------------------------|
E|---------------------------|---------------------------|

e|------ 13H14- ------ 13H14-|------ 15--13 15--15 13--15|
B|-------15------------15----|-------15------------------|
G|---------------------------|---------------------------|
D|---------------------------|---------------------------|
A|---------------------------|---------------------------|
E|---------------------------|---------------------------|
                                                       I


  00:25
  E7
e|0---0- ----0- ----0- ----0-|------ ------ ------ ------|
B|3---3------3------3------3-|---------------------------|
G|1---1------1------1------1-|---------------------------|
D|2---2------2------2------2-|---------------------------|
A|2---2------2------2------2-|---------------------------|
E|0---0------0------0------0-|---------------------------|

e|------ ------ ------ ------|------ ------ ------ ------|
d|5---5------5------5------/-|3---3------3------3------0-|
G#5---5------5------5------/-|3---3------3------3------4-|
e|5---5------5------5------/-|3---3------3------3------2-|
B|---------------------------|---------------------------|
E|---------------------------|---------------------------|

e|------ 17---- ------ 17----|------ 15---- ------ 15----|
B|-------17------------17----|-------15------------15----|
G|---------------------------|---------------------------|
D|---------------------------|---------------------------|
A|---------------------------|---------------------------|
E|---------------------------|---------------------------|
  love       more   than   ever,     girl,      I      do.
      you

                                  E7
e|----5- --5--- --5--- --5---|5---0- ----0- ----0- 0-----|
B|---------------------------|----3------3------3--3-----|
G|----2--0---0---------------|----1------1------1--1-----|
D|--------------4---4--3---3-|2---2------2------2--2-----|
A|---------------------------|----2------2------2--2-----|
E|---------------------------|----0------0------0--0-----|

e|------ ------ ------ ------|------ ------ ------ ------|
d|---------------------------|----/--5---5------5--------|
G#---------------------------|----/--5---5------5--------|
e|---------------------------|----/--5---5------5--------|
B|---------------------------|---------------------------|
E|---------------------------|---------------------------|

e|------ 13H14- ------ 13H14-|------ ----17 ------ 17----|
B|-------15------------15----|-----------17--------17----|
G|---------------------------|---------------------------|
D|---------------------------|---------------------------|
A|---------------------------|---------------------------|
E|---------------------------|---------------------------|
                                                       I


  00:32
  A                           D
e|----0- ----0- ----0- ----0-|------ ------ ------ ------|
B|----2------2------2------2-|---------------------------|
G|----2------2------2------2-|---------------------------|
D|----2------2------2------2-|---------------------------|
A|----0------0------0------0-|---------------------------|
E|---------------------------|---------------------------|

e|------ ------ ------ ------|------ ------ ------ ------|
d|10---------10-----10-----/-|3---3------3------3--3-\-/-|
G#10---------10-----10-----/-|3---3------3------3--3-\-/-|
e|10---------10-----10-----/-|3---3------3------3--3-\-/-|
B|---------------------------|---------------------------|
E|---------------------------|---------------------------|

e|------ 13H14- ------ 14----|------ 15---- ------ 15----|
B|-------15------------15----|-------15------------15----|
G|---------------------------|---------------------------|
D|---------------------------|---------------------------|
A|---------------------------|---------------------------|
E|---------------------------|---------------------------|
  want you   in     the  morning  girl                 I


  A                                      A7
e|----5- ----5- 5---5- ----5-|------ 5---3- ------ 3-----|
B|----2------2--2---2------2-|-------2---2---------2-----|
G|----2------2--2---2------2-|-------2---2---------2-----|
D|----2------2--2---2------2-|-------2---2---------2-----|
A|----0------0--0---0------0-|-------0---0---------0-----|
E|---------------------------|---------------------------|

e|------ ------ ------ ------|------ ------ ------ ------|
d|10--10-----10-----10-----/-|10--10-----10-----10-----/-|
G#10--10-----10-----10-----/-|10--10-----10-----10-----/-|
e|10--10-----10-----10-----/-|10--10-----10-----10-----/-|
B|---------------------------|---------------------------|
E|---------------------------|---------------------------|

e|------ 13H14- ------ 13H14-|------ 1314-- 14---- 14----|
B|-------15------------15----|-------1515---15-----15----|
G|---------------------------|---------------------------|
D|---------------------------|---------------------------|
A|---------------------------|---------------------------|
E|---------------------------|---------------------------|
  love you,                                            I


  00:39
  D
e|2----- ----2- ------ ------|2----- ----2- ----2- ------|
B|3----------3---------------|3----------3------3--------|
G|2----------2---------------|2----------2------2--------|
D|0----------0---------------|0----------0------0--------|
A|---------------------------|---------------------------|
E|---------------------------|---------------------------|

e|------ ------ ------ ------|------ ------ ------ ------|
d|3---3------3------3------/-|3---3------3------3------/-|
G#3---3------3------3------/-|3---3------3------3------/-|
e|3---3------3------3------/-|3---3------3------3------/-|
B|---------------------------|---------------------------|
E|---------------------------|---------------------------|

e|------ 15---- ------ 15----|------ 15---- ------ 15----|
B|-------15------------15----|-------15------------15----|
G|---------------------------|---------------------------|
D|---------------------------|---------------------------|
A|---------------------------|---------------------------|
E|---------------------------|---------------------------|
  want you  at     the    moment    I          feel   blue

  A
e|----5- ------ 5---5- ------|------ 5----- 5----- 5-----|
B|----2---------2---2--------|-------2------2------2-----|
G|----2---------2---2--------|-------2------2------2-----|
D|----2---------2---2--------|-------2------2------2-----|
A|----0---------0---0--------|-------0------0------0-----|
E|---------------------------|---------------------------|

e|------ ------ ------ ------|------ ------ ------ ------|
d|10--10-----10-----10-----/-|10--10-----10-----10-----/-|
G#10--10-----10-----10-----/-|10--10-----10-----10-----/-|
e|10--10-----10-----10-----/-|10--10-----10-----10-----/-|
B|---------------------------|---------------------------|
E|---------------------------|---------------------------|

e|------ 13H14- ------ 14----|------ 13H14- ------ 14----|
B|-------15------------15----|-------15------------15----|
G|---------------------------|---------------------------|
D|---------------------------|---------------------------|
A|---------------------------|---------------------------|
E|---------------------------|---------------------------|
                                                       I'm

  00:47
  E7                          D
e|0---0- ----0- 0---0- 0-----|2----- ------ ------ ------|
B|3---3------3--3---3--3-----|3--------------------------|
G|1---1------1--1---1--1-----|2--------------------------|
D|2---2------2--2---2--2-----|0--------------------------|
A|2---2------2--2---2--2-----|---------------------------|
E|0---0------0--0---0--0-----|---------------------------|

e|------ ------ ------ ------|------ ------ ------ ------|
d|5---5------5------5------/-|3---3------3------3------0-|
G#5---5------5------5------/-|3---3------3------3------4-|
e|5---5------5------5------/-|3---3------3------3------2-|
B|---------------------------|---------------------------|
E|---------------------------|---------------------------|

e|------ 17---- ------ 15----|------ 15---- ------ 15--13|
B|-------17------------15----|-------15------------15----|
G|---------------------------|---------------------------|
D|---------------------------|---------------------------|
A|---------------------------|---------------------------|
E|---------------------------|---------------------------|
  living     ev'ry         moment girl         for you.

                                  E7
e|----5- --5--- --5--- --5---|5---0- 0---0- ----0- 0-----|
B|---------------------------|----3--3---3------3--3-----|
G|----2--0---0---------------|----1--1---1------1--1-----|
D|--------------4---4--3---3-|2---2--2---2------2--2-----|
A|---------------------------|----2--2---2------2--2-----|
E|---------------------------|----0--0---0------0--0-----|

e|------ ------ ------ ------|------ ------ ------ ------|
d|---------------------------|----/--5---5------5--------|
G#---------------------------|----/--5---5------5------/-|
e|---------------------------|----/--5---5------5--------|
B|---------------------------|---------------------------|
E|---------------------------|---------------------------|


  00:54
  A5                          D7
e|------ ------ ------ ------|2----- 2---2- ----2- 2-----|
B|---------------------------|1------1---1------1--1-----|
G|----2--2------2------------|2------2---2------2--2-----|
D|----2--2------2------------|0------0---0------0--0-----|
A|----0--0------0------------|---------------------------|
E|---------------------------|---------------------------|

e|----10 ------ ------ ------|----3- ------ ------ ------|
d|-----------10--------------|-----------3---------------|
G#10----------------10-----/-|3-----------------3------/-|
e|---------------------------|-------------------------/-|
B|---------------------------|---------------------------|
E|---------------------------|---------------------------|

e|------ 13H14- ------ 13H14-|------ 15---- ------ 15--13|
B|-------15------------15----|-------15------------15----|
G|---------------------------|---------------------------|
D|---------------------------|---------------------------|
A|---------------------------|---------------------------|
E|---------------------------|---------------------------|

  A              Asus4/6   A             A7
e|----5- ------ 5---5- ----5-|----5- ----3- ----3- 3-----|
B|----2---------2H3-3------2-|----2------2------2--2-----|
G|----2---------2---2------2-|----2------2------2--2-----|
D|----2---------2H4-4------2-|----2------2------2--2-----|
A|----0---------0---0------0-|----0------0------0--0-----|
E|---------------------------|---------------------------|
                              (Walk,
e|----10 ------ ------ ------|----10 ------ ------ ------|
d|----------10---------------|-----------10--------------|
G#10----------------10-\---/-|10----------------10-----/-|
e|10-------------------------|-------------------------/-|
B|---------------------------|---------------------------|
E|---------------------------|---------------------------|

e|------ 13H14- ------ 14----|------ 13H14- ----15 13--15|
B|-------15------------15----|------------------15-------|
G|---------------------------|---------------------------|
D|---------------------------|---------------------------|
A|---------------------------|---------------------------|
E|---------------------------|---------------------------|


  01:02
  D                                                    A
e|----2- 2----- 2----- 2-----|----2- 2----- 2---2- 2---5-|
B|----3--3------3------3-----|----3--3------3---3--3---2-|
G|----2--2------2------2-----|----2--2------2---2--2---2-|
D|----0--0------0------0-----|----0--0------0---0--0---2-|
A|---------------------------|-------------------------0-|
E|---------------------------|---------------------------|

e|----3- ------ ------ ------|----3- ------ ------ ------|
d|-----------3---------------|-----------3---------------|
G#3-----------------3--------|------------------3--------|
e|3------------------------/-|3------------------------/-|
B|---------------------------|---------------------------|
E|---------------------------|---------------------------|

e|------ 15---- ------ 15----|----15 13--15 ------ 15----|
B|-------15------------15----|----15---------------15----|
G|---------------------------|---------------------------|
D|---------------------------|---------------------------|
A|---------------------------|---------------------------|
E|---------------------------|---------------------------|
                              walk   cat,   walk)


                                                       E7
e|----5- ------ 5---5- ----5-|------ ----5- ------ 5---0-|
B|----2---------2---2------2-|-----------2---------2---3-|
G|----2---------2---2------2-|-----------2---------2---1-|
D|----2---------2---2------2-|-----------2---------2---2-|
A|----0---------0---0------0-|-----------0---------0---2-|
E|---------------------------|-------------------------0-|

e|----10 ------ --10\8 ------|------ ------ ------ ------|
d|---------------------------|---------------------------|
G#-----------10-----------10-|----10-----10-----10-----/-|
e|10-------------------------|-------------------------/-|
B|---------------------------|---------------------------|
E|---------------------------|---------------------------|

e|------ 13H14- ------ 13H14-|------ 13H14- ------ 13H14-|
B|-------15------------15----|-------15------------15----|
G|---------------------------|---------------------------|
D|---------------------------|---------------------------|
A|---------------------------|---------------------------|
E|---------------------------|---------------------------|
               (Go,      Johnny,  go)

  01:09
                              D
e|----0- ----0- ------ 0-----|------ 2---22 2---2- 2-----|
B|----3------3---------3-----|-------3---33-3---3--3-----|
G|----1------1---------1-----|-------2---22-2---2--2-----|
D|----2------2---------2-----|-------0---00-0---0--0-----|
A|----2------2---------2-----|---------------------------|
E|----0------0---------0-----|---------------------------|

e|----5- ------ ------ ------|----3- ------ ------ ------|
d|-----------5---------------|-----------3---------------|
G#5-----------------5------/-|3-----------------3-/-4----|
e|5------------------------/-|3------------------------2-|
B|---------------------------|---------------------------|
E|---------------------------|---------------------------|

e|------ 17---- ------ 17----|------ 15--13 15--15 13--15|
B|-------17------------17----|-------15------------------|
G|---------------------------|---------------------------|
D|---------------------------|---------------------------|
A|---------------------------|---------------------------|
E|---------------------------|---------------------------|

                                     E7
e|----5- --5--- --5--- --5---|5----- 0---0- 0---0- 0-----|
B|---------------------------|-------3---3--3---3--3-----|
G|----2--0---0---------------|-------1---1--1---1--1-----|
D|--------------4---4--3---3-|2------2---2--2---2--2-----|
A|---------------------------|-------2---2--2---2--2-----|
E|---------------------------|-------0---0--0---0--0-----|

e|------ ------ ------ ------|------ ------ ------ ------|
d|---------------------------|----/--5---5------5--------|
G#---------------------------|----/--5---5------5--------|
e|---------------------------|----/--5---5------5--------|
B|---------------------------|---------------------------|
E|---------------------------|---------------------------|

e|------ 13H14- ------ 14----|------ 17--17 ------ 17----|
B|-------15------------15----|-------17--17--------17----|
G|---------------------------|---------------------------|
D|---------------------------|---------------------------|
A|---------------------------|---------------------------|
E|---------------------------|---------------------------|
      Same      twelve     blues)
         old        bar

  01:16
  A                           D
e|0----- 0---0- 0---0- 0-----|---2-- 2---2- 2----- 2-----|
B|2------2---2--2---2--2-----|---3---3---3--3------3-----|
G|2------2---2--2---2--2-----|---2---2---2--2------2-----|
D|2------2---2--2---2--2-----|---0---0---0--0------0-----|
A|0------0---0--0---0--0-----|---------------------------|
E|---------------------------|---------------------------|

e|------ ------ ------ ------|------ ------ ------ ------|
d|10--10-----10-----10-----/-|15--15-----15-----15-----/-|
G#10--10-----10-----10-----/-|15--15-----15-----15-----/-|
e|10--10-----10-----10-----/-|15--15-----15-----15-----/-|
B|---------------------------|---------------------------|
E|---------------------------|---------------------------|

e|10---- 8----- 7---5- ------|------ ------ ------ ------|
B|---------------------------|8------6------5---3--------|
G|11-----9------7---5--------|---------------------------|
D|---------------------------|9------7------5---3--------|
A|---------------------------|---------------------------|
E|---------------------------|---------------------------|

  A                                      A7
e|----5- ------ 5---5- ----5-|------ 5---3- ------ 3-----|
B|----2---------2---2------2-|-------2---2---------2-----|
G|----2---------2---2------2-|-------2---2---------2-----|
D|----2---------2---4------2-|-------2---2---------2-----|
A|----0---------0---0------0-|-------0---0---------0-----|
E|---------------------------|---------------------------|

e|------ ------ ------ ------|------ ------ ------ ------|
d|10--10-----10-----10-----/-|10--10-----10-----10-\---/-|
G#10--10-----10-----10-----/-|10--10-----10-----10-\---/-|
e|10--10-----10-----10-----/-|10--10-----10-----10-\---/-|
B|---------------------------|---------------------------|
E|---------------------------|---------------------------|

e|------ ------ ------ ------|------ ------ ------ ------|
B|3------1------0------------|---------------------------|
G|------------------2--------|---------------------------|
D|4------2------0----------5-|-------3------2---0--------|
A|------------------3--------|---------------------------|
E|-------------------------7-|-------5------3---1--------|


  01:24
  D
e|----2- 2----- 2----- 2-----|----2- 2---2- 2----- 2-----|
B|----3--3------3------3-----|----3--3---3--3------3-----|
G|----2--2------2------2-----|----2--2---2--2------2-----|
D|----0--0------0------0-----|----0--0---0--0------0-----|
A|---------------------------|---------------------------|
E|---------------------------|---------------------------|

e|------ ------ ------ ------|------ ------ ------ ------|
d|3---3------3------3------/-|3---3------3------3--3---/-|
G#3---3------3------3------/-|3---3------3------3--3---/-|
e|3---3------3------3------/-|3---3------3------3--3---/-|
B|---------------------------|---------------------------|
E|---------------------------|---------------------------|

e|------ ------ ------ ------|------ ------ ------ ------|
B|---------------------------|---------------------------|
G|0----------2---------0-----|----2---------3---3--------|
D|0----------0---------0-----|----0---------0---0--------|
A|---------------------------|---------------------------|
E|3------3------3------3-----|3------3------3------3-----|

  A
e|----5- ------ 5----- ----5-|------ 5---5- ------ 5-----|
B|----2---------2----------2-|-------2---2---------2-----|
G|----2---------2----------2-|-------2---2---------2-----|
D|----2---------2----------2-|-------2---2---------2-----|
A|----0---------0----------0-|-------0---0---------0-----|
E|---------------------------|---------------------------|

e|10--10 ----10 ----10 \---/-|10--10 ----10 ----10 ------|
d|10--10-----10-----10-\---/-|10--10-----10-----10-------|
G#10--10-----10-----10-\---/-|10--10-----10-----10-------|
e|10--10-----10-----10-\---/-|10--10-----10-----10-------|
B|---------------------------|---------------------------|
E|---------------------------|---------------------------|

e|------ ------ ------ ------|------ ------ ------ ------|
B|---------------------------|---------------------------|
G|---------------------------|---------------------------|
D|4---4--5------4---4------4-|5---3--5---5--3------5---3-|
A|5---5--5------5---5------5-|5---5--5---5--5------5---5-|
E|---------------------------|---------------------------|
      Elmo  James got nothin'on   baby
                              this,


  01:32
  E7                          D7
e|0---0- ----0- ----0- 0-----|------ ------ ------ ------|
B|3---3------3------3--3-----|-------1---1--1------1-----|
G|1---1------1------1--1-----|-------2---2--2------2-----|
D|2---2------2------2--2-----|-------0---0--0------0-----|
A|2---2------2------2--2-----|---------------------------|
E|0---0------0------0--0-----|---------------------------|

e|----5- ----5- ----5- ----/-|3---3- ----3- ----3- ------|
d|----5------5------5------/-|3---3------3------3------0-|
G#----5------5------5------/-|3---3------3------3------4-|
e|----5------5------5------/-|3---3------3------3------2-|
B|---------------------------|---------------------------|
E|---------------------------|---------------------------|

e|------ ------ ------ ------|------ ------ ------ ------|
B|-------10--8------6--8-----|10--8------6--8---6--5-----|
G|---------------------------|---------------------------|
D|-------11--9------7--9-----|11--9------7--9---7--5-----|
A|---------------------------|---------------------------|
E|---------------------------|---------------------------|

                                     E7
e|----5- --5--- --5--- --5---|5----- 0---0- ----0- ------|
B|---------------------------|-------3---3------3--------|
G|----2--0---0---------------|-------1---1------1--------|
D|--------------4---4--3---3-|2------2---2------2--------|
A|---------------------------|-------2---2------2--------|
E|---------------------------|-------0---0------0--------|

e|------ ------ ------ ------|------ ----5- ----5- ------|
d|---------------------------|-----------5------5------/-|
G#---------------------------|-----------5------5------/-|
e|---------------------------|----/--5-----------------/-|
B|---------------------------|---------------------------|
E|---------------------------|---------------------------|

e|------ ------ ------ ------|------ ------ ------ ------|
B|3------1------3-3----3-----|---------------------------|
G|2------2------4-4----3-----|----2------2------2--------|
D|0------0------0------0-----|----2------2------2--------|
A|---------------------------|---------------------------|
E|---------------------------|---------------------------|
                                                       I've

  01:39
  A                           D
e|------ 5----- ------ 5-----|------ 5----- ------ 5-----|
B|-------2-------------2-----|-------3-------------3-----|
G|-------2-------------2-----|-------2-------------2-----|
D|-------2-------------2-----|-------0-------------0-----|
A|-------0-------------0-----|---------------------------|
E|---------------------------|---------------------------|

e|------ ------ ------ ------|------ ------ ------ ------|
d|10--10-----10-----10-----/-|3---3------3------3------/-|
G#10--10-----10-----10-----/-|3---3------3------3------/-|
e|10--10-----10-----10-----/-|3---3------3------3------/-|
B|---------------------------|---------------------------|
E|---------------------------|---------------------------|

e|------ 13H14- ------ 13H14-|------ 15---- ------ 15----|
B|-------15------------15----|-------15------------15----|
G|---------------------------|---------------------------|
D|---------------------------|---------------------------|
A|---------------------------|---------------------------|
E|---------------------------|---------------------------|
  loved      from   the    moment                      I
      you

  A
e|----5- ------ 5---5- ----5-|----5- ----3- ------ ------|
B|----2---------2---2------2-|----2------2---------------|
G|----2---------2---2------2-|----2------2---------------|
D|----2---------2---2------2-|----2------2---------------|
A|----0---------0---0------0-|----0------0---------------|
E|---------------------------|---------------------------|

e|------ ------ ------ ------|------ ------ ------ ------|
d|10--10-----10-----10-----/-|10--10-----10-----10-----/-|
G#10--10-----10-----10-----/-|10--10-----10-----10-----/-|
e|10--10-----10-----10-----/-|10--10-----10-----10-----/-|
B|---------------------------|---------------------------|
E|---------------------------|---------------------------|

e|------ 13H14- ------ 15--13|15---- 15--13 15--15 13--15|
B|-------15------------15----|-------15------------------|
G|---------------------------|---------------------------|
D|---------------------------|---------------------------|
A|---------------------------|---------------------------|
E|---------------------------|---------------------------|
  saw you                                              You

  01:47
  D
e|----5- ----5- ----5- ----5-|----5- ----5- ----5- ----5-|
B|----3------3------3------3-|----3------3------3------3-|
G|----2------2------2------2-|----2------2------2------2-|
D|----0------0------0------0-|----0------0------0------0-|
A|---------------------------|---------------------------|
E|---------------------------|---------------------------|

e|------ ------ ------ ------|------ ------ ------ ------|
d|3---3------3------3--\---/-|3---3------3------3--3---/-|
G#3---3------3------3--\---/-|3---3------3------3--3---/-|
e|3---3------3------3--\---/-|3---3------3------3--3---/-|
B|---------------------------|---------------------------|
E|---------------------------|---------------------------|

e|------ 13---- ------ 13----|------ 13---- ------ 13H1513-|
B|-------15------------15----|-------15------------15------|
G|---------------------------|-----------------------------|
D|---------------------------|-----------------------------|
A|---------------------------|-----------------------------|
E|---------------------------|-----------------------------|
  looked     me     that's all    you    had    to     do,
     at

  A                Asus4/6 A
e|----5- ------ 5----- 5---5-|------ 5----- 5----- 5-----|
B|----2---------2-H-3--3---2-|-------2------2------2-----|
G|----2---------2------2---2-|-------2------2------2-----|
D|----2---------2-H-4--4---2-|-------2------2------2-----|
A|----0---------0------0---0-|-------0------0------0-----|
E|---------------------------|---------------------------|

e|------ ------ ------ ------|------ ------ ------ ------|
d|10--10-----10-----10-----/-|10--10-----10-----10-----/-|
G#10--10-----10-----10-----/-|10--10-----10-----10-----/-|
e|10--10-----10-----10-----/-|10--10-----10-----10-----/-|
B|---------------------------|---------------------------|
E|---------------------------|---------------------------|

e|------ 13---- ------ 13----|------ 13---- ------ 13----|
B|-------15------------15----|-------15------------15----|
G|---------------------------|---------------------------|
D|---------------------------|---------------------------|
A|---------------------------|---------------------------|
E|---------------------------|---------------------------|
                                                       I

  01:54
  E7
e|0---0- ----0- ----0- ----0-|2----- ------ ------ ------|
B|3---3------3------3------3-|3--------------------------|
G|1---1------1------1------1-|2--------------------------|
D|2---2------2------2------2-|0--------------------------|
A|2---2------2------2------2-|---------------------------|
E|0---0------0------0------0-|---------------------------|

e|------ ------ ------ ------|------ ------ ------ ------|
d|5---5------5------5------/-|3---3------3------3--3---0-|
G#5---5------5------5------/-|3---3------3------3--3---4-|
e|5---5------5------5------/-|3---3------3------3--3---2-|
B|---------------------------|---------------------------|
E|---------------------------|---------------------------|

e|------ 17---- ------ 17----|------ 15--13 15--15 13--15|
B|-------17------------17----|-------15-----15-----15----|
G|---------------------------|---------------------------|
D|---------------------------|---------------------------|
A|---------------------------|---------------------------|
E|---------------------------|---------------------------|
  feel       now    I      hope  you   feel   it   too.
      it

                                  E7
e|----5- --5--- --5--- --5---|5---0- 0---0- 0---0- 0-----|
B|---------------------------|----3--3---3--3---3--3-----|
G|----2--0---0---------------|----1--1---1--1---1--1-----|
D|--------------4---4--3---3-|2---2--2---2--2---2--2-----|
A|---------------------------|----2--2---2--2---2--2-----|
E|---------------------------|----0--0---0--0---0--0-----|

e|------ ------ ------ ------|------ 5---5- ----5- --/---|
d|---------------------------|----/--5---5------5----/---|
G#---------------------------|----/--5---5------5----/---|
e|---------------------------|----/--5-------------------|
B|---------------------------|---------------------------|
E|---------------------------|---------------------------|

e|------ 13---- ------ 13----|------ ------ --2020-202020|
B|-------15------------15----|----------------2020-202020|
G|---------------------------|---------------------------|
D|---------------------------|---------------------------|
A|---------------------------|---------------------------|
E|---------------------------|---------------------------|
                                                       Be..

  02:01
  A                           D
e|----0- ----0- ----0- ----0-|----2- ----2- ----2- ------|
B|----2------2------2------2-|----3------3------3--------|
G|----2------2------2------2-|----2--2---2------2--------|
D|----2------2------2------2-|----0--0---0------0--------|
A|----0------0------0------0-|---------------------------|
E|---------------------------|---------------------------|

e|------ ------ ------ ------|------ ------ ------ ------|
d|10--10-----10-----10-----/-|3---3------3--3---3-/------|
G#10--10-----10-----10-----/-|3---3------3--3---3-/------|
e|10--10-----10-----10-----/-|3---3------3--3---3-/------|
B|---------------------------|---------------------------|
E|---------------------------|---------------------------|

e|------ 13---- ------ 14----|------ 15---- ------ 15----|
B|-------15------------15----|-------15------------15----|
G|---------------------------|---------------------------|
D|---------------------------|---------------------------|
A|---------------------------|---------------------------|
E|---------------------------|---------------------------|
  cause      sweet and     lovely,                     I
      you're                      girl,

  A
e|----5- 5---5- ----5- ----5-|------ 5---3- ----3- ----2-|
B|----2--2---2------2------2-|-------2---2------2------3-|
G|----2--2---2------2------2-|-------2---2------2------2-|
D|----2--2---2------2------2-|-------2---2------2------0-|
A|----0--0---0------0------0-|-------0---0------0--------|
E|---------------------------|---------------------------|

e|------ ------ ------ ------|------ ------ ------ ------|
d|10--10-----10-----10-10\--/|10--10-----10-----10\----/-|
G#10--10-----10-----10-10\--/|10--10-----10-----10\----/-|
e|10--10-----10-----10-10\--/|10--10-----10-----10\----/-|
B|---------------------------|---------------------------|
E|---------------------------|---------------------------|

e|------ 13H1414------ 14----|1314-- 13---- 1314-- 14--15|
B|-------15---15-------15----|1515---15-----1515---15--15|
G|---------------------------|---------------------------|
D|---------------------------|---------------------------|
A|---------------------------|---------------------------|
E|---------------------------|---------------------------|
  love you                                              Be..

  02:09
  D
e|----2- ----2- ----2- ----2-|----2- ----2- ----2- ----2-|
B|----3------3------3------3-|----3------3------3------3-|
G|----2------2------2------2-|----2------2------2------2-|
D|----0------0------0------0-|----0------0------0------0-|
A|---------------------------|---------------------------|
E|---------------------------|---------------------------|

e|------ ------ ------ ------|------ ------ ------ ------|
d|3---3------3------3-\----/-|3---3------3------3-/------|
G#3---3------3------3-\----/-|3---3------3------3-/------|
e|3---3------3------3-\----/-|3---3------3------3-/------|
B|---------------------------|---------------------------|
E|---------------------------|---------------------------|

e|------ 15---- ------ 15----|------ 15---- ------ 15----|
B|-------15------------15----|-------15------------15----|
G|---------------------------|---------------------------|
D|---------------------------|---------------------------|
A|---------------------------|---------------------------|
E|---------------------------|---------------------------|
  cause      sweet and     lovely,              it's   true
      you're                      girl,


  A                Asus4/6 A
e|5---5- ------ 5---5- ------|5----- 5----- 5----- 5-----|
B|2---2---------3---3--------|2------3------2------3-----|
G|2---2---------2---2--------|2------2------2------2-----|
D|2---2---------4---4--------|2------4------2------4-----|
A|0---0---------0---0--------|0------0------0------0-----|
E|---------------------------|---------------------------|

e|------ ------ ------ ------|------ ------ ------ ------|
d|10--10-----10-----10-\----/|10--10-----10-----10-\-----|
G#10--10-----10-----10-\----/|10--10-----10-----10-\-----|
e|10--10-----10-----10-\----/|10--10-----10-----10-\-----|
B|---------------------------|---------------------------|
E|---------------------------|---------------------------|

e|131414 151515 131414 151515|131414 151515 131414 151515|
B|151515-151515-151515-151515|151515-151515-151515-151515|
G|---------------------------|---------------------------|
D|---------------------------|---------------------------|
A|---------------------------|---------------------------|
E|---------------------------|---------------------------|
                                                       I

  02:16
  E7
e|----0- 0---0- ----0- ----2-|----2- ------ 2---2- ----0-|
B|----3--3---3------3------3-|----3---------3---3------2-|
G|----1--1---1------1------2-|----2---------2---2------2-|
D|----2--2---2------2------0-|----0---------0---0------2-|
A|----2--2---2------2--------|-------------------------0-|
E|----0--0---0------0--------|---------------------------|
  love you   more   than   ever,  girl,         I      do.
e|------ ------ ------ ------|------ ------ ------ ------|
d|5---5------5------5--5---/-|3---3------3------3------0-|
G#5---5------5------5--5---/-|3---3------3------3------4-|
e|5---5------5------5--5---/-|3---3------3------3------2-|
B|---------------------------|---------------------------|
E|---------------------------|---------------------------|

e|------ 17---- ------ 17----|------ 15--13 15--15 15----|
B|-------17------------17----|-------15-----15--15-15----|
G|---------------------------|---------------------------|
D|---------------------------|---------------------------|
A|---------------------------|---------------------------|
E|---------------------------|---------------------------|


                                         (.
                                     E7  A
e|----5- --5--- --5--- --5---|5----- 0---0- ------ ------|
B|---------------------------|-------3---2---------------|
G|----2--0---0---------------|-------1---2---------------|
D|--------------4---4--3---3-|2------2---2---------------|
A|---------------------------|-------2---0---------------|
E|---------------------------|-------0-------------------|
                              Rhythm and blues
                                         (.
e|------ ------ ------ ------|------ /---10 ------ ------|
d|---------------------------|-------/---10--------------|
G#---------------------------|-------/---10--------------|
e|---------------------------|-------/---10--------------|
B|---------------------------|---------------------------|
E|---------------------------|---------------------------|

e|131414 141414 151515 151515|141415 14--14 ------ ------|
B|151515-151515-151515-151515|151515-15--15--------------|
G|---------------------------|---------------------------|
D|---------------------------|---------------------------|
A|---------------------------|---------------------------|
E|---------------------------|---------------------------|


        B  Bend
        R  Release
        /  slide up
        \  slide down
        H  hammer-on
        P  pull-off
        ~  vibrato
        +  harmonic
        x  Mute note
        . - play note like a dot in standard notation
        ^ - ties two notes together
        (. Pause

    ------------------------------------------------------------

    THE BEATLES - THE LONG AND WINDING ROAD (Lennon & McCartney)
                  From LET IT BE NAKED album. Released on 18th,
                  November 2003.

    ------------------------------------------------------------

    Tabbed by:PJVillanueva

    The long and winding road
    That leads to your door
    Will never disappear
    I've seen that road before
    It always leads me here
    Lead me to your door

    The wild and windy night
    That the rain washed away
    Has left a pool of tears
    Crying for the day
    Why leave me standing here
    Let me know the way

    Many times I've been alone
    And many times I've cried
    Any way you'll always know
    The many ways Ive tried

    But still they lead me back
    To the long winding road
    You left me standing here
    A long long time ago
    Dont keep me standing here
    Lead me to your door

    But still they lead me back
    To the long winding road
    You left me standing here
    A long long time ago
    Dont leave me waiting here
    Lead me to your door
    Yeah, yeah, yeah, yeah


  e|------- ------- ------- -------|------- ------- ------- -------|
  B|-------------------------------|------------------------------3|
  G|-------------------------------|-------------------------------|
  D|-------------------------------|-------------------------------|
  A|-------------------------------|-------------------------------|
  E|-------------------------------|-------------------------------|
                                                                  The

                                Ab      Abadd9
  e|------- ------- ------- ----4--|------- ------- ------- -------|
  B|4-------3-------------------4--|----4---4-------4---4----------|
  G|----------------3-----------5--|----5---5-------5---5----------|
  D|--------------------5-------6--|----6---6-------6---6----------|
  A|3---------------------------6--|----x---x-------x---x----------|
  E|----------------------------4--|----6---6-------6---6----------|

  e|------- ------- ------- -------|------- ------- ------- -------|
  B|-------------------------------|----4---4-------4---4----------|
  G|-------------------------------|----5---5-------5---5----------|
  D|-------------------------------|----6---6-------6---6----------|
  A|-------------------------------|-------------------------------|
  E|-------------------------------|-------------------------------|
    long    and     winding     road                that        leads

    Eb              Eb6 Eb7     Abadd9
  e|6------ 6------ ----6-- ----6--|------- ------- ------- 6------|
  B|8-------8-------8---8-------4--|--------------------8-------8--|
  G|8-------8-------x---6-------5--|------------5---8--------------|
  D|8-------8------10---8-------x--|--------6----------------------|
  A|6-------6-------6---6-------6--|-------------------------------|
  E|----------------------------4--|-------------------------------|

  e|3------ ------- ------- -------|------- ------- ------- -------|
  B|4------------------------------|-------------------------------|
  G|3------------------------------|-------------------------------|
  D|-------------------------------|-------------------------------|
  A|-------------------------------|-------------------------------|
  E|-------------------------------|-------------------------------|
                    to  your    door

    Ab              Gm7             Cm
  e|4------ 4------ 3------ 3------|3------ ------- ------- -------|
  B|4-------4-------6-------6------|4-------3---2------------------|
  G|5-------5-------3-------3------|5-------------3----------------|
  D|6-------6-------5-------5------|5---------------5-------5------|
  A|6-------6-------5-------5------|3-----------------6-3-------6--|
  E|4-------4-------3-------3------|-------------------------------|
            Will    never       disappear

    Fm      Fm7     Bb              Eb7sus4                 Eb7
  e|1------ 1------ 1------ 1------|6------ 6------ 6------ 6------|
  B|1-------4-------3-------3------|9-------9-------9-------8------|
  G|1-------1-------3-------3------|6-------6-------6-------6------|
  D|3---3---3---3---3---3---3---3--|8-------8-------8-------8------|
  A|3-------3-------1-------1------|6---6---6---6---6---6---6---6--|
  E|1-------1----------------------|-------------------------------|

  e|------- ------- ------- -------|------- ------- ------- -------|
  B|-------------------------------|6-------6-------6-------8------|
  G|-------------------------------|6-------6-------6-------8------|
  D|-------------------------------|6-------6-------6-------8------|
  A|-------------------------------|-------------------------------|
  E|-------------------------------|-------------------------------|
          Ive that          before
            seen  road


    Ab              Gm7             Cm
  e|4------ 4------ 3------ 3------|3------ ------- ------- -------|
  B|4-------4-------6-------6------|4-------4---3------------------|
  G|5-------5-------3-------3------|5---5---------3----------------|
  D|6-------6---6---5-------5---5--|5-------------------5---5------|
  A|6-------6-------5-------5------|3---------------------6-----6--|
  E|4-------4-------3-------3------|-------------------------------|

  e|------- ------- ------- -------|------- ------- ------- -------|
  B|4------------------------------|-------------------------------|
  G|5------------------------------|-------------------------------|
  D|6------------------------------|-------------------------------|
  A|-------------------------------|-------------------------------|
  E|-------------------------------|-------------------------------|
            It      always      leads   me here

    Fm7             Bb              Eb
  e|1------ 1------ 1------ 4------|6------ 6------ 6------ 6------|
  B|4-------4-------3-------3------|8-------8-------8-------8-----3|
  G|1-------1-------3---3---3---3--|8-------8-------8-------8------|
  D|3---3---3---3---3-------3------|8-------8-------8-------8------|
  A|3-------3-------1-------1------|6---10--6---6---6---6---6---6--|
  E|1-------1----------------------|-------------------------------|
              Lead  to      your        door                      The
                  me


    00:43

  e|------- ------- ------- ----4--|------- ------- ------- ----6--|
  B|4-------3-------------------4--|----4---4-------4---4-------8--|
  G|----------------3-----------5--|----5---5-------5---5-------8--|
  D|--------------------5-------6--|----6---6-------6---6-------8--|
  A|3---------------------------6--|----x---x-------x---x-------6--|
  E|----------------------------4--|----6---6-------6---6----------|

  e|------- ------- ------- -------|------- ------- ------- -------|
  B|-------------------------------|-----4--4-------4---4----------|
  G|-------------------------------|-----5--5-------5---5----------|
  D|-------------------------------|-----6--6-------6---6----------|
  A|-------------------------------|-------------------------------|
  E|-------------------------------|-------------------------------|
    wild    and     windy       night               that        rain
                                                        the

  e|------- ------- 6---6-- ----6--|6------ ------- ------- 6------|
  B|----------------8---8-------8--|4-------------------8-------8--|
  G|----------------8---8-------8--|5-----------5---8--------------|
  D|----8-----------8---8-------8--|x-------6----------------------|
  A|10------6---10--6---6-------6--|6------------------------------|
  E|-------------------------------|4------------------------------|

  e|3------ ------- ------- -------|------- ------- ------- -------|
  B|4------------------------------|-------------------------------|
  G|3------------------------------|-------------------------------|
  D|-------------------------------|-------------------------------|
  A|-------------------------------|-------------------------------|
  E|-------------------------------|-------------------------------|
                    washed
                        away

  e|4------ 4------ 3------ 3------|2------ ------- ------- -------|
  B|4-------4-------6-------6------|3-------3---2------------------|
  G|5-------5-------3-------3------|4---------------3--------------|
  D|6-------6-------5-------5------|4---4-------------5-------5-5--|
  A|6-------6-------5-------5------|2-------------------6---6---6--|
  E|4-------4-------3-------3------|----------------------3--------|

  e|8------ ------- 10----- -------|8------ ------- ------- -------|
  B|9---------------11-------------|8------------------------------|
  G|8---------------12-------------|8------------------------------|
  D|-------------------------------|-------------------------------|
  A|-------------------------------|-------------------------------|
  E|-------------------------------|-------------------------------|
           Has      left    a   pool of tears


  e|1------ 1------ 1------ 1------|6------ 6------ 6------ 6------|
  B|1-------1-------3-------3------|9-------9-------9-------8------|
  G|1-------1-------3---3---3---3--|6-------6-------6-------6------|
  D|3---3---3---3---3-------3------|8-------8-------8-------8------|
  A|3-------3-------1-------1------|6---6---6---6---6---6---6---6--|
  E|1-------1----------------------|-------------------------------|

  e|8------ ------- 8------ -------|------- 13----- 13----- 15-----|
  B|9--------------10--------------|--------14------14------16-----|
  G|8---------------8--------------|--------13------12------15-----|
  D|-------------------------------|-------------------------------|
  A|-------------------------------|-------------------------------|
  E|-------------------------------|-------------------------------|

  e|------- ------- ------- -------|------- ------- ------- -------|
  B|-------------------------------|6-------6-------6-------8------|
  G|-------------------------------|6-------6-------6-------8------|
  D|-------------------------------|6-------6-------6-------8------|
  A|-------------------------------|-------------------------------|
  E|-------------------------------|-------------------------------|
                Crying for  the day


  e|4------ 4------ 3------ 3------|3------ ------- ------- -------|
  B|4-------4-------6-------6------|4-------4---3-------3----------|
  G|5-------5-------3-------3------|5---5---5-------3---3----------|
  D|6---6---6---6---5---5---5---5--|5-------5-----------5----------|
  A|6-------6-------5-------5------|3-----------------------6---3--|
  E|4-------4-------3-------3------|-------------------------------|

  e|11----- ------- 10----- -------|8------ ------- ------- -------|
  B|13--------------11-------------|8------------------------------|
  G|13--------------12-------------|8------------------------------|
  D|-------------------------------|-------------------------------|
  A|-------------------------------|-------------------------------|
  E|-------------------------------|-------------------------------|

  e|------- ------- ------- -------|------- ------- ------- -------|
  B|4------------------------------|-------------------------------|
  G|5------------------------------|-------------------------------|
  D|6------------------------------|-------------------------------|
  A|-------------------------------|-------------------------------|
  E|-------------------------------|-------------------------------|
                Why leave   me  standing
                                        here

  e|1------ 1------ 1------ 1------|6------ 6------ ------- 6------|
  B|4-------4-------3-------3------|8-------8---------------8------|
  G|1-------1-------3---3---3---3--|8-------8---------------8------|
  D|3---3---3---3---3-------3------|8-------8---------------8------|
  A|3-------3-------1-------1------|6-------6-------------------6--|
  E|1-------1----------------------|-------------------------------|

  e|8------ ------- 8------ -------|6------ ------- ------- -------|
  B|9---------------6--------------|8------------------------------|
  G10---------------7--------------|8------------------------------|
  D|-------------------------------|-------------------------------|
  A|-------------------------------|-------------------------------|
  E|-------------------------------|-------------------------------|

  e|------- ------- ------- -------|------- ------- ------- -------|
  B|1---------------3--------------|4------------------------------|
  G|1---------------3--------------|3------------------------------|
  D|3---------------3--------------|5------------------------------|
  A|-------------------------------|-------------------------------|
  E|-------------------------------|-------------------------------|
              Let know      the way
                me


    01:26
    Eb              Ab              Eb              Fm      Bbadd9
  e|6------ 6------ 8------ 8------|6------ 6------ 8------ 8------|
  B|8-------8-------9-------9------|8-------8-------9-------6------|
  G|8-------8-------8-------8------|8-------8------10-------7------|
  D|8-------8-------6-------6------|8-------8------10-------x------|
  A|6-------6----------------------|6-------6-------8-------8------|
  E|-------------------------------|------------------------6------|

  e|------- ------- ------- -------|------- ------- ----11- ----13-|
  B|11--------------13-------------|11--------------13------15-----|
  G|12--------------13-------------|12--------------13------15-----|
  D|13--------------13-------------|13--------------13------15-----|
  A|-------------------------------|-------------------------------|
  E|-------------------------------|-------------------------------|

  e|------- ------- ------- -------|------- ------- ------- -------|
  B|-------------------------------|-------------------------------|
  G|------------------------5------|--------------------5-------7--|
  D|--------------------6----------|8-----------------------8------|
  A|-------------------------------|-------------------------------|
  E|-------------------------------|-------------------------------|
    Many      I've alone        and many      I've
        times    been                  times      cried


    Eb              Ab              Eb              Fm7     Bbadd9
  e|6------ 6------ 8------ 8------|6------ 6------ 8------ 8------|
  B|8-------8-------9-------9------|8-------8-------9-------6------|
  G|8-------8-------8-------8------|8-------8------10-------7------|
  D|8-------8-------6-------6------|8-------8------10-------x------|
  A|6-------6----------------------|6-------6-------8-------8------|
  E|-------------------------------|------------------------6------|

  e|11----- 15----- 11----- 16-----|15----- 11----- ----11- ----13-|
  B|11--------------13-------------|16------11------13------15-----|
  G|12--------------13-------------|15------12------13------15-----|
  D|-------------------------------|----------------13------15-----|
  A|-------------------------------|-------------------------------|
  E|-------------------------------|-------------------------------|

  e|------- ------- ------- -------|------- ------- ------- -------|
  B|-------------------------------|----------------------------3--|
  G|------------------------5------|----3---------------5----------|
  D|8---8-------8---6---6-------6--|5---------------3--------------|
  A|-------------------------------|-------------------------------|
  E|-------------------------------|-------------------------------|
    Any way   you'll    know      the   ways  I've               But
                  always            many         tried


    01:40

  e|------- ------- ------- ----4--|------- ------- ------- ----6--|
  B|4-------3-------------------4--|----4---4-------4---4-------8--|
  G|----------------3-----------5--|----5---5-------5---5-------8--|
  D|--------------------5-------6--|----6---6-------6---6-------8--|
  A|3---------------------------6--|----x---x-------x---x-------6--|
  E|----------------------------4--|----6---6-------6---6----------|

  e|11----- ------- ------- -------|------- ------- ------- -------|
  B|13-----------------------------|-------------------------------|
  G|12-----------------------------|-------------------------------|
  D|-------------------------------|-------------------------------|
  A|-------------------------------|-------------------------------|
  E|-------------------------------|-------------------------------|

  e|------- ------- ------- -------|------- ------- ------- -------|
  B|4------------------------------|----4---4-------4---4----------|
  G|5------------------------------|----5---5-------5---5----------|
  D|5------------------------------|----6---6-------6---6----------|
  A|-------------------------------|-------------------------------|
  E|-------------------------------|-------------------------------|
    still   they    lead        back                to  the     long
                        me

  e|------- ------- ----9-- ----6--|------- ------- ------- 6------|
  B|--------------------8-------4--|--------------------8-------8--|
  G|--------------------6-------5--|------------5---8--------------|
  D|--------8------10---8-------x--|--------6----------------------|
  A|---10-------10--6---6-------6--|-------------------------------|
  E|----------------------------4--|-------------------------------|

  e|6------ ------- ------- ----6--|------- ------- ------- -------|
  B|8---------------------------8--|-------------------------------|
  G|8---------------------------8--|-------------------------------|
  D|----------------------------6--|-------------------------------|
  A|-------------------------------|-------------------------------|
  E|-------------------------------|-------------------------------|

  e|3------ ------- ------- -------|------- ------- ------- -------|
  B|4------------------------------|--------------------8----------|
  G|3------------------------------|----------------8-----------8--|
  D|-------------------------------|-------------------------------|
  A|-------------------------------|-------------------------------|
  E|-------------------------------|-------------------------------|
                    winding     road


  e|4------ 4------ 3------ 3------|3------ ------- ------- -------|
  B|4-------4-------6-------6------|4-------3---2------------------|
  G|5-------5-------3-------3------|5-------------3----------------|
  D|6---6---6---6---5---5---5---5--|5---5-----------5-------5------|
  A|6-------6-------5-------5------|3-----------------6-3-------6--|
  E|4-------4-------3-------3------|-------------------------------|

  e|8------ ------- 10----- -------|8------ ------- ------- -------|
  B|9---------------11-------------|8------------------------------|
  G|8---------------12-------------|8------------------------------|
  D|-------------------------------|-------------------------------|
  A|-------------------------------|-------------------------------|
  E|-------------------------------|-------------------------------|

  e|------- ------- ------- -------|------- ------- ------- -------|
  B|--------4---------------3------|--------1----------------------|
  G|----5---------------3----------|----0-------0---3--------------|
  D|6-----------6---5-----------5--|1------------------------------|
  A|-------------------------------|-------------------------------|
  E|-------------------------------|-------------------------------|
            You     left    me  waiting here


  e|1------ 1------ 1------ 1------|6------ 6------ 6------ 6------|
  B|1-------1-------3-------3------|9-------9-------9-------8------|
  G|1-------1-------3---3---3---3--|6-------6-------6-------8------|
  D|3---3---3---3---3-------3------|8-------8-------8-------8------|
  A|3-------3-------1-------1------|6---6---6---6---6---6---6---6--|
  E|1-------1----------------------|-------------------------------|

  e|8------ ------- 10----- -------|------- 13----- 13----- 15-----|
  B|9---------------11-------------|--------14------14------16-----|
  G|8---------------10-------------|--------13------13------15-----|
  D|-------------------------------|-------------------------------|
  A|-------------------------------|-------------------------------|
  E|-------------------------------|-------------------------------|

  e|------- ------- ------- -------|------- 1------ 1------ -------|
  B|4---------------4--------------|--------2-------2-------4------|
  G|1---------------1--------------|--------3-------3-------3------|
  D|3---------------3--------------|------------------------5------|
  A|-------------------------------|6------------------------------|
  E|----------------------------6--|-------------------------------|
            a  long   long  time
                                ago

  e|4------ 4------ 3------ 3------|3------ ------- ------- -------|
  B|4-------4-------6-------6------|4-------4-3--------------------|
  G|5-------5-------3-------3------|5-------------3---------5------|
  D|6---6---6---6---5---5---5---5--|5---5-----------5---5---5---6--|
  A|6-------6-------5-------5------|3-------------------6-------6--|
  E|4-------4-------3-------3------|-------------------------------|

  e|11----- ------- 10----- -------|8------ ------- ------- -------|
  B|13--------------11-------------|8------------------------------|
  G|13--------------12-------------|8------------------------------|
  D|-------------------------------|-------------------------------|
  A|-------------------------------|-------------------------------|
  E|-------------------------------|-------------------------------|

  e|------- ------- ------- -------|------- ------- ------- -------|
  B|4----------------3-------------|1------------------------------|
  G|5----------------3-------------|0------------------------------|
  D|6----------------5-------------|1------------------------------|
  A|-------------------------------|-------------------------------|
  E|-------------------------------|-------------------------------|
                Don't   keep standing
                          me        here

  e|1------ 1------ 1------ 1------|6------ 6------ 6------ 6------|
  B|4-------4-------3-------3------|8-------8-------8-------8------|
  G|1-------1-------3---3---3---3--|8-------8-------8-------8------|
  D|3---3---3---3---3-------3------|8-------8---8---8-----------8--|
  A|3-------3-------1-------1------|6-------6-------6--------------|
  E|1-------1----------------------|-------------------------------|

  e|8------ ------- 10----- -------|6------ ------- ------- -------|
  B|9---------------11-------------|8------------------------------|
  G10---------------10-------------|8------------------------------|
  D|-------------------------------|-------------------------------|
  A|-------------------------------|-------------------------------|
  E|-------------------------------|------------------------------6|

  e|------- ------- ------- -------|------- ------- ------- -------|
  B|1---------------3--------------|4------------------------------|
  G|1---------------3--------------|3------------------------------|
  D|3---------------3--------------|5------------------------------|
  A|-------------------------------|-------------------------------|
  E|-------------------------------|-------------------------------|
            Lead    to      your        door
                me


    02:22
    Eb              Fm7             Eb              Fm7     Fm  Bb
  e|------- ------- ------- -------|------- ------- ------- -------|
  B|4-------4-------4-------1------|4-------4-------4-------1---3--|
  G|3---3---3---3---1-------1---1--|3-------3-------1-------1---3--|
  D|5-------5-------3---3---3------|5---5---5---5---3---3---3---3--|
  A|-------------------------------|-------------------------------|
  E|-------------------------------|-------------------------------|

  e|------- ------- ------- -------|------- ------- ------- -------|
  B|-------------------------------|-------------------------------|
  G|------------------5-6----------|-------------------------------|
  D|----5---------6-8--------------|----5-6-8-------6-5------------|
  A|6-8-------------------------8--|------------6-------8---8-6-5--|
  E|-------------------------------|-------------------------------|

  e|------- ------- ------- -------|------- ------- ------- -------|
  B|----8--------------------------|--------4----------------------|
  G|------------------------5------|------------3-----------3------|
  D|------------8---------------6--|----5-----------6---6----------|
  A|--------------------8----------|-------------------------------|
  E|-------------------------------|-------------------------------|

  e|------- ------- ------- -------|------- ------- ------- -------|
  B|4-------4-------4-------4------|4-------4-------4-------3------|
  G|3---3---3---3---1---1---1---1--|3-------3-------1-------3---3--|
  D|5-------5-------3-------3------|5---5---5---5---3---3---3------|
  A|-------------------------------|-------------------------------|
  E|-------------------------------|-------------------------------|

  e|------- ------- ------- -------|------- ------- ------- -------|
  B|-------------------------------|-------------------------------|
  G|-------------------------------|-------------------------------|
  D|--------5--------5-6--------8--|----5-6-5----------------------|
  A|----6-8-----6---8-------8------|------------6---8-6-----5------|
  E|6------------------------------|-------------------------------|

  e|------- ------- ------- -------|------- ------- ------- -------|
  B|4------------------------------|----------------4-------3------|
  G|3---3-----------1--------------|3---------------1-------3------|
  D|5-------------------3----------|----------------3-------3------|
  A|-------------------------------|----------------3-------1------|
  E|-------------------------------|----------------1--------------|
                                                                 But


    02:36

  e|------- ------- ------- ----4--|------- ------- ------- ----6--|
  B|4-------3-------------------4--|----4---4-------4---4-------8--|
  G|----------------3-----------5--|----5---5-------5---5-------8--|
  D|--------------------5-------6--|----6---6-------6---6-------8--|
  A|3---------------------------6--|----x---x-------x---x-------6--|
  E|----------------------------4--|----6---6-------6---6----------|

  e|------- ------- ------- -------|------- ------- ------- -------|
  B|-------------------------------|-------------------------------|
  G|-------------------------------|-------------------------------|
  D|-------------------------------|-------------------------------|
  A|6------------------------------|-------------------------------|
  E|-------------------------------|-------------------------------|

  e|3------ ------- ------- -------|------- ------- ------- -------|
  B|4------------------------------|----4---4-------4---4----------|
  G|5------------------------------|----5---5-------5---5----------|
  D|5------------------------------|----6---6-------6---6----------|
  A|3------------------------------|-------------------------------|
  E|-------------------------------|-------------------------------|
    still   they    lead        back                to  the     long
                        me

  e|------- ------- 8---9-- ----6--|------- ------- ------- 6------|
  B|----------------8---8-------4--|--------------------8-------8--|
  G|----------------8---8-------5--|------------5---8--------------|
  D|--------8-------8---8-------x--|--------6----------------------|
  A|---10-------10--6---6-------6--|-------------------------------|
  E|----------------------------4--|-------------------------------|

  e|3------ ------- ------- -------|------- ------- ------- -------|
  B|4------------------------------|----------------4--------------|
  G|3------------------------------|------------5-------5-------5--|
  D|5------------------------------|--------6----------------------|
  A|-------------------------------|-------------------------------|
  E|-------------------------------|-------------------------------|
                    winding     road


  e|4------ 4------ 3------ 3------|2------ ------- ------- -------|
  B|4-------4-------6-------6------|3-------3---2------------------|
  G|5-------5-------3-------3------|4-------------2----------------|
  D|6---6---6---6---5---5---5---5--|4---------------5-------5------|
  A|6-------6-------5-------5------|2-----------------6-3-6-----6--|
  E|4-------4-------3-------3------|------------------------------3|

  e|8------ ------- 10----- -------|8------ ------- ------- -------|
  B|9---------------11-------------|8------------------------------|
  G|8---------------12-------------|8------------------------------|
  D|-------------------------------|-------------------------------|
  A|-------------------------------|-------------------------------|
  E|-------------------------------|-------------------------------|

  e|------- ------- ------- -------|------- ------- ------- -------|
  B|-------------------------------|-------------------------------|
  G|5-------5-------3-------3------|5---------------3--------------|
  D|----6-------6-------5-------5--|------------5------------------|
  A|-------------------------------|-------------------------------|
  E|-------------------------------|-------------------------------|
            You     left    me  waiting here


  e|1------ 1------ 1------ 1------|6------ 6------ 6------ 6------|
  B|1-------1-------3-------3------|9-------9-------9-------8------|
  G|1-------1-------3---3---3---3--|6-------6-------6-------6------|
  D|3---3---3---3---3-------3------|8-------8-------8-------8------|
  A|3-------3-------1-------1------|6---6---6---6---6---6---6---6--|
  E|1-------1----------------------|-------------------------------|

  e|8------ ------- ------- -------|------- 13----- 13----- 15-----|
  B|9------------------------------|--------14------14------16-----|
  G10------------------------------|--------13------13------15-----|
  D|-------------------------------|-------------------------------|
  A|-------------------------------|-------------------------------|
  E|-------------------------------|-------------------------------|

  e|------- ------- ------- -------|1------ 1------ 1------ -------|
  B|1---------------3--------------|2-------2-------2-------4------|
  G|1---------------3--------------|3-------3-------3-------3------|
  D|3---------------3--------------|------------------------5------|
  A|3---------------1--------------|-------------------------------|
  E|-------------------------------|-------------------------------|
            a  long   long  time
                                ago

  e|4------ 4------ 3------ 3------|3------ ------- ------- -------|
  B|4-------4-------6-------6------|4-------4---3------------------|
  G|5-------5-------3-------3------|5---------------3--------------|
  D|6---6---6-------5---5---5---5--|5-------------------5----------|
  A|6-------6-------5-------5------|3-----------------------6---3--|
  E|4-------4-------3-------3------|-------------------------------|

  e|------- ------- 13----- 13-----|11----- ------- ------- -------|
  B|13--------------11------11-----|13-----------------------------|
  G|13--------------12------12-----|12-----------------------------|
  D|13-----------------------------|-------------------------------|
  A|-------------------------------|-------------------------------|
  E|-------------------------------|-------------------------------|

  e|------- ------- ------- -------|------- ------- ------- -------|
  B|4---------------3-------3------|--------4-------4--------------|
  G|5---------------3-------3------|------------------------5------|
  D|6---------------5-------5------|------------5-------5----------|
  A|-------------------------------|-------------------------------|
  E|-------------------------------|-------------------------------|
            Don't   leave      standing here
                        me

  e|1------ 1------ 1------ 1------|------- ------- ------- ----4--|
  B|4-------4-------3-------3------|4-------3-------------------4--|
  G|1-------1-------3---3---3---3--|----------------3-----------5--|
  D|3---3---3---3---3-------3------|--------------------5-------6--|
  A|3-------3-------1-------1------|3---------------------------6--|
  E|1-------1----------------------|----------------------------4--|

  e|8------ ------- 10----- -------|------- ------- ------- -------|
  B|9---------------11-------------|-------------------------------|
  G10---------------10-------------|-------------------------------|
  D|-------------------------------|-------------------------------|
  A|-------------------------------|-------------------------------|
  E|-------------------------------|-------------------------------|

  e|------- ------- ------- -------|------- ------- ------- -------|
  B|--------1---------------3------|--------3----------------------|
  G|------------1---------------3--|----------------3--------------|
  D|----3---------------3----------|-------------------------------|
  A|3---------------1--------------|-------------------------------|
  E|-------------------------------|-------------------------------|
            Lead   to         your      door
                me

  e|------- ------- ------- -------|------- ------- ------- -------|
  B|----4---4-------4---4----------|4------------------------------|
  G|----5---5-------5---5----------|3------------------------------|
  D|----6---6-------6---6----------|5------------------------------|
  A|-------------------------------|6------------------------------|
  E|----6---6-------6---6----------|-------------------------------|

  e|------- ------- ------- -------|------- ------- ------- -------|
  B|-------------------------------|------------4------------------|
  G|-------------------------------|----------5---5-----------5----|
  D|----------------------------5--|------5-6-------6-5---5-6---6--|
  A|----------------6---8----------|----6---------------6----------|
  E|------------6------------------|--6----------------------------|

  e|----8-- 11----- ------- -------|------- ------- ------- -------|
  B|----9----9------11--13---------|-------------------------------|
  G|---10---10------13--13---------|-------------------------------|
  D|----------------13--13---------|-------------------------------|
  A|-------------------------------|-------------------------------|
  E|-------------------------------|-------------------------------|

  e|------- ------- ------- -------|------- ------- ------- -------|
  B|----4---4-------4---4----------|4------------------------------|
  G|----5---5-------5---5----------|3------------------------------|
  D|----6---6-------6---6----------|5------------------------------|
  A|-------------------------------|-------------------------------|
  E|-------------------------------|-------------------------------|


    x
   (.

  e|------- ------- ------- -------|------- ------- ------- -------|
  B|-------------------------------|-------------------------------|
  G|-------------------------------|-------------------------------|
  D|8------------------------------|-------------------------------|
  A|6------------------------------|-------------------------------|
  E|6------------------------------|-------------------------------|


        B  Bend
        R  Release
        /  Slide up
        \  Slide down
        H  Hammer-on
        P  Pull-off
        ~  Vibrato
        +  Harmonic
        x  Mute note
        .  Play note like a dot in standard notation
        ^  Ties two notes together
        (. Pause

  -----------------------------------------------------------------

  THE BEATLES - TWO OF US (Lennon & McCartney) From LET IT BE NAKED
                album. Released on 18th November 2003.

  -----------------------------------------------------------------

  Tabbed by:PJVillanueva

  Two of us riding nowhere
  Spending someone's
  Hard earned pay

  You and me Sunday driving
  Not arriving
  On our way back home
  We're on our way home
  We're on our way home
  We're going home

  Two of us sending postcards
  Writing letters
  On my wall

  You and me burning matches
  Lifting latches
  On our way back home
  We're on our way home
  We're on our way home
  We're going home

  You and I have memories
  Longer than the road that stretches out ahead

  Two of us wearing raincoats
  Standing so low
  In the sun

  You and me chasing paper
  Getting nowhere
  On our way back home
  We're on our way home
  We're on our way home
  We're going home

  You and I have memories
  Longer than the road that stretches out ahead

  Two of us wearing raincoats
  Standing so low
  In the sun

  You and me chasing paper
  Getting nowhere
  On our way back home
  We're on our way home
  We're on our way home
  We're going home

  We're going home
  Better believe it

  4/4 time

  G
e|----7-- ----7-- ----7-- ----0--|----7-- ----7-- ----7-- ----0--| (Paul)
B|-------------------------------|-------------------------------|
G|7-------7---------------7------|7-------7---------------7------|
D|-------------------------------|-------------------------------|
A|-------------------------------|-------------------------------|
E|-------------------------------|-------------------------------|

e|------- ------- ------- -------|------- ------- ------- -------| (John)
B|-------------------------------|-------------------------------|
G|-------------------------------|-------------------------------|
D|-------------------------------|--------------------0---2---4--|
A|-------------------------------|-------------------------------|
E|-------------------------------|-------------------------------|

e|----7-- ----7-- ----7-- ----0--|----7-- ----7-- ----7-- ----0--|
B|-------------------------------|-------------------------------|
G|7-------7---------------7------|7-------7---------------7------|
D|-------------------------------|-------------------------------|
A|-------------------------------|-------------------------------|
E|-------------------------------|-------------------------------|

e|3---3-- ----3-- ----3-- ----3--|3---3-- ----3-- ----3-- 3---3--|
B|3---3-------3-------3-------3--|3---3-------3-------3---3---3--|
G|0---0-------0-------0-------0--|0---0-------0-------0---0---0--|
D|0---0-------0-------0-------0--|0---0-------0-------0---0---0--|
A|2---2-------2-------2-------2--|2---2-------2-------2---2---2--|
E|3---3-------3-------3-------3--|3---3-------3-------3---3---3--|

e|------- ------- ------- -------|------- ------- ------- -------| (George)
B|-------------------------------|-------------------------------|
G|-------------------------------|-------------------------------|
D|--------5----------------------|--------5-------------------5--|
A|--------------5/7---5-5/7---5--|--------------------5-5/7------|
E|3------------------------------|3-------------5/7--------------|

e|3---3-- 3---3-- 3---3-- 3------|----3-- ----3-- 3---3-- 3---3--| (John)
B|3---3---3---3---3---3---3------|----3-------3---3---3---3---3--|
G|0---0---0---0---0---0---0------|----0-------0---0---0---0---0--|
D|0---0---0---0---0---0---0------|----0-------0---0---0---0---0--|
A|2---2---2---2---2---2---2------|----2-------2---2---2---2---2--|
E|3---3---3---3---3---3---3------|----3-------3---3---3---3---3--|
  Two of  us      riding      nowhere             Spending    some..
e|3---3-- 3---3-- 3---3-- 3------|----3-- 3---3-- 3------ 3------| (Paul)
B|3---3---3---3---3---3---3------|----3---3---3---3-------3------|
G|0---0---0---0---0---0---0------|----0---0---0---0-------0------|
D|0---0---0---0---0---0---0------|----0---0---0---0-------0------|
A|2---2---2---2---2---2---2------|----2---2---2---2-------2------|
E|3---3---3---3---3---3---3------|----3---3---3---3-------3------|

e|------- ------- ------- -------|------- ------- ------- -------| (George)
B|-------------------------------|-------------------------------|
G|-------------------------------|-------------------------------|
D|--------5-------------------5--|--------5-------------------5--|
A|--------------5/7---5-5/7------|--------------------5-5/7------|
E|3------------------------------|3-------------5/7--------------|


  2/4             4/4
                  C               Em
e|----3-- 3---3--|3---3-- 3------ 3---3-- 3---3--|
B|----3---3---3--|1---1---1-------0---0---0---0--|
G|----0---0---0--|0---0---0-------0---0---0---0--|
D|----0---0---0--|2---2---2-------2---2---2---2--|
A|----2---2---2--|3---3---3-------2---2---2---2--|
E|----3---3---3--|----------------0---0---0---0--|
  ....one's       hard            earned
e|3---3-- 3---3--|3---3-- 3---3-- 3------ 3------|
B|3---3---3---3--|1---1---1---1---0-------0------|
G|0---0---0---0--|0---0---0---0---0-------0------|
D|0---0---0---0--|2---2---2---2---2-------2------|
A|2---2---2---2--|3---3---3---3---2-------2------|
E|3---3---3---3--|----------------0-------0------|

e|------- -------|------- ------- ------- -------|
B|---------------|-------------------------------|
G|---------------|-------------------------------|
D|--------5------|-------------------------------|
A|---------------|3-------3-------2---0----------|
E|3--------------|------------------------3-5/7--|


  Am7
e|3---3-- 3---3-- 3---3-- 3---3--|
B|1---1---1---1---1---1---1---3--|
G|2---2---2---2---2---2---2---0--|
D|2---2---2---2---2---2---2---0--|
A|0---0---0---0---0---0---0---2--|
E|----------------------------3--|
  pay
e|3---3-3 3---3-- 3---3-- 3------|
B|1---1-1-1---1---1---1---1------|
G|2---2-2-2---2---2---2---2------|
D|2---2-2-2---2---2---2---2------|
A|0---0-0-0---0---0---0---0------|
E|-------------------------------|

e|------- ------- ------- -------|
B|-------------------------------|
G|-------------------------------|
D|-------------------------------|
A|-------------------------------|
E|5---3---5-------3-------3------|


  G
e|3---3-- ----3-- ----3-- ----3--|----3-- ----3-- 3---3-- ----3--|
B|3---3-------3-------3-------3--|----3-------3---3---3-------3--|
G|0---0-------0-------0-------0--|----0-------0---0---0-------0--|
D|0---0-------0-------0-------0--|----0-------0---0---0-------0--|
A|2---2-------2-------2-------2--|----2-------2---2---2-------2--|
E|3---3-------3-------3-------3--|----3-------3---3---3-------3--|
  You and me      Sunday      driving             Not     arri...
e|3------ 3------ 3------ 3------|------- 3---3-- ------- 3---3--|
B|3-------3-------3-------3------|--------3---3-----------3---3--|
G|0-------0-------0-------0------|--------0---0-----------0---0--|
D|0-------0-------0-------0------|--------0---0-----------0---0--|
A|2-------2-------2-------2------|--------2---2-----------2---2--|
E|3-------3-------3-------3------|--------3---3-----------3---3--|

e|------- ------- ------- -------|------- ------- ------- -------|
B|-------------------------------|-------------------------------|
G|-------------------------------|-------------------------------|
D|--------5-------------------5--|--------5-------------------5--|
A|--------------------5-5/7------|--------------------5-5/7------|
E|3-------------5/7--------------|3------------------------------|

  2/4             4/4
                  C               Em
e|----3-- 3---3--|3---3-- 3---3-- 3---3-- ----3--|
B|----3---3---3--|1---1---1---1---0---0-------0--|
G|----0---0---0--|0---0---0---0---0---0-------0--|
D|----0---0---0--|2---2---2---2---2---2-------2--|
A|----2---2---2--|3---3---3---3---2---2-------2--|
E|----3---3---3--|----------------0---0-------0--|
  ....ving        on              our
e|------- 3------|3------ 3------ 3------ 3---3--|
B|--------3------|1-------1-------0-------0---0--|
G|--------0------|0-------0-------0-------0---0--|
D|--------0------|2-------2-------2-------2---2--|
A|--------2------|3-------3-------2-------2---2--|
E|--------3------|----------------0-------0---0--|

e|------- -------|------- ------- ------- -------|
B|---------------|-------------------------------|
G|---------------|-------------------------------|
D|--------5------|-------------------------------|
A|---------------|3-------3-------2--------------|
E|3--------------|------------------------3------|

  Am7
e|3---3-- 3---3-- ----3-- ----3--|
B|1---1---1---1-------1-------1--|
G|2---2---2---2-------2-------2--|
D|2---2---2---2-------2-------2--|
A|0---0---0---0-------0-------0--|
E|-------------------------------|
  way             back
e|3---3-- 3---3-- 3------ 3------|
B|1---1---1---1---1-------1------|
G|2---2---2---2---2-------2------|
D|2---2---2---2---2-------2------|
A|0---0---0---0---0-------0------|
E|-------------------------------|

e|------- ------- ------- -------|
B|-------------------------------|
G|-------------------------------|
D|-------------------------------|
A|-------------------------------|
E|5---3---5-------3-------5------|

  3/4
  G                   G6  D               C
e|3---3-- ----3-- ----0--|2---2-- 2------ 3---3--|
B|3---3-------3-------3--|3---3---3-------1---1--|
G|0---0-------0-------0--|2---2---2-------0---0--|
D|0---0-------0-------0--|0---0---0-------2---2--|
A|2---2-------2-------2--|----------------3---3--|
E|3---3-------3-------3--|-----------------------|
  home                      We're on our  way
e|3---3-- 3---3-- ----0--|2---2-- 2------ 3------|
B|3---3---3---3-------3--|3---3---3-------1------|
G|0---0---0---0-------0--|2---2---2-------0------|
D|0---0---0---0-------0--|0---0---0-------2------|
A|2---2---2---2-------2--|----------------3------|
E|3---3---3---3-------3--|-----------------------|

e|------- ------- -------|------- ------- -------|
B|-----------------------|-----------------------|
G|-----------------------|-----------------------|
D|-----------------------|--------------------5--|
A|------------2-------3--|5-------5-----5/7------|
E|3-------3--------------|-----------------------|

  G                   G6  D               C
e|----3-- ----3-- ----0--|2---2-- 2---2-- 3------|
B|----3-------3-------3--|3---3---3---3---1------|
G|----0-------0-------0--|2---2---2---2---0------|
D|----0-------0-------0--|0---0---0---0---2------|
A|----2-------2-------2--|----------------3------|
E|----3-------3-------3--|-----------------------|
  home                      We're on our  way
e|3------ 3---3-- ----0--|2------ 2------ 3------|
B|3-------3---3-------3--|3-------3-------1------|
G|0-------0---0-------0--|2-------2-------0------|
D|0-------0---0-------0--|0-------0-------2------|
A|2-------2---2-------2--|----------------3------|
E|3-------3---3-------3--|-----------------------|

e|------- ------- -------|------- ------- -------|
B|-----------------------|-----------------------|
G|-----------------------|-----------------------|
D|-----------------------|--------------------5--|
A|------------2-------3--|5-------5-----5/7------|
E|3----------------------|-----------------------|

                          2/4
  G                       C
e|----3-- ----3-- ----3--|3---3-- 3---3--|
B|----3-------3-------3--|1---1---1---1--|
G|----0-------0-------0--|0---0---0---0--|
D|----0-------0-------0--|2---2---2---2--|
A|----2-------2-------2--|3---3---3---3--|
E|----3-------3-------3--|---------------|
  home                      We're going
e|3---3-- 3---3-- 3---3--|3------ 3------|
B|3---3---3---3---3---3--|1-------1------|
G|0---0---0---0---0---0--|0-------0------|
D|0---0---0---0---0---0--|2-------2------|
A|2---2---2---2---2---2--|3-------3------|
E|3---3---3---3---3---3--|---------------|

e|------- ------- -------|------- -------|
B|-----------------------|---------------|
G|-----------------------|---------------|
D|-----------------------|---------------|
A|------------0-------2--|3--------------|
E|3----------------------|---------------|


  4/4
  G
e|3------ ------- ------- -------|
B|3------------------------------|
G|0------------------------------|
D|0------------------------------|
A|2------------------------------|
E|3------------------------------|
  home
e|3------ ------- ------- -------|
B|3------------------------------|
G|0------------------------------|
D|0------------------------------|
A|2------------------------------|
E|3------------------------------|

e|------- ------- ------- -------|
B|-------------------------------|
G|-------------------------------|
D|-------------------------------|
A|-------------------------------|
E|3------------------------------|

                                  x       x       x       x

  G
e|----7-- ----7-- ----7-- ----0--|----7-- ----7-- ----7-- ----0--| (Paul)
B|-------------------------------|-------------------------------|
G|7-------7---------------7------|7-------7---------------7------|
D|-------------------------------|-------------------------------|
A|-------------------------------|-------------------------------|
E|-------------------------------|-------------------------------|

e|------- ------- ------- -------|------- ------- ------- -------| (John)
B|-------------------------------|-------------------------------|
G|-------------------------------|-------------------------------|
D|-------------------------------|--------------------0---2---4--|
A|-------------------------------|-------------------------------|
E|-------------------------------|-------------------------------|



e|----7-- ----7-- ----7-- ----0--|----7-- ----7-- ----7-- ----0--|
B|-------------------------------|-------------------------------|
G|7-------7---------------7------|7-------7---------------7------|
D|-------------------------------|-------------------------------|
A|-------------------------------|-------------------------------|
E|-------------------------------|-------------------------------|

e|3---3-- ----3-- ----3-- ----3--|----3-- 3---3-- ----3-- 3---3--|
B|3---3-------3-------3-------3--|----3---3---3-------3---3---3--|
G|0---0-------0-------0-------0--|----0---0---0-------0---0---0--|
D|0---0-------0-------0-------0--|----0---0---0-------0---0---0--|
A|2---2-------2-------2-------2--|----2---2---2-------2---2---2--|
E|3---3-------3-------3-------3--|----3---3---3-------3---3---3--|

e|------- ------- ------- -------|------- ------- ------- -------| (George)
B|-------------------------------|-------------------------------|
G|-------------------------------|-------------------------------|
D|--------5-------------------5--|--------5-------------------5--|
A|--------------------5-5/7------|--------------------5-5/7------|
E|3-------------5/7--------------|3-------------5/7--------------|

e|----3-- ----3-- ----3-- 3---3--|----3-- ----3-- ----3-- 3---3--| (John)
B|----3-------3-------3---3---3--|----3-------3-------3---3---3--|
G|----0-------0-------0---0---0--|----0-------0-------0---0---0--|
D|----0-------0-------0---0---0--|----0-------0-------0---0---0--|
A|----2-------2-------2---2---2--|----2-------2-------2---2---2--|
E|----3-------3-------3---3---3--|----3-------3-------3---3---3--|
  Two of  us      sending     postcards           writing     let..
e|3---3-- 3---3-- 3------ 3------|------- 3---3-- ------- 3------| (Paul)
B|3---3---3---3---3-------3------|--------3---3-----------3------|
G|0---0---0---0---0-------0------|--------0---0-----------0------|
D|0---0---0---0---0-------0------|--------0---0-----------0------|
A|2---2---2---2---2-------2------|--------2---2-----------2------|
E|3---3---3---3---3-------3------|--------3---3-----------3------|

e|------- ------- ------- -------|------- ------- ------- -------| (George)
B|-------------------------------|-------------------------------|
G|-------------------------------|-------------------------------|
D|--------5-----------5----------|--------5-----------5----------|
A|--------------5/7-----------5--|--------------5/7-----------5--|
E|3---------------------5/7------|3---------------------5/7------|


  2/4             4/4
                  C               Em
e|----3-- 3---3--|----3-- ----3-- ----3-- ----3--|
B|----3---3---3--|----1-------1-------0-------0--|
G|----0---0---0--|----0-------0-------0-------0--|
D|----0---0---0--|----2-------2-------2-------2--|
A|----2---2---2--|----3-------3-------2-------2--|
E|----3---3---3--|--------------------0-------0--|
  ....ters        on              my
e|----3-- 3---3--|3------ 3---3-- 3------ 3------|
B|----3---3---3--|1-------1---1---0-------0------|
G|----0---0---0--|0-------0---0---0-------0------|
D|----0---0---0--|2-------2---2---2-------2------|
A|----2---2---2--|3-------3---3---2-------2------|
E|----3---3---3--|----------------0-------0------|

e|------- -------|------- ------- ------- -------|
B|---------------|-------------------------------|
G|---------------|-------------------------------|
D|--------5------|-------------------------------|
A|---------------|3-------3-------2---0----------|
E|3--------------|------------------------3-5/7--|

  Am7
e|------- 3---3-- 3---3-- 3---3--|
B|--------1---1---1---1---1---3--|
G|--------2---2---2---2---2---0--|
D|--------2---2---2---2---2---0--|
A|--------0---0---0---0---0---2--|
E|----------------------------3--|
  wall
e|3---3-3 3---3-3 3---3-- 3---3--|
B|1---1-1-1---1-1-1---1---1---1--|
G|2---2-2-2---2-2-2---2---2---2--|
D|2---2-2-2---2-2-2---2---2---2--|
A|0---0-0-0---0-0-0---0---0---0--|
E|-------------------------------|

e|------- ------- ------- -------|
B|-------------------------------|
G|-------------------------------|
D|-------------------------------|
A|-------------------------------|
E|5-------5---0---3-------5------|


  G
e|----3-- ----3-- ------- 3---3--|3---3-- ----3-- ----3-- ----3--|
B|----3-------3-----------3---3--|3---3-------3-------3-------3--|
G|----0-------0-----------0---0--|0---0-------0-------0-------0--|
D|----0-------0-----------0---0--|0---0-------0-------0-------0--|
A|----2-------2-----------2---2--|2---2-------2-------2-------2--|
E|----3-------3-----------3---3--|3---3-------3-------3-------3--|
  You and me      burning     matches             Lifting     lat..
e|3---3-- 3------ 3------ 3---3--|3------ 3---3-- 3------ 3---3--|
B|3---3---3-------3-------3---3--|3-------3---3---3-------3---3--|
G|0---0---0-------0-------0---0--|0-------0---0---0-------0---0--|
D|0---0---0-------0-------0---0--|0-------0---0---0-------0---0--|
A|2---2---2-------2-------2---2--|2-------2---2---2-------2---2--|
E|3---3---3-------3-------3---3--|3-------3---3---3-------3---3--|

e|------- ------- ------- -------|------- ------- ------- -------|
B|-------------------------------|-------------------------------|
G|-------------------------------|-------------------------------|
D|----------------------------5--|--------5-----------5----------|
A|--------------------5-5/7------|--------------5/7-----------5--|
E|3-------3----------------------|3---------------------5/7------|

  2/4             4/4
                  C               Em
e|----3-- 3---3--|3---3-- 3---3-- 3------ 3---3--|
B|----3---3---3--|1---1---1---1---0-------0---0--|
G|----0---0---0--|0---0---0---0---0-------0---0--|
D|----0---0---0--|2---2---2---2---2-------2---2--|
A|----2---2---2--|3---3---3---3---2-------2---2--|
E|----3---3---3--|----------------0-------0---0--|
  ....ches        on              our
e|3------ 3---3--|3------ 3------ 3------ 3---3--|
B|3-------3---3--|1-------1-------0-------0---0--|
G|0-------0---0--|0-------0-------0-------0---0--|
D|0-------0---0--|2-------2-------2-------2---2--|
A|2-------2---2--|3-------3-------2-------2---2--|
E|3-------3---3--|----------------0-------0---0--|

e|------- -------|------- ------- ------- -------|
B|---------------|-------------------------------|
G|---------------|-------------------------------|
D|--------5------|-------------------------------|
A|---------------|3-------3-------2---3---5---0--|
E|3--------------|-------------------------------|

  Am7
e|----3-- 3---3-- 3---3-- 3---3--|
B|----1---1---1---1---1---1---1--|
G|----2---2---2---2---2---2---2--|
D|----2---2---2---2---2---2---2--|
A|----0---0---0---0---0---0---0--|
E|-------------------------------|
  way             back
e|3------ 3---3-- 3---3-- 3---3--|
B|1-------1---1---1---1---1---1--|
G|2-------2---2---2---2---2---2--|
D|2-------2---2---2---2---2---2--|
A|0-------0---0---0---0---0---0--|
E|-------------------------------|

e|------- ------- ------- -------|
B|-------------------------------|
G|-------------------------------|
D|-------------------------------|
A|2---3-------0---2---0----------|
E|--------3---------------0---2--|

  3/4
  G                       D               C
e|----3-- ----3-- ----3--|2---2-- 2---2-- 3------|
B|----3-------3-------3--|3---3---3---3---1------|
G|----0-------0-------0--|2---2---2---2---0------|
D|----0-------0-------0--|0---0---0---0---2------|
A|----2-------2-------2--|----------------3------|
E|----3-------3-------3--|-----------------------|
  home                      We're on our  way
e|----3-- 3---3-- 3---3--|2---2-- 2------ 3------|
B|----3---3---3---3---3--|3---3---3-------1------|
G|----0---0---0---0---0--|2---2---2-------0------|
D|----0---0---0---0---0--|0---0---0-------2------|
A|----2---2---2---2---2--|----------------3------|
E|----3---3---3---3---3--|-----------------------|

e|------- ------- -------|------- ------- -------|
B|-----------------------|-----------------------|
G|-----------------------|-----------------------|
D|-----------------------|--------------------5--|
A|------------2-------3--|5-------5-----5/7------|
E|3-------3--------------|-----------------------|

  G                       D               C
e|3---3-- ----3-- ----3--|2------ 2---2-- 3---3--|
B|3---3-------3-------3--|3-------3---3---1---1--|
G|0---0-------0-------0--|2-------2---2---0---0--|
D|0---0-------0-------0--|0-------0---0---2---2--|
A|2---2-------2-------2--|----------------3---3--|
E|3---3-------3-------3--|-----------------------|
  home                      We're on our  way
e|3---3-- 3---3-- ----3--|2------ 2------ 3------|
B|3---3---3---3-------3--|3-------3-------1------|
G|0---0---0---0-------0--|2-------2-------0------|
D|0---0---0---0-------0--|0-------0-------2------|
A|2---2---2---2-------2--|----------------3------|
E|3---3---3---3-------3--|-----------------------|

e|------- ------- -------|------- ------- -------|
B|-----------------------|-----------------------|
G|-----------------------|-----------------------|
D|-----------------------|-----------------------|
A|------------2-------3--|5-------5-----5/7------|
E|3-------3--------------|-----------------------|


                          2/4
  G                       C
e|3------ ----3-- ----3--|3---3-- 3---3--|
B|3-----------3-------3--|1---1---1---1--|
G|0-----------0-------0--|0---0---0---0--|
D|0-----------0-------0--|2---2---2---2--|
A|2-----------2-------2--|3---3---3---3--|
E|3-----------3-------3--|---------------|
  home                      We're going
e|3---3-- 3---3-- 3---3--|3------ 3------|
B|3---3---3---3---3---3--|1-------1------|
G|0---0---0---0---0---0--|0-------0------|
D|0---0---0---0---0---0--|2-------2------|
A|2---2---2---2---2---2--|3-------3------|
E|3---3---3---3---3---3--|---------------|

e|------- ------- -------|------- -------|
B|-----------------------|---------------|
G|-----------------------|---------------|
D|-----------------------|---------------|
A|------------0-------2--|3-------3-H-5--|
E|3-------3--------------|---------------|


  4/4
  x   x   x   x   x   x   x   x   x   x   x   x   x   x   x   x
  G
e|3------ ------- ------- -------|------- ------- ------- -------|
B|3------------------------------|-------------------------------|
G|0------------------------------|-------------------------------|
D|0------------------------------|-------------------------------|
A|2------------------------------|-------------------------------|
E|3------------------------------|-------------------------------|
  home
e|3------ ------- ------- -------|------- ------- ------- -------|
B|3------------------------------|-------------------------------|
G|0------------------------------|-------------------------------|
D|0------------------------------|-------------------------------|
A|2------------------------------|-------------------------------|
E|3------------------------------|-------------------------------|

e|------- ------- ------- -------|------- ------- ------- -------|
B|-------------------------------|-------------------------------|
G|-------------------------------|-------------------------------|
D|-------------------------------|-------------------------------|
A|-------------------------------|-------------------------------|
E|3------------------------------|-------------------------------|


  Bb                              Dm
e|1------ ------- ----1-1 1-1-1--|1------ ------- ----1-1 1-1-1--|
B|3-------------------3-3-3-3-3--|3-------------------3-3-3-3-3--|
G|3-------------------3-3-3-3-3--|2-------------------2-2-2-2-2--|
D|3-------------------3-3-3-3-3--|0-------------------0-0-0-0-0--|
A|1-------------------1-1-1-1-1--|-------------------------------|
E|-------------------------------|-------------------------------|
  You and     I           have    memories
e|6------ ------- ------- -------|5------ ------- ------- -------|
B|6------------------------------|6------------------------------|
G|7------------------------------|7------------------------------|
D|8------------------------------|7------------------------------|
A|8------------------------------|5------------------------------|
E|6------------------------------|-------------------------------|

e|------- ------- ------- -------|------- ------- ------- -------|
B|-------------------------------|-------------------------------|
G|-------------------------------|-------------------------------|
D|------------------------0---3--|----------------0---3---5-5/7--|
A|------------0---1---3----------|------------3------------------|
E|-------------------------------|-------------------------------|

  Gm                              Am
e|3------ 3---3-- ----3-- 3------|0------ 0------ 0---0-- 0------|
B|3-------3---3-------3---3------|1-------1-------1---1---1------|
G|3-------3---3-------3---3------|2-------2-------2---2---2------|
D|5-------5---5-------5---5------|2-------2-------2---2---2------|
A|5-------5---5-------5---5------|0-------0-------0---0---0------|
E|3-------3---3-------3---3------|-------------------------------|
  longer      that        the road        that stretches      out
e|3------ 3---3-- ------- 3------|5---5-- 5---5-- ------- ----5--|
B|3-------3---3-----------3------|5---5---5---5---------------5--|
G|3-------3---3-----------3------|5---5---5---5---------------5--|
D|5-------5---5-----------5------|7---7---7---7---------------7--|
A|5-------5---5-----------5------|7---7---7---7---------------7--|
E|3-------3---3-----------3------|5---5---5---5---------------5--|

e|------- ------- ------- -------|------- ------- ------- -------|
B|-------------------------------|-------------------------------|
G|-------------------------------|-------------------------------|
D|------------------------3------|------------------------5------|
A|----------------3---5-------5--|----------------5---7-------7--|
E|3-------5---6------------------|5-----------8------------------|


                                  D                           G
e|0------ 0------ 0---0-- 0------|2---2-- 2---2-- ----2-- 2---3--|
B|1-------1-------1---1---1------|3---3---3---3-------3---3---3--|
G|2-------2-------2---2---2------|2---2---2---2-------2---2---0--|
D|2-------2-------2---2---2------|0---0---0---0-------0---0---0--|
A|0-------0-------0---0---0------|----------------------------2--|
E|-------------------------------|----------------------------3--|
      ahead
e|----5-- ----5-- ----5-- ----0--|2---2-- 2---2-- 2---2-- 2---3--|
B|----5-------5-------5-------0--|3---3---3---3---3---3---3---3--|
G|----5-------5-------5-------0--|2---2---2---2---2---2---2---0--|
D|----7-------7-------7----------|0---0---0---0---0---0---0---0--|
A|----7-------7-------7----------|----------------------------2--|
E|----5-------5-------5----------|----------------------------3--|

e|------- ------- ------- -------|------- ------- ------- -------|
B|-------------------------------|-------------------------------|
G|-------------------------------|-------------------------------|
D|------------------------5-7/9--|----7---5----------------------|
A|----------------5---7----------|------------7---5-------7--\---|
E|----5---7---8------------------|-------------------------------|


e|3---3-- 3---3-- ----3-- 3---3--|----3-- 3---3-- ----3-- 3---3--|
B|3---3---3---3-------3---3---3--|----3---3---3-------3---3---3--|
G|0---0---0---0-------0---0---0--|----0---0---0-------0---0---0--|
D|0---0---0---0-------0---0---0--|----0---0---0-------0---0---0--|
A|2---2---2---2-------2---2---2--|----2---2---2-------2---2---2--|
E|3---3---3---3-------3---3---3--|----3---3---3-------3---3---3--|
  Two of  us      wearing      raincoats          Standing    so
e|3---3-- 3---3-- 3---3-- 3---3--|3---3-- 3---3-- 3------ 3---3--|
B|3---3---3---3---3---3---3---3--|3---3---3---3---3-------3---3--|
G|0---0---0---0---0---0---0---0--|0---0---0---0---0-------0---0--|
D|0---0---0---0---0---0---0---0--|0---0---0---0---0-------0---0--|
A|2---2---2---2---2---2---2---2--|2---2---2---2---2-------2---2--|
E|3---3---3---3---3---3---3---3--|3---3---3---3---3-------3---3--|

e|------- ------- ------- -------|------- ------- ------- -------|
B|-------------------------------|-------------------------------|
G|-------------------------------|-------------------------------|
D|--------5-------------------5--|--------5-------------------5--|
A|--------------------5-5/7------|--------------------5-5/7------|
E|3------------------------------|3-------------5/7--------------|

  2/4             4/4
                  C               Em
e|----3-- 3---3--|3------ 3---3-- 3------ 3---3--|
B|----3---3---3--|1-------1---1---0-------0---0--|
G|----0---0---0--|0-------0---0---0-------0---0--|
D|----0---0---0--|2-------2---2---2-------2---2--|
A|----2---2---2--|3-------3---3---2-------2---2--|
E|----3---3---3--|----------------0-------0---0--|
      low         in              the
e|3---3-- 3------|3------ 3------ 3---3-- 3---3--|
B|3---3---3------|1-------1-------0---0---0---0--|
G|0---0---0------|0-------0-------0---0---0---0--|
D|0---0---0------|2-------2-------2---2---2---2--|
A|2---2---2------|3-------3-------2---2---2---2--|
E|3---3---3------|----------------0---0---0---0--|

e|------- -------|------- ------- ------- -------|
B|---------------|-------------------------------|
G|---------------|-------------------------------|
D|--------5------|-------------------------------|
A|---------------|3-------3-------2---0---2---0--|
E|3--------------|-------------------------------|

  Am7
e|3------ 3---3-- ----3-- 3---3--|
B|1-------1---1-------1---1---1--|
G|2-------2---2-------2---2---2--|
D|2-------2---2-------2---2---2--|
A|0-------0---0-------0---0---0--|
E|-------------------------------|
  sun
e|3---3-- 3---3-- 3------ 3---3--|
B|1---1---1---1---1-------1---1--|
G|2---2---2---2---2-------2---2--|
D|2---2---2---2---2-------2---2--|
A|0---0---0---0---0-------0---0--|
E|-------------------------------|

e|------- ------- ------- -------|
B|-------------------------------|
G|-------------------------------|
D|-------------------------------|
A|----0---2---0------------------|
E|3---------------0-------2------|



  G
e|3---3-- 3------ 3---3-- 3---3--|----3-- ----3-- ----3-- 3---3--|
B|3---3---3-------3---3---3---3--|----3-------3-------3---3---3--|
G|0---0---0-------0---0---0---0--|----0-------0-------0---0---0--|
D|0---0---0-------0---0---0---0--|----0-------0-------0---0---0--|
A|2---2---2-------2---2---2---2--|----2-------2-------2---2---2--|
E|3---3---3-------3---3---3---3--|----3-------3-------3---3---3--|
  You and me      chasing     paper               getting     nowhere
e|3---3-- 3---3-- 3------ 3---3--|3---3-- 3---3-- 3------ 3------|
B|3---3---3---3---3-------3---3--|3---3---3---3---3-------3------|
G|0---0---0---0---0-------0---0--|0---0---0---0---0-------0------|
D|0---0---0---0---0-------0---0--|0---0---0---0---0-------0------|
A|2---2---2---2---2-------2---2--|2---2---2---2---2-------2------|
E|3---3---3---3---3-------3---3--|3---3---3---3---3-------3------|

e|------- ------- ------- -------|------- ------- ------- -------|
B|-------------------------------|-------------------------------|
G|-------------------------------|-------------------------------|
D|--------5-------------------5--|--------5-------------------5--|
A|--------------------5-5/7------|--------------------5-5/7------|
E|3------------------------------|3------------------------------|


  2/4             4/4
                  C               Em
e|----3-- 3---3--|3---3-- 3------ 3---3-- 3------|
B|----3---3---3--|1---1---1-------0---0---0------|
G|----0---0---0--|0---0---0-------0---0---0------|
D|----0---0---0--|2---2---2-------2---2---2------|
A|----2---2---2--|3---3---3-------2---2---2------|
E|----3---3---3--|----------------0---0---0------|
                  on              our
e|3---3-- 3---3--|3---3-- 3---3-- 3------ 3------|
B|3---3---3---3--|1---1---1---1---0-------0------|
G|0---0---0---0--|0---0---0---0---0-------0------|
D|0---0---0---0--|2---2---2---2---2-------2------|
A|2---2---2---2--|3---3---3---3---2-------2------|
E|3---3---3---3--|----------------0-------0------|

e|------- -------|------- ------- ------- -------|
B|---------------|-------------------------------|
G|---------------|-------------------------------|
D|--------5------|-------------------------------|
A|---------------|3-------3-------2---0----------|
E|3--------------|------------------------3-5/7--|

  Am7                         G
e|3------ 3---3-- 3------ 3---3--|
B|1-------1---1---1-------1---3--|
G|2-------2---2---2-------2---0--|
D|2-------2---2---2-------2---0--|
A|0-------0---0---0-------0---2--|
E|----------------------------3--|
  way             back
e|3---3-- 3---3-- 3---3-- 3------|
B|1---1---1---1---1---1---1------|
G|2---2---2---2---2---2---2------|
D|2---2---2---2---2---2---2------|
A|0---0---0---0---0---0---0------|
E|-------------------------------|

e|------- ------- ------- -------|
B|-------------------------------|
G|-------------------------------|
D|-------------------------------|
A|-------------------------------|
E|5---3---5---0---3-------5---5--|


  3/4
                          D               C
e|3---3-- ----3-- ----3--|2---2-- 2------ 3------|
B|3---3-------3-------3--|3---3---3-------1------|
G|0---0-------0-------0--|2---2---2-------0------|
D|0---0-------0-------0--|0---0---0-------2------|
A|2---2-------2-------2--|----------------3------|
E|3---3-------3-------3--|-----------------------|
  home                      We're on our  way
e|3---3-- 3---3-- 3---3--|2---2-- 2------ 3---3--|
B|3---3---3---3---3---3--|3---3---3-------1---1--|
G|0---0---0---0---0---0--|2---2---2-------0---0--|
D|0---0---0---0---0---0--|0---0---0-------2---2--|
A|2---2---2---2---2---2--|----------------3---3--|
E|3---3---3---3---3---3--|-----------------------|

e|------- ------- -------|------- ------- -------|
B|-----------------------|-----------------------|
G|-----------------------|-----------------------|
D|-----------------------|--------------------5--|
A|------------2-------3--|5-------5-----5/7------|
E|3-------3--------------|-----------------------|

  G                       D               C
e|3---3-- ----3-- ----3--|2---2-- 2------ 3------|
B|3---3-------3-------3--|3---3---3-------1------|
G|0---0-------0-------0--|2---2---2-------0------|
D|0---0-------0-------0--|0---0---0-------2------|
A|2---2-------2-------2--|----------------3------|
E|3---3-------3-------3--|-----------------------|
  home                      We're on our  way
e|3---3-- 3---3-- 3---3--|2---2-- 2------ 3------|
B|3---3---3---3---3---3--|3---3---3-------1------|
G|0---0---0---0---0---0--|2---2---2-------0------|
D|0---0---0---0---0---0--|0---0---0-------2------|
A|2---2---2---2---2---2--|----------------3------|
E|3---3---3---3---3---3--|-----------------------|

e|------- ------- -------|------- ------- -------|
B|-----------------------|-----------------------|
G|-----------------------|-----------------------|
D|-----------------------|--------------------5--|
A|------------2-------3--|5-------5-----5/7------|
E|3-------3--------------|-----------------------|


                          2/4
  G                       C
e|3---3-- ----3-- ----3--|3---3-- 3---3--|
B|3---3-------3-------3--|1---1---1---1--|
G|0---0-------0-------0--|0---0---0---0--|
D|0---0-------0-------0--|2---2---2---2--|
A|2---2-------2-------2--|3---3---3---3--|
E|3---3-------3-------3--|---------------|
  home                      We're going
e|3---3-- 3---3-- ----3--|3------ 3------|
B|3---3---3---3-------3--|1-------1------|
G|0---0---0---0-------0--|0-------0------|
D|0---0---0---0-------0--|2-------2------|
A|2---2---2---2-------2--|3-------3------|
E|3---3---3---3-------3--|---------------|

e|------- ------- -------|------- -------|
B|-----------------------|---------------|
G|-----------------------|---------------|
D|-----------------------|---------------|
A|------------0-------2--|3-------3-H-5--|
E|3-------3--------------|---------------|


  4/4
  x   x   x   x   x   x   x   x   x   x   x   x   x   x   x   x
  G
e|3------ ------- ------- -------|------- ------- ------- -------|
B|3------------------------------|-------------------------------|
G|0------------------------------|-------------------------------|
D|0------------------------------|-------------------------------|
A|2------------------------------|-------------------------------|
E|3------------------------------|-------------------------------|
  home
e|3------ ------- ------- -------|------- ------- ------- -------|
B|3------------------------------|-------------------------------|
G|0------------------------------|-------------------------------|
D|0------------------------------|-------------------------------|
A|2------------------------------|-------------------------------|
E|3------------------------------|-------------------------------|

e|------- ------- ------- -------|------- ------- ------- -------|
B|-------------------------------|-------------------------------|
G|-------------------------------|-------------------------------|
D|-------------------------------|-------------------------------|
A|-------------------------------|-------------------------------|
E|3------------------------------|-------------------------------|

  Bb                              Dm
e|1------ ------- ----1-1 1-1-1--|1------ ------- ----1-1 1-1-1--|
B|3-------------------3-3-3-3-3--|3-------------------3-3-3-3-3--|
G|3-------------------3-3-3-3-3--|2-------------------2-2-2-2-2--|
D|3-------------------3-3-3-3-3--|0-------------------0-0-0-0-0--|
A|1-------------------1-1-1-1-1--|-------------------------------|
E|-------------------------------|-------------------------------|
  You and     I           have    memories
e|6------ ------- ------- -------|5------ ------- ------- -------|
B|6------------------------------|6------------------------------|
G|7------------------------------|7------------------------------|
D|8------------------------------|7------------------------------|
A|8------------------------------|5------------------------------|
E|6------------------------------|-------------------------------|

e|------- ------- ------- -------|------- ------- ------- -------|
B|-------------------------------|-------------------------------|
G|-------------------------------|-------------------------------|
D|------------------------0---3--|----------------0---3---5-/-7--|
A|1-----------0---1---3----------|0-----------3------------------|
E|-------------------------------|-------------------------------|


  Gm                              Am
e|3---3-- ----3-- ----3-- ----3--|0---0-- ----0-- ----0-- 0------|
B|3---3-------3-------3-------3--|1---1-------1-------1---1------|
G|3---3-------3-------3-------3--|2---2-------2-------2---2------|
D|5---5-------5-------5-------5--|2---2-------2-------2---2------|
A|5---5-------5-------5-------5--|0---0-------0-------0---0------|
E|3---3-------3-------3-------3--|-------------------------------|
  longer      that        the road        that stretches      out
e|3------ 3------ 3---3-- 3------|5------ 5---5-- 5---5-- 5---5--|
B|3-------3-------3---3---3------|5-------5---5---5---5---5---5--|
G|3-------3-------3---3---3------|5-------5---5---5---5---5---5--|
D|5-------5-------5---5---5------|7-------7---7---7---7---7---7--|
A|5-------5-------5---5---5------|7-------7---7---7---7---7---7--|
E|3-------3-------3---3---3------|5-------5---5---5---5---5---5--|

e|------- ------- ------- -------|------- ------- ------- -------|
B|-------------------------------|-------------------------------|
G|-------------------------------|-------------------------------|
D|--------------------3---5------|-------------------------------|
A|------------3---5--------------|------------5-------3----------|
E|3------------------------------|5-----------------------5------|

                                  D
e|0------ 0------ 0---0-- 0------|2---2-- 2---2-- 2-2---2 2---2--|
B|1-------1-------1---1---1------|3---3---3---3---3-3---3-3---3--|
G|2-------2-------2---2---2------|2---2---2---2---2-2---2-2---2--|
D|2-------2-------2---2---2------|0---0---0---0---0-0---0-0---0--|
A|0-------0-------0---0---0------|-------------------------------|
E|-------------------------------|-------------------------------|
      ahead
e|----5-- 5---5-- ----5-- ----5--|2---2-- 2---2-- 2-2-2-- 2---2--|
B|----5---5---5-------5-------5--|3---3---3---3---3-3-3---3---3--|
G|----5---5---5-------5-------5--|2---2---2---2---2-2-2---2---2--|
D|----7---7---7-------7-------7--|0---0---0---0---0-0-0---0---0--|
A|----7---7---7-------7-------7--|-------------------------------|
E|----5---5---5-------5-------5--|-------------------------------|

e|------- ------- ------- -------|------- ------- ------- -------|
B|-------------------------------|-------------------------------|
G|-------------------------------|-------------------------------|
D|------------------------5-7/9--|7---5-------5------------------|
A|----------------5---7----------|--------7-------7---5----------|
E|------------8------------------|------------------------7---5--|


  G
e|3---3-- 3---3-- 3---3-- 3---3--|3---3-- ----3-- ----3-- 3---3--|
B|3---3---3---3---3---3---3---3--|3---3-------3-------3---3---3--|
G|0---0---0---0---0---0---0---0--|0---0-------0-------0---0---0--|
D|0---0---0---0---0---0---0---0--|0---0-------0-------0---0---0--|
A|2---2---2---2---2---2---2---2--|2---2-------2-------2---2---2--|
E|3---3---3---3---3---3---3---3--|3---3-------3-------3---3---3--|
  Two of  us      wearing      raincoats          Standing    so
e|3---3-- 3------ 3---3-- 3---3--|3---3-- 3------ 3---3-- 3---3--|
B|3---3---3-------3---3---3---3--|3---3---3-------3---3---3---3--|
G|0---0---0-------0---0---0---0--|0---0---0-------0---0---0---0--|
D|0---0---0-------0---0---0---0--|0---0---0-------0---0---0---0--|
A|2---2---2-------2---2---2---2--|2---2---2-------2---2---2---2--|
E|3---3---3-------3---3---3---3--|3---3---3-------3---3---3---3--|

e|------- ------- ------- -------|------- ------- ------- -------|
B|-------------------------------|-------------------------------|
G|-------------------------------|-------------------------------|
D|--------5-----------5----------|--------5-----------5----------|
A|--------------5/7-----------5--|--------------5/7-----------5--|
E|3---------------------5/7------|3---------------------5/7------|

  2/4             4/4
                  C               Em
e|----3-- 3---3--|3---3-- 3------ 3---3-- 3---3--|
B|----3---3---3--|1---1---1-------0---0---0---0--|
G|----0---0---0--|0---0---0-------0---0---0---0--|
D|----0---0---0--|2---2---2-------2---2---2---2--|
A|----2---2---2--|3---3---3-------2---2---2---2--|
E|----3---3---3--|----------------0---0---0---0--|
      low         in              the
e|----3-- 3---3--|3---3-- 3---3-- 3------ 3------|
B|----3---3---3--|1---1---1---1---0-------0------|
G|----0---0---0--|0---0---0---0---0-------0------|
D|----0---0---0--|2---2---2---2---2-------2------|
A|----2---2---2--|3---3---3---3---2-------2------|
E|----3---3---3--|----------------0-------0------|

e|------- -------|------- ------- ------- -------|
B|---------------|-------------------------------|
G|---------------|-------------------------------|
D|--------5------|-------------------------------|
A|---------------|3-------3-------2---0----------|
E|3--------------|------------------------3-5/7--|

  Am7
e|3---3-- ----3-- ----3-- 3---3--|
B|1---1-------1-------1---1---3--|
G|2---2-------2-------2---2---0--|
D|2---2-------2-------2---2---0--|
A|0---0-------0-------0---0---2--|
E|----------------------------3--|
  sun
e|3---3-3 3---3-- 3---3-- 3---3--|
B|1---1-1-1---1---1---1---1---1--|
G|2---2-2-2---2---2---2---2---2--|
D|2---2-2-2---2---2---2---2---2--|
A|0---0-0-0---0---0---0---0---0--|
E|-------------------------------|

e|------- ------- ------- -------|
B|-------------------------------|
G|-------------------------------|
D|-------------------------------|
A|-------------------------------|
E|5---3---5---0---3-------5------|



  G
e|3---3-- ----3-- ----3-- 3---3--|----3-- ----3-- ----3-- ----3--|
B|3---3-------3-------3---3---3--|----3-------3-------3-------3--|
G|0---0-------0-------0---0---0--|----0-------0-------0-------0--|
D|0---0-------0-------0---0---0--|----0-------0-------0-------0--|
A|2---2-------2-------2---2---2--|----2-------2-------2-------2--|
E|3---3-------3-------3---3---3--|----3-------3-------3-------3--|
  You and me      chasing      paper              getting     nowhere
e|----3-- ----3-- ----3-- ----3--|3---3-- 3---3-- ----3-- 3---3--|
B|----3-------3-------3-------3--|3---3---3---3-------3---3---3--|
G|----0-------0-------0-------0--|0---0---0---0-------0---0---0--|
D|----0-------0-------0-------0--|0---0---0---0-------0---0---0--|
A|----2-------2-------2-------2--|2---2---2---2-------2---2---2--|
E|----3-------3-------3-------3--|3---3---3---3-------3---3---3--|

e|------- ------- ------- -------|------- ------- ------- -------|
B|-------------------------------|-------------------------------|
G|-------------------------------|-------------------------------|
D|--------5-----------5----------|--------5-----------5----------|
A|--------------5/7-----------5--|--------------5/7-----------5--|
E|3---------------------5/7------|3---------------------5/7------|


  2/4             4/4
                  C               Em
e|----3-- ----3--|3---3-- 3------ 3---3-- 3---3--|
B|----3-------3--|1---1---1-------0---0---0---0--|
G|----0-------0--|0---0---0-------0---0---0---0--|
D|----0-------0--|2---2---2-------2---2---2---2--|
A|----2-------2--|3---3---3-------2---2---2---2--|
E|----3-------3--|----------------0---0---0---0--|
                  on              our
e|3---3-- 3------|3---3-- 3------ 3---3-- 3---3--|
B|3---3---3------|1---1---1-------0---0---0---0--|
G|0---0---0------|0---0---0-------0---0---0---0--|
D|0---0---0------|2---2---2-------2---2---2---2--|
A|2---2---2------|3---3---3-------2---2---2---2--|
E|3---3---3------|----------------0---0---0---0--|

e|------- -------|------- ------- ------- -------|
B|---------------|-------------------------------|
G|---------------|-------------------------------|
D|--------5------|-------------------------------|
A|---------------|3-------3-------2---3---5---0--|
E|3--------------|-------------------------------|

  Am                          G
e|----3-- 3---3-- ----3-- 3---3--|
B|----1---1---1-------1---1---3--|
G|----2---2---2-------2---2---0--|
D|----2---2---2-------2---2---0--|
A|----0---0---0-------0---0---2--|
E|----------------------------3--|
  way             back
e|3---3-- 3------ 3---3-- 3---3--|
B|1---1---1-------1---1---1---1--|
G|2---2---2-------2---2---2---2--|
D|2---2---2-------2---2---2---2--|
A|0---0---0-------0---0---0---0--|
E|-------------------------------|

e|------- ------- ------- -------|
B|-------------------------------|
G|-------------------------------|
D|-------------------------------|
A|2---3-------0---2---0----------|
E|--------3---------------0---2--|


  3/4
                          D               C
e|3------ ----3-- ----0--|2------ 2------ 3------|
B|3-----------3-------3--|3-------3-------1------|
G|0-----------0-------0--|2-------2-------0------|
D|0-----------0-------0--|0-------0-------2------|
A|2-----------2-------2--|----------------3------|
E|3-----------3-------3--|-----------------------|
  home                      We're on our  way
e|3---3-- 3---3-- 3---0--|2---2-- 2------ 3------|
B|3---3---3---3---3---3--|3---3---3-------1------|
G|0---0---0---0---0---0--|2---2---2-------0------|
D|0---0---0---0---0---0--|0---0---0-------2------|
A|2---2---2---2---2---2--|----------------3------|
E|3---3---3---3---3---3--|-----------------------|

e|------- ------- -------|------- ------- -------|
B|-----------------------|-----------------------|
G|-----------------------|-----------------------|
D|-----------------------|--------------------5--|
A|------------2-------3--|5-------5-----5/7------|
E|3-------3--------------|-----------------------|

  G                       D               C
e|----3-- ----3-- ----3--|2---2-- 2------ 3------|
B|----3-------3-------3--|3---3---3-------1------|
G|----0-------0-------0--|2---2---2-------0------|
D|----0-------0-------0--|0---0---0-------2------|
A|----2-------2-------2--|----------------3------|
E|----3-------3-------3--|-----------------------|
  home                      We're on our  way
e|3---3-- 3---3-- 3---0--|2---2-- 2------ 3------|
B|3---3---3---3---3---3--|3---3---3-------1------|
G|0---0---0---0---0---0--|2---2---2-------0------|
D|0---0---0---0---0---0--|0---0---0-------2------|
A|2---2---2---2---2---2--|----------------3------|
E|3---3---3---3---3---3--|-----------------------|

e|------- ------- -------|------- ------- -------|
B|-----------------------|-----------------------|
G|-----------------------|-----------------------|
D|-----------------------|--------------------5--|
A|------------2-------3--|5-------5-----5/7------|
E|3----------------------|-----------------------|


                          2/4
  G                       C
e|----3-- ----3-- ----3--|3---3-- 3---3--|
B|----3-------3-------3--|1---1---1---1--|
G|----0-------0-------0--|0---0---0---0--|
D|----0-------0-------0--|2---2---2---2--|
A|----2-------2-------2--|3---3---3---3--|
E|----3-------3-------3--|---------------|
  home                      We're going
e|3---3-- 3---3-- 3---3--|3------ 3---3--|
B|3---3---3---3---3---3--|1-------1---1--|
G|0---0---0---0---0---0--|0-------0---0--|
D|0---0---0---0---0---0--|2-------2---2--|
A|2---2---2---2---2---2--|3-------3---3--|
E|3---3---3---3---3---3--|---------------|

e|------- ------- -------|------- -------|
B|-----------------------|---------------|
G|-----------------------|---------------|
D|-----------------------|---------------|
A|------------0-------2--|3-------3-H-5--|
E|3-------3--------------|---------------|


  4/4

  G
e|3------ ------- ------- -------|------- ------- ------- -------|
B|3------------------------------|-------------------------------|
G|0------------------------------|-------------------------------|
D|0------------------------------|-------------------------------|
A|2------------------------------|-------------------------------|
E|3------------------------------|-------------------------------|
  home
e|3------ ------- ------- -------|------- ------- ------- -------|
B|3------------------------------|-------------------------------|
G|0------------------------------|-------------------------------|
D|0------------------------------|-------------------------------|
A|2------------------------------|-------------------------------|
E|3------------------------------|-------------------------------|

e|------- ------- ------- -------|------- ------- ------- -------|
B|-------------------------------|-------------------------------|
G|-------------------------------|-------------------------------|
D|-------------------------------|-------------------------------|
A|-------------------------------|-------------------------------|
E|3------------------------------|-------------------------------|

  G
e|----7-- ----7-- ----7-- ----0--|----7-- ----7-- ----7-- ----0--| (Paul)
B|-------------------------------|-------------------------------|
G|7-------7---------------7------|7-------7---------------7------|
D|-------------------------------|-------------------------------|
A|-------------------------------|-------------------------------|
E|-------------------------------|-------------------------------|
                                    We're going home
e|------- ------- ------- -------|------- ------- ------- -------| (John)
B|-------------------------------|-------------------------------|
G|-------------------------------|-------------------------------|
D|-------------------------------|--------------------0---2---4--|
A|-------------------------------|-------------------------------|
E|-------------------------------|-------------------------------|

                              G6  G                           G6
e|----7-- ----7-- ----7-- ----0--|----7-- ----7-- ----7-- ----0--|
B|-------------------------------|-------------------------------|
G|7-------7---------------7------|7-------7---------------7------|
D|-------------------------------|-------------------------------|
A|-------------------------------|-------------------------------|
E|-------------------------------|-------------------------------|
                                                             Better
e|----3-- ----3-- ----3-- ----0--|----3-- ----3-- ----3-- ----0--|
B|----3-------3-------3-------3--|----3-------3-------3-------3--|
G|----0-------0-------0-------0--|----0-------0-------0-------0--|
D|----0-------0-------0-------0--|----0-------0-------0-------0--|
A|----2-------2-------2-------2--|----2-------2-------2-------2--|
E|----3-------3-------3-------3--|----3-------3-------3-------3--|

e|------- ------- ------- -------|------- ------- ------- -------| (George)
B|-------------------------------|-------------------------------|
G|-------------------------------|-------------------------------|
D|--------5----------------------|--------5-------------------5--|
A|--------------------5-5/7---5--|--------------------5-5/7------|
E|3-------------5/7--------------|3-------------5/7--------------|

  G                           G6  G                           G6
e|----7-- ----7-- ----7-- ----0--|----7-- ----7-- ----7-- ----0--|
B|-------------------------------|-------------------------------|
G|7-------7---------------7------|7-------7---------------7------|
D|-------------------------------|-------------------------------|
A|-------------------------------|-------------------------------|
E|-------------------------------|-------------------------------|
  Believe it                                                Good Bye
e|----3-- ----3-- ----3-- ----0--|----3-- ----3-- ----3-- ----0--|
B|----3-------3-------3-------3--|----3-------3-------3-------3--|
G|----0-------0-------0-------0--|----0-------0-------0-------0--|
D|----0-------0-------0-------0--|----0-------0-------0-------0--|
A|----2-------2-------2-------2--|----2-------2-------2-------2--|
E|----3-------3-------3-------3--|----3-------3-------3-------3--|

e|------- ------- ------- -------|------- ------- ------- -------|
B|-------------------------------|-------------------------------|
G|-------------------------------|-------------------------------|
D|--------5----------------------|--------5----------------------|
A|--------------------5-5/7---5--|--------------------5-5/7------|
E|3-------------5/7--------------|3-------------5/7--------------|

  G                           G6  G                           G6
e|----7-- ----7-- ----7-- ----0--|----7-- ----7-- ----7-- ----0--|
B|-------------------------------|-------------------------------|
G|7-------7---------------7------|7-------7---------------7------|
D|-------------------------------|-------------------------------|
A|-------------------------------|-------------------------------|
E|-------------------------------|-------------------------------|

e|----3-- ----3-- ----3-- ----0--|----3-- ----3-- ----3-- ----0--|
B|----3-------3-------3-------3--|----3-------3-------3-------3--|
G|----0-------0-------0-------0--|----0-------0-------0-------0--|
D|----0-------0-------0-------0--|----0-------0-------0-------0--|
A|----2-------2-------2-------2--|----2-------2-------2-------2--|
E|----3-------3-------3-------3--|----3-------3-------3-------3--|

e|------- ------- ------- -------|------- ------- ------- -------|
B|-------------------------------|-------------------------------|
G|-------------------------------|-------------------------------|
D|--------5----------------------|-------------------------------|
A|----------------7-\-5----------|----------------7-\-5----------|
E|3-----------------------7-\-5--|3-------3---------------7-\-5--|

  ...........................Fade away...........................

  G                           G6  G                           G6
e|----7-- ----7-- ----7-- ----0--|----7-- ----7-- ----7-- ----0--|
B|-------------------------------|-------------------------------|
G|7-------7---------------7------|7-------7---------------7------|
D|-------------------------------|-------------------------------|
A|-------------------------------|-------------------------------|
E|-------------------------------|-------------------------------|

e|----3-- ----3-- ----3-- ----0--|----3-- ----3-- ----3-- ----0--|
B|----3-------3-------3-------3--|----3-------3-------3-------3--|
G|----0-------0-------0-------0--|----0-------0-------0-------0--|
D|----0-------0-------0-------0--|----0-------0-------0-------0--|
A|----2-------2-------2-------2--|----2-------2-------2-------2--|
E|----3-------3-------3-------3--|----3-------3-------3-------3--|

e|------- ------- ------- -------|------- ------- ------- -------|
B|-------------------------------|-------------------------------|
G|-------------------------------|-------------------------------|
D|-------------------------------|-------------------------------|
A|----------------7-\-5----------|----------------7-\-5----------|
E|3-----------------------7-\-5--|3-----------------------7-\-5--|

  ...............................................................


  G                           G6
e|----7-- ----7-- ----7-- ----0--|
B|-------------------------------|
G|7-------7---------------7------|
D|-------------------------------|
A|-------------------------------|
E|-------------------------------|

e|----3-- ----3-- ----3-- ----0--|
B|----3-------3-------3-------3--|
G|----0-------0-------0-------0--|
D|----0-------0-------0-------0--|
A|----2-------2-------2-------2--|
E|----3-------3-------3-------3--|

e|------- ------- ------- -------|
B|-------------------------------|
G|-------------------------------|
D|-------------------------------|
A|----------------7-\-5----------|
E|3-----------------------7-\-5--|

  ..............................



        B  Bend
        R  Release
        /  slide up
        \  slide down
        H  hammer-on
        P  pull-off
        ~  vibrato
        +  harmonic
        x  Mute note
        . - play note like a dot in standard notation
        ^ - ties two notes together
        (. Pause

    --------------------------------------------------------------

    THE BEATLES - I'VE GOT A FEELING (Lennon & McCartney) From LET
                  IT BE NAKED album. Released 18th November 2003.

    --------------------------------------------------------------

    Tabbed by:PJVillanueva

    I've got a feeling, a feeling deep inside
    Oh yeah, Oh yeah
    I've got a feeling, a feeling I can't hide
    No no. (No) Oh no, No no
    Yeah Yeah I've got a feeling

    Oh please believe me, I'd hate to miss the train
    Oh yeah, Oh yeah
    And if you leave me I won't be late again
    Oh no, Oh no, Oh no
    Yeah Yeah I've got a feeling yeah
    I got a feeling

    All these years I've been wandering around
    Wondering how come nobody told me
    All that I was looking for was somebody
    Who looked like you

    I've got a feeling that keeps me on my toes
    Oh yeah, Oh yeah
    I've got a feeling, i think that everybody knows
    Oh yeah, Oh yeah, Oh Yeah
    Yeah Yeah I've got a feeling

    Ev'rybody had a hard year
    Ev'rybody had a good time
    Ev'rybody had a wet dream
    Ev'rybody saw the sunshine
    Oh yeah, Oh yeah. Oh Yeah

    Ev'rybody had a good year
    Ev'rybody let their hair down
    Ev'rybody pulled their socks up
    Ev'rybody put their foot down
    Oh yeah, Oh yeah

  e|------- 5------ ------- 5------|------- 5------ ------- 5------|
  B|--------2---------3------------|--------2---------3---------3--|
  G|----2-------------2---------2--|----2-------------2---------2--|
  D|--------------2H4---2----------|--------------2H4---2-------2--|
  A|0-------0---0------------------|0-------0---0---------------0--|
  E|-------------------------------|-------------------------------|


    00:05

  e|------- 5------ ------- 5------|------- 5------ ------- 5------|
  B|--------2---------3------------|--------2---------3---------3--|
  G|----2-------------2---------2--|----2-------------2---------2--|
  D|--------------2H4---2----------|--------------2H4---2-------2--|
  A|0-----------0------------------|0-----------0---------------0--|
  E|-------------------------------|-------------------------------|
        I've  a feeling         a   feeling deep            Oh  yeah
            got                                 inside

  e|------- 5------ ------- 5------|------- 5------ ------- 5------|
  B|--------2---------3---------3--|--------2---------3------------|
  G|----2-------------2---------2--|----2-------------2---------2--|
  D|--------------2H4---2-------2--|--------------2H4---2-------2--|
  A|0-----------0-------0-------0--|0-----------0---------------0--|
  E|-------------------------------|-------------------------------|
                            Oh  yeah


    00:17

  e|------- 5------ ------- 5------|------- 5------ ------- 5------|
  B|--------2---------3------------|--------2---------3------------|
  G|----2-------------2---------2--|----2-------------2---------2--|
  D|--------------2H4---2----------|--------------2H4---2----------|
  A|0-----------0------------------|0-----------0---------------0--|
  E|-------------------------------|-------------------------------|
        I've  a feeling,        a   feeling I can't hide    No  no
            got

  e|------- 5------ ------- 5------|------- 5------ ------- 5------|
  B|--------2---------3------------|--------2---------3---------3--|
  G|----2-------------2---------2--|----2-------------2---------2--|
  D|--------------2H4---2-------2--|--------------2H4---2-------2--|
  A|0-----------0-------0-------0--|0-----------0-------0-------0--|
  E|-------------------------------|-------------------------------|
       (No)                 Oh  no                          No  no


    00:28

  e|0-0-0-- 0-0-0-- 0-0-0-- 0-0-0--|0------ 3------ 2------ -------|
  B/8-8-8--/8-8-8--/8-8-8--/8-8-8--|0-------3-------3--------------|
  G/9-9-9--/9-9-9--/9-9-9--/9-9-9--|1-------0-------2--------------|
  D|-------------------------------|2-------0-------0--------------|
  A|-------------------------------|2-------2----------------------|
  E|-------------------------------|0-------3----------------------|

  e/3-3-3--/3-3-3--/3-3-3--/3-3-3--|------- ------- ------- -------|
  B/5-5-5--/5-5-5--/5-5-5--/5-5-5--|-------------------------------|
  G|0-0-0---0-0-0---0-0-0---0-0-0--|-------------------------------|
  D|-------------------------------|----------------0--------------|
  A|-------------------------------|------0-1-2-3-4----------------|
  E|-------------------------------|0-2-3--------------------------|
                                                        I've  a feeling
                                                            got


  e|------- 5------ ------- 5------|------- 5------ ------- 5------|
  B|--------2---------3-----3------|--------2---------3-----3------|
  G|----2-------------2---------2--|----2-------------2---------2--|
  D|--------------2H4---2----------|--------------2H4---2----------|
  A|0-----------0------------------|0-----------0------------------|
  E|-------------------------------|-------------------------------|

  e|----9\- --5---- 5-----5 -------|----9\- --5---- 5-----5 -------|
  B|---10\----5-----7H8---7--------|---10\----5-----7H8---7--------|
  G|----9\----6-----7-----7--------|----9\----6-----7-----7--------|
  D|-------------------------------|-------------------------------|
  A|-------------------------------|-------------------------------|
  E|-------------------------------|-------------------------------|

    00:40

  e|----5-- ------- ------- 5------|------- ------- ------- 5------|
  B|----2---2---2-2H3-3-----3---3--|2-----2---2---2H3---3---3---3--|
  G|----2---2---2-2---2-----2---2--|2-----2---2---2-----2---2---2--|
  D|--------2---2-2H4-4---------4--|2-----2---2---2H4---4---4---4--|
  A|0-------0---0---------------0--|0---------------0---0---0---0--|
  E|-------------------------------|-------------------------------|

  e|----9\- --5---- 5-----5 -------|------- ------- ------- 5------|
  B|---10\----5-----7H8---7-----x--|----x-------------------7------|
  G|----9\----6-----7-----7-----x--|----x-----------7---7---7------|
  D|----------------------------x--|----x-------------------7------|
  A|-------------------------------|------------------------5------|
  E|-------------------------------|-------------------------------|
        Oh  please      me,       I'd   to      the         Oh  yeah
                believe             hate  miss    train

  e|------- 5------ ------- 5------|----5-- ------- ------- 5------|
  B|2-------2---2-2H3-3-----3---3--|2---2---2---2-2H3-3-----3---3--|
  G|2---2---2---2-2---2-----2---2--|2---2---2---2-2---2-----2---2--|
  D|2-------2---2-2H4-4-----4---4--|2-------2---2-2H4-4-----4---4--|
  A|0-------0-----0---------0---0--|0-------0---0---0-0---------0--|
  E|-------------------------------|-------------------------------|

  e|------- 5------ ------- 5------|------- 5-----5 --5---- 5--------|
  B|--------5---------------7------|--------5-----7---7-----7--------|
  G|--------6---------------7------|--------6-----7---7-----7-----5--|
  D|7---7---7---------------7------|--------7-----7---7-----7--------|
  A|--------7---------------5------|--------7-----5---5-----5--------|
  E|--------5----------------------|--------5------------------------|
                            Oh  yeah


    00:52

  e|----5-- ------- --5---- -------|------- --5---- ------- -------|
  B|2---2---2---2-2H3-3-----3------|2---2-2-2-----2-3---3---3---3--|
  G|2---2---2---2-2---2-----2---2--|2---2-2-2-----2-2---2---2---2--|
  D|2---2---2---2-2H4-4-----4---4--|2---2-2-2-----2-4-------4------|
  A|0---0---0-------------------0--|0---0---0-------0-------0------|
  E|-------------------------------|-------------------------------|

  e|------- 5-----5 --5---- 5------|------- 5-----5 --5---- 5------|
  B|--------5-----7---7-----7------|--------5-----7---7-----7------|
  G|6-------6-----7---7-----7-----5/6-------6-----7---7-----7------|
  D|--------7-----7---7-----7------|--------7-----7---7-----7------|
  A|--------7-----5---5-----5------|--------7-----5---5-----5------|
  E|--------5----------------------|--------5----------------------|
        And if  you     me        I won't late  again       Oh  no
                  leave                 be

  e|----5-- ------- --5---- -------|----5-- 5------ ------- -------|
  B|2---2---2---2-2H3-3-3---3---3--|2---2---2---2-2H3-3-----3---3--|
  G|2---2---2---2-2---2-2---2---2--|2---2---2---2-2---2-----2---2--|
  D|2---2---2---2-2H4-4-4---4---4--|2---2---2---2-2H4-4-----4---4--|
  A|0---0-------0---0-0-0---0------|0---0---0---0-0---0---------0--|
  E|-------------------------------|-------------------------------|

  e|------- 5-----5 ------- 5------|5------ 5-----5 --5---- 5------|
  B|--------5-----5H7---x---7------|5-------5-----5---8-----7------|
  G|6-------6-----6H7---x---7------|6-------6-----6---7-----7------|
  D|--------7-----7-----x---7------|7-------7-----7---7-----7------|
  A|--------7-----5---------5------|7-------7-----7---5-----5------|
  E|--------5----------------------|5-------5-----5----------------|
                            Oh  no                            Oh  no

  e|0-0-0-- 0-0-0-- 0-0-0-- 0-0-0--|0------ 3------ 2------ -------|
  B/8-8-8--/8-8-8--/8-8-8--/8-8-8--|0-------3-------3--------------|
  G/9-9-9--/9-9-9--/9-9-9--/9-9-9--|1-------0-------2--------------|
  D|-------------------------------|2-------0-------0--------------|
  A|-------------------------------|2-------2----------------------|
  E|-------------------------------|0-------3----------------------|

  e/3-3-3--/3-3-3--/3-3-3--/3-3-3--|------- ------- ------- -------|
  B/5-5-5--/5-5-5--/5-5-5--/5-5-5--|-------------------------------|
  G|0-0-0---0-0-0---0-0-0---0-0-0--|-------------------------------|
  D|-------------------------------|----------------0--------------|
  A|-------------------------------|------0-1-2-3-4----------------|
  E|-------------------------------|0-2-3--------------------------|
                yeah              yeah                  I've  a feeling
                                                            got


  e|------- ------- ------- -------|------- ------- ------- -------|
  B|----------------2H3---3-----2--|--------2-----2H3-3-----3------|
  G|----2-----------2-----2-----2--|--------------2---2-----2------|
  D|----------------2H4---4-----2--|----2---------2H4-4-----4------|
  A|0------------------------------|0------------------------------|
  E|-------------------------------|-------------------------------|

  e|---12\- -------10------ --10---|------- --9----10----10 -------|
  B|---14\---10-----7H8---7--------|---14\---10-----7H8---7--------|
  G|---14\----9-----7-----7--------|---14\----9-----7-----7--------|
  D|----------------7H9---7--------|----------------7H9---7--------|
  A|-------------------------------|-------------------------------|
  E|-------------------------------|-------------------------------|
          yeah                        I got   feeling
                                          a


    01:15

  e|0---0-0 0---0-0 0-0-0-0 0-0-0-3|----3-3 3---3-3 3-3-3-3 3-3-3-5|
  B|3---3-3-3---3-3-3-3-3-3-3-3-3-6|----6-6-6---6-6-6-6-6-6-6-6-6-7|
  G|1---1-1-1---1-1-1-1-1-1-1-1-1-4|----4-4-4---4-4-4-4-4-4-4-4-4-5|
  D|2---2-2-2---2-2-2-2-2-2-2-2-2-x|----x-x-x---x-x-x-x-x-x-x-x-x-7|
  A|2---2-2-2---2-2-2-2-2-2-2-2-2-5|----5-5-5---5-5-5-5-5-5-5-5-5-5|
  E|0---0-0-0---0-0-0-0-0-0-0-0-0-3|----3-3-3---3-3-3-3-3-3-3-3-3--|

  e|------- ------- ------- --R----|------- ------- ------- -------|
  B|--------1517----17171717171512-|---12----------------12-----12-|
  G|----------B----B---------------|---1214-R-1214--1214-1214---12-|
  D|-------------------------------|-----B------B-----B----B-------|
  A|-------------------------------|-------------------------------|
  E|-------------------------------|-------------------------------|

  e|--5-5-5 5-5-5-5 5-5-5-5 5-5----|5------ ------- ------- -------|
  B|--7-7-7-7-7-7-7-7-7-7-7-7-7----|5------------------------------|
  G|--5-5-5 5-5-5-5-5-5-5-5 5-5----|6------------------------------|
  D|--7-7-7-7-7-7-7-7-7-7-7-7-7----|7------------------------------|
  A|--5-5-5 5-5-5-5-5-5-5-5 5-5----|7------------------------------|
  E|-------------------------------|5------------------------------|

  e|------- ------- ------- --R----|------- ------- ------- -------|
  B|---1315-----------151515151310-|-------------------------------|
  G|-----B-------------------------|--------7B9~9-~-9-~-9-~-9-~-9-~|
  D|-------------------------------|-------------------------------|
  A|-------------------------------|-------------------------------|
  E|-------------------------------|-------------------------------|

  e|------- ------- ------- -------|
  B|-------------------------------|
  G|8-~-8-~-8-~-8-~-7-~-7-~-5B6----|
  D|----------------------------7--|
  A|-------------------------------|
  E|-------------------------------|

    01:30
    I've got a feeling that keeps me on my toes
    Oh yeah, Oh yeah
    I've got a feeling, I think that everybody knows
    Oh yeah, Oh yeah, Oh Yeah
    Yeah yeah I've got a feeling

    02:04
    Ev'rybody had a hard year
    Ev'rybody had a good time
    Ev'rybody had a wet dream
    Ev'rybody saw the sunshine
    Oh yeah, Oh yeah. Oh Yeah

    02:22
    Ev'rybody had a good year
    Ev'rybody let their hair down
    Ev'rybody pulled their socks up
    Ev'rybody put their foot down
    Oh yeah


    02:33

  e|0-0-0-- 0-0-0-- 1-1-1-- 2-2-2--|3-3-3-- 3-3-3-- 2-2-2-- 1-1----|
  B/2-2-2--/2-2-2---3-3-3---4-4-4--|5-5-5---5-5-5---4-4-4---3-3----|
  G|0-0-0---0-0-0---0-0-0---0-0-0--|0-0-0---0-0-0---0-0-0---0-0----|
  D|-------------------------------|----------------------------0--|
  A|-------------------------------|-------------------------------|
  E|-------------------------------|-------------------------------|

  e|0-0-0-- 0-0-0-- 0-0-0-- 0-0-0--|0-0-0-- 0-0-0-- 0-0-0-- 0-0-0--|
  B/8-8-8--/8-8-8---7-7-7---6-6-6--|5-5-5---5-5-5---6-6-6---7-7-7--|
  G/9-9-9--/9-9-9---8-8-8---7-7-7--|6-6-6---6-6-6---7-7-7---8-8-8--|
  D|-------------------------------|-------------------------------|
  A|-------------------------------|-------------------------------|
  E|-------------------------------|-------------------------------|

  e|------- 5------ ------- 5------|------- 5------ ------- 5------|
  B|--------2---------3-----3---3--|--------2---------3-----3---3--|
  G|----2-------------2-----2---2--|----2-------------2---------2--|
  D|--------------2H4---2----------|--------------2H4---2-------2--|
  A|0-----------0-------0----------|0-----------0-------0----------|
  E|-------------------------------|-------------------------------|

  e|------- ------- ------- -------|------- ------- ------- -------|
  B|8------------------------------|-------------------------------|
  G10------------------------------|-------------------------------|
  D|-------------------------------|-------------------------------|
  A|-------------------------------|-------------------------------|
  E|-------------------------------|-------------------------------|


    02:45 ....

  e|------- 12---12 ------- ---1412|---1214 ------- ------- ----12-|
  B|-101214--------------------B-R-|-----/--10---10------10-1214---|
  G|-----B-------------------------|----------11-------11-----B----|
  D|-------------------------------|-------------------------------|
  A|-------------------------------|-------------------------------|
  E|-------------------------------|-------------------------------|
        I've  a feeling         a   feeling deep            Oh  yeah
            got                                 inside
        Everybody a hard                Everybody a good
                had     year                    had     time


  e|------- ------- ------- -------|------- 12----- ------- -------|
  B|----10----10----------------10-|1214------------141210--10-----|
  G|--------11----------11---------|--B---------------R---------11-|
  D|-------------------------------|-------------------------------|
  A|-------------------------------|-------------------------------|
  E|-------------------------------|-------------------------------|
                            Oh  yeah
        Everybody a wet                 Everybody the
                had     dream                   saw sunshine

  e|------- 12---12 ---1214 ---1412|------- ------- ------B R------|
  B|---1214--------------B-------R-|----12--10---10---10101210-----|
  G|-----B-------------------------|----------11-----11------------|
  D|-------------------------------|-------------------------------|
  A|-------------------------------|-------------------------------|
  E|-------------------------------|-------------------------------|
        I've  a feeling,        a   feeling I can't hide    Oh  no
            got
        Everybody a good                Everybody their down
                had     year                    let hair


  e|------- ----12- ------- -------|------- ------- ------- -------|
  B|---1214---------1412------10---|10--12\---10----------------10-|
  G|-----B------------B----------11|--------11---11---9---9/11-----|
  D|-------------------------------|-------------------------------|
  A|-------------------------------|-------------------------------|
  E|-------------------------------|-------------------------------|
                                Oh                            yeah
                                  no
        Everybody their                Everybody their down   Oh  yeah
                pull    up                       put foot
                    socks

    03:09

  e|0-0-0-- 0-0-0-- 1-1-1-- 2-2-2--|3-3-3-- 3-3-3-- 2-2-2-- 1-1-1--|
  B|2-2-2---2-2-2---3-3-3---4-4-4--|5-5-5---5-5-5---4-4-4---3-3-3--|
  G|0-0-0---0-0-0---0-0-0---0-0-0--|0-0-0---0-0-0---0-0-0---0-0-0--|
  D|-------------------------------|-------------------------------|
  A|-------------------------------|-------------------------------|
  E|-------------------------------|-------------------------------|

  e|----0-- 0-0-0-- 0------ -0-----|0------ 0------ 0------ 0------|
  B|----8-/-8-8-8--/7-------/6-----/5-------8-------7-------6------|
  G|----9-/-9-9-9--/8-------/7-----/6-------9-------8-------7------|
  D|-------------------------------|-------------------------------|
  A|-------------------------------|-------------------------------|
  E|-------------------------------|-------------------------------|
          yeah                          I've    feeling
                                            got
                                              a


  e|0-0-0-- 0-0-0-- 1-1-1-- 2-2-2--|3-3-3-- 3-3-3-- 2-2-2-- 1-1-1--|
  B|2-2-2---2-2-2---3-3-3---4-4-4--|5-5-5---5-5-5---4-4-4---3-3-3--|
  G|0-0-0---0-0-0---0-0-0---0-0-0--|0-0-0---0-0-0---0-0-0---0-0-0--|
  D|-------------------------------|-------------------------------|
  A|-------------------------------|-------------------------------|
  E|-------------------------------|-------------------------------|

  e|0------ --0-0-- 0-0-0-- 0-0-0--|0-0-0-- 0-0-0-- 0-0-0-- 0-0-0--|
  B|5---------5-5---6-6-6---7-7-7--|8-8-8---8-8-8---7-7-7---6-6-6--|
  G|6---------6-6---7-7-7---8-8-8--|9-9-9---9-9-9---8-8-8---7-7-7--|
  D|-------------------------------|-------------------------------|
  A|-------------------------------|-------------------------------|
  E|-------------------------------|-------------------------------|
                          I've a feeling        oh yeah
                            got

  e|0-0-0-- 0-0-0-- 1-1-1-- 2-2-2--|3-3-3-- 3-3-3-- 2-2-2-- 1-1-1--|
  B|2-2-2---2-2-2---3-3-3---4-4-4--|5-5-5---5-5-5---4-4-4---3-3-3--|
  G|0-0-0---0-0-0---0-0-0---0-0-0--|0-0-0---0-0-0---0-0-0---0-0-0--|
  D|-------------------------------|-------------------------------|
  A|-------------------------------|-------------------------------|
  E|-------------------------------|-------------------------------|

  e|0------ 5-5-5-- 7-7-7-- 8-8-8--|9------ 9-9-9-- 8-8-8-- 7-7-7--|
  B|5-------5-5-5---6-6-6---7-7-7--|8-------8-8-8---7-7-7---6-6-6--|
  G|6-------6-6-6---7-7-7---8-8-8--|9-------9-9-9---8-8-8---7-7-7--|
  D|-------------------------------|-------------------------------|
  A|-------------------------------|-------------------------------|
  E|-------------------------------|-------------------------------|
                          I've a feeling      yeah  yeah    yeah
                            got                                 yeah

  e|0------ ------- ------- -------|------- ------- ------- -------|
  B|2------------------------------|-------------------------------|
  G|0------------------------------|-------------------------------|
  D|-------------------------------|-------------------------------|
  A|-------------------------------|-------------------------------|
  E|-------------------------------|-------------------------------|

  e/5------ ------- ------- -------|------- ------- ------- -------|
  B/5------------------------------|-------------------------------|
  G/6------------------------------|-------------------------------|
  D|-------------------------------|-------------------------------|
  A|-------------------------------|-------------------------------|
  E|-------------------------------|-------------------------------|


        B  Bend
        R  Release
        /  slide up
        \  slide down
        H  hammer-on
        P  pull-off
        ~  vibrato
        +  harmonic
        x  Mute note
        . - play note like a dot in standard notation
        ^ - ties two notes together
        (.  Pause

  ---------------------------------------------------------------

  THE BEATLES - ONE AFTER 909 (Lennon & McCartney) From LET IT BE
                NAKED Album. Released on18th November 2003.

  ---------------------------------------------------------------

  Tabbed by:PJVillanueva


  My baby says she's trav'ling on the one after 909
  I said move over honey I'm travelling on that line
  I said move over once, move over twice
  Come on baby don't be cold as ice.
  I said I'm trav'ling on the one after 909

  I begged her not to go and I begged her on my bended knee,
  You're only fooling around, you're fooling around with me.
  I said move over once, move over twice
  Come on baby don't be cold as ice.
  I said I'm trav'ling on the one after 909

  I got my bag, run to the station
  Railman says you've got the the wrong location
  I got my bag, run right home
  Then I find I've got the number wrong

  Well I said she's trav'ling on the one after 909
  I said move over honey I'm travelling on that line
  I said move over once, move over twice
  Come on baby don't be cold as ice.
  I said she's trav'ling on the one after 909

  Solo

  Pick up my bag, run to the station
  Railman says you've got the the wrong location
  Pick up my bag, run right home
  Then I find I've got the number wrong

  Well Said she's trav'ling on the one after 909
  I said move over honey I'm travelling on that line
  I said move over once, move over twice
  Come on baby don't be cold as ice.

  I said she's trav'ling on the one after 9 0,
  I said she's trav'ling on the one after 9 0,
  I said she's trav'ling on the one after 909.

  ["Danny Boy..."]


( 1      2      3      4 )

e|------ ------ ------ ------|------ ------ ------ ------|  (John)
B|---------------------------|-------7--7------7---7--0--|
G|---------------------------|-------7--7-B-8--8---8-----|
D|---------------------------|---------------------------|
A|---------------------------|---------------------------|
E|---------------------------|---------------------------|

e|------ ------ ------ ------|------ ------ ------ ------|  (George)
B|---------------------------|-------7--7---7--7---------|
G|---------------------------|-------7--7-B-8--8---------|
D|---------------------------|---------------------------|
A|---------------------------|---------------------------|
E|---------------------------|---------------------------|

  B7
e|------ ------ ------ ------|------ ------ ------ ------|
B|-------0-------------0-----|0------7--7------7---7-----|
G|-------2-------------2-----|2------7--7-B-8--8---8-----|
D|-------1-------------1-----|1--------------------------|
A|2------2-------------2-----|2--------------------------|
E|---------------------------|---------------------------|

e|------ ------ ------ ------|------ ------ ------ ------|
B|-------0-------------------|0--------------------------|
G|-----------------2---------|---------------------------|
D|---------------------------|---------------------------|
A|---------------------------|---------------------------|
E|---------------------------|---------------------------|


e|------ ------ ------ ------|------ ------ ------ ------|
B|-------0-------------0-----|0------7--7------7---7-----|
G|-------2-------------2-----|2------7--7-B-8--8---8-----|
D|-------1-------------1-----|1--------------------------|
A|2------2-------------2-----|2--------------------------|
E|---------------------------|---------------------------|

e|------ ------ ------ ------|------ ------ ------ ------|
B|-----------------0---------|---------------------------|
G|-------2-------------------|2--------------------------|
D|---------------------------|---------------------------|
A|---------------------------|---------------------------|
E|---------------------------|---------------------------|


e|------ ------ ------ ------|------ ------ ------ ------|
B|-------0------x------0-----|0---------0------0---------|
G|-------2------x------2-----|2---------2------2---------|
D|-------1------x------1-----|1---------1------1---------|
A|2------2------x------2-----|2---------2------2---------|
E|---------------------------|---------------------------|
                                                      My
e|------ 2----- ------ ------|------ ------ ------ ------|
B|-------0---------0---------|----------7------7--\------|
G|-----------------2---------|----------7--B---8--\------|
D|---------------------------|---------------------------|
A|---------------------------|---------------------------|
E|---------------------------|---------------------------|


e|------ ------ ------ ------|------ ------ ------ ------|
B|-------0--0------0---------|-------0---------0------0--|
G|-------2--2------2---------|-------2---------2------2--|
D|-------1--1------1---------|-------1---------1------1--|
A|-------2--2------2---------|-------2---------2------2--|
E|---------------------------|---------------------------|
  baby says she's trav'ling on the one after 9     0  9
e|------ 2----- ------ ------|------ ------ ------ ------|
B|-------0---------0---------|-------0---------0---------|
G|-----------------2---------|-------2---------2---------|
D|---------------------------|-------1---------1---------|
A|---------------------------|---------------------------|
E|---------------------------|---------------------------|

e|------ ------ ------ ------|------ ------ ------ ------|
B|--------------0------------|---------------------------|
G|2-------------2------------|----------2------2---------|
D|1-------------1------------|----------1------1---------|
A|2-------------2------------|----------2------2---------|
E|---------------------------|---------------------------|
                                               I   said
e|------ ------ ------ ------|------ ------ ------ ------|
B|-------7---------7---------|----------0----------------|
G|-------7-B-8-----8---------|----------2----------------|
D|---------------------------|----------1----------------|
A|---------------------------|2--------------------------|
E|---------------------------|---------------------------|

e|------ ------ ------ ------|------ ------ ------ ------|
B|---------------------------|---------------------------|
G|-------x--2------2------2--|-------2---------2------2--|
D|-------x--1------1------1--|-------1---------1------1--|
A|-------x--2------2------2--|-------2---------2------2--|
E|---------------------------|---------------------------|
  move over     honey     I'm travelling on    that   line
e|------ ------ ------ ------|------ ------ ------ ------|
B|----------0------0---------|0---------0------0---------|
G|----------2------2---------|2---------2------2---------|
D|----------1------1---------|1---------1------1---------|
A|----------2------2---------|2---------2------2---------|
E|---------------------------|---------------------------|

e|------ ------ ------ ------|------ ------ ------ ------|
B|---------------------------|0--0-------------0---------|
G|-------2-------------2-----|2--2------2------2---------|
D|-------1-------------1-----|1--1------1------1---------|
A|-------2-------------2-----|2--2------2------2---------|
E|---------------------------|---------------------------|
                                               I   said
e|------ ------ ------ ------|------ ------ ------ ------|
B|-------0---------0---------|0--0------0------0---------|
G|-------2---------2---------|2--2------2------2---------|
D|-------1---------1---------|1--1------1------1---------|
A|---------------------------|---------------------------|
E|---------------------------|---------------------------|

e|------ ------ ------ ------|------ ------ ------ ------|
B|0----------------0---------|0--------------------------|
G|2----------------2---------|2--------------------------|
D|1----------------1---------|1--------------------------|
A|2----------------2---------|2--------------------------|
E|---------------------------|---------------------------|
  move over once,             move over twice
e|------ ------ ---2-- ------|2----- ------ ---0-- ------|
B|0----------------0---------|0----------------0---------|
G|2----------------2---------|1----------------1---------|
D|1----------------1---------|1----------------2---0--2--|
A|2--------------------------|---------------------------|
E|---------------------------|---------------------------|


  E
e|------ ------ ------ ------|------ ------ ------ ------|
B|---------------------------|------------------------0--|
G|-------1---------1------1--|----------1------1------2--|
D|-------2---------2------2--|----------2------2------1--|
A|-------2---------2------2--|----------2------2------2--|
E|---------------------------|---------------------------|
     Come on    baby   don't be cold as ice.
e|------ ------ ------ ------|------ ------ ------ ------|
B|---------------------------|---------------------------|
G|-------1--1------1------1--|2-------------2------2-----|
D|-------2--2------2------2--|2-------------2------2-----|
A|-------2--2------2------2--|2-------------2------2-----|
E|0--------------------------|---------------------------|


  B7                          F#7
e|------ ------ ------ ------|------ ------ ------ ------|
B|-------0---------0------0--|-------5---------5---------|
G|-------2---------2------2--|-------3---------3---------|
D|-------1---------1------1--|-------2---------2---------|
A|-------2---------2------2--|-------4---------4---------|
E|---------------------------|-------2---------2---------|
     I said I'm trav'ling on the one after  9      0  9
e|------ 2----- ------ ------|------ ------ ------ ------|
B|-------0---------0---------|5--------------------------|
G|-------2---------2---------|3--------------------------|
D|-----------------1---------|4--------------------------|
A|---------------------------|4--------------------------|
E|---------------------------|---------------------------|


  B7
e|------ ------ ------ ------|------ ------ ------ ------|
B|-------0---------0---0-----|-------0--0------0---------|
G|-------2---------2---2-----|-------2--2------2---------|
D|-------1---------1---1-----|-------1--1------1---------|
A|-------2---------2---2-----|-------2--2------2---------|
E|---------------------------|---------------------------|
                                                      I
e|------ 10-B-12--12-R-10----|7----- ---7-- ------ ------|
B|---------------------------|--10-B-11--------10B12-R-10|
G|---------------------------|---------------------------|
D|---------------------------|---------------------------|
A|---------------------------|---------------------------|
E|---------------------------|---------------------------|

e|------ ------ ------ ------|------ ------ ------ ------|
B|---------------------------|---------------------------|
G|-------2---------2------2--|-------2---------2---------|
D|-------1---------1------1--|-------1---------1---------|
A|-------2---------2------2--|-------2---------2---------|
E|---------------------------|---------------------------|
  begged her not to go and I begged her on my bended knee,
e|------ ------ ------ ------|------ ------ ------ ------|
B|--------------7------------|-------7---------7---------|
G|--------------8------------|-------8---------8---------|
D|--------------7------------|-------7---------7---------|
A|--------------9------------|-------9---------9---------|
E|--------------7------------|-------7---------7---------|

e|------ ------ ------ ------|------ ------ ------ ------|
B|-------0----------------0--|---------------------------|
G|-------2---------2------2--|-------2---------2------2--|
D|-------1---------1------1--|-------1---------1------1--|
A|-------2---------2------2--|-------2---------2------2--|
E|---------------------------|---------------------------|
                Yes I did                             You're
e|------ ------ ------ 7-----|------ ------ ------ 7-----|
B|---------10--B--11---------|---------10--B--11---------|
G|---------------------------|---------------------------|
D|---------------------------|---------------------------|
A|---------------------------|---------------------------|
E|---------------------------|---------------------------|

e|------ ------ ------ ------|------ ------ ------ ------|
B|------------------------0--|---------------------------|
G|-------2---------2------2--|-------2---------2------2--|
D|-------1---------1------1--|-------1---------1------1--|
A|-------2---------2------2--|-------2---------2------2--|
E|---------------------------|---------------------------|
  only fooling 'round,    only      fooling 'round with me.
e|------ ------ ------ ------|------ ------ ---7-- ------|
B|---------------------------|-------10--B--11-----------|
G|-------8----------------8--|---------------------------|
D|-------7----------------7--|---------------------------|
A|-------9----------------9--|---------------------------|
E|-------7----------------7--|---------------------------|

e|------ ------ ------ ------|------ ------ ------ ------|
B|---------------------------|-------0-------------------|
G|-------2-------------2-----|-------2--2------2---------|
D|-------1-------------1-----|-------1--1------1---------|
A|-------2-------------2-----|-------2--2------2---------|
E|---------------------------|---------------------------|
                                               I   said
e|------ ------ ------ ------|7----- ------ ------ ------|
B|-----------------10--B--11-|----------10---------7-----|
G|-------8-------------------|---------------------------|
D|-------7-------------------|---------------------------|
A|-------9-------------------|---------------------------|
E|-------7-------------------|---------------------------|

e|------ ------ ------ ------|------ ------ ------ ------|
B|0--------------------------|0--------------------------|
G|2--------------------------|2--------------------------|
D|1--------------------------|1--------------------------|
A|2--------------------------|2--------------------------|
E|---------------------------|---------------------------|
  move over once,             move over twice
e|------ ------ ------ ------|------ ------ ------ ------|
B|---------------------------|---------------------------|
G|---------------------------|---------------------------|
D|---------------------------|---------------------------|
A|9-------------9--9---------|9--------------------------|
E|7-------------7--7---------|7----------------14---\----|

  E7
e|------ ------ ------ ------|------ ------ ------ ------|
B|-------3---------3------3--|-------3--3------3------0--|
G|-------1---------1------1--|-------1--1------1------1--|
D|-------2---------2------2--|-------2--2------2------2--|
A|-------2---------2------2--|-------2--2------2------2--|
E|0--------------------------|---------------------------|
     Come on    baby  don't be  cold as ice.
e|------ ------ ------ ------|------ ------ ------ ------|
B|-------0-------------------|----------0----------------|
G|-------1-------------------|----------1----------------|
D|-------0-------------------|----------0----------------|
A|-------2-------------------|----------2----------------|
E|0--------------------------|---------------------------|


  B7                          F#7
e|------ ------ ------ ------|------ ------ ------ ------|
B|-------0---------0---------|-------5---------5---------|
G|-------2---------2---------|-------3---------3---------|
D|-------1---------1---------|-------2---------2---------|
A|-------2---------2---------|-------4---------4---------|
E|---------------------------|-------2---------2---------|
       said I'm trav'ling on the one after  9      0  9

e|------ ---2-- ------ ------|------ ------ ------ ------|
B|0---------0----------------|---------------------------|
G|2---------2----------------|3---------3----------------|
D|1---------1----------------|2---------2----------------|
A|2---------2----------------|4---------4----------------|
E|---------------------------|2---------2----------------|


  B7                                                  E
e|------ ------ ------ ------|------ ------ ------ ---0--|
B|---------------------------|0--0-------------0------0--|
G|-------2-------------2-----|2--2------2------2------1--|
D|-------1-------------1-----|1--1------1------1------2--|
A|-------2-------------2-----|2--2------2------2------2--|
E|---------------------------|---------------------------|

e|---7-- ------ ---7-- ------|------ ------ ------ ------|
B|---------10-B-11-----10--7\|6--------------------------|
G|---------------------------|---9---7------7------------|
D|---------------------------|----------9----------9-----|
A|---------------------------|---------------------------|
E|---------------------------|---------------------------|


  E7
e|------ 0----- ------ 0-----|------ 0--0-- ---0-- 0-----|
B|-------3-------------3-----|-------3--3------3---3-----|
G|-------1-------------1-----|-------1--1------1---1-----|
D|-------2-------------2-----|-------2--2------2---2-----|
A|-------2-------------2-----|-------2--2------2---2-----|
E|---------------------------|---------------------------|
     I   got my bag,
e|------ ------ ------ ------|------ ------ ------ ------|
B|---------------------------|---------------------------|
G|------------------------9--|---9----------9------9-----|
D|------------------------9--|---9----------9------9-----|
A|7------------------9/11----|----------11---------------|
E|---------------------------|---------------------------|


  B7
e|------ 2----- ------ ------|------ 2----- 2----- ------|
B|-------0-------------0-----|---0---0--0---0--0---------|
G|-------2-------------2-----|---2---2--2---2--2---------|
D|-------1-------------1-----|---1---1--1---1--1---------|
A|-------2-------------2-----|---2---2--2---2--2---------|
E|---------------------------|---------------------------|
         run    to     the station
e|------ ------ ------ ------|---7-- ------ ---7-- ------|
B|---------------------------|---7-------------7---------|
G|---------------------------|---------------------------|
D|---------------------------|----------9-------------9--|
A|---------------------------|---------------------------|
E|7--------------------7-----|---------------------------|

  C#7
e|------ ------ ------ ------|------ ------ ------ ------|
B|-------2---------2---2-----|2------2---------2---2-----|
G|-------4---------4---4-----|4------4---------4---4-----|
D|-------3---------3---3-----|3------3---------3---3-----|
A|-------4---------4---4-----|4------4---------4---4-----|
E|---------------------------|---------------------------|
  Railman       says                           you've got the
e|------ ------ ------ ------|------ ------ ------ ------|
B|---------------------------|---9-----------------------|
G|---------------------------|--10----------x------------|
D|---------------------------|---9----------x------------|
A|---------------------------|--11----------x------------|
E|---------------------------|---9-----------------------|

  F#7
e|------ ------ ------ ------|------ ------ ------ ------|
B|-------5---------5---5-----|---5---5--5------5---5--5--|
G|-------3---------3---3-----|---3---3--3------3---3--3--|
D|-------2---------2---2-----|---2---2--2------2---2--2--|
A|-------4---------4---4-----|---4---4--4------4---4--4--|
E|-------2---------2---2-----|---2---2--2------2---2--2--|
  wrong  location
e|------ ------ ------ ------|------ ------ ------ ------|
B|---------------------------|---------------------------|
G|---------------------11----|11--------11---------------|
D|---------------------11----|11--------11---------------|
A|-----------------13--------|-------13--------13-----13-|
E|---------------------------|---------------------------|

  E7
e|0----- 0----- ------ 0-----|------ 0--0-- ---0-- 0-----|
B|3------3-------------3-----|-------3--3------3---3-----|
G|1------1-------------1-----|-------1--1------1---1-----|
D|2------2-------------2-----|-------2--2------2---2-----|
A|2------2-------------2-----|-------2--2------2---2-----|
E|---------------------------|---------------------------|
     I   got my bag,
e|------ ------ ------ ------|------ ------ ------ ------|
B|---------------------------|---------------------------|
G|9------9-------------------|11P9------9----------9-----|
D|9------9-------------------|11P9------9----------9-----|
A|---------------------------|-------11--------11--------|
E|---------------------------|---------------------------|

  B7
e|------ 2----- ------ 2-----|------ 2--2-- ---2-- 2--2--|
B|-------0-------------0-----|-------0--0------0---0--0--|
G|-------2-------------2-----|-------2--2------2---2--2--|
D|-------1-------------1-----|-------1--1------1---1--1--|
A|-------2-------------2-----|-------2--2------2---2--2--|
E|---------------------------|---------------------------|
  run    right  home
e|------ ------ ------ ---7--|------ ---7-- ------ ------|
B|---------------------------|--10-B-11------------7-----|
G|---------------------------|---------------------------|
D|---------------------------|------------------------9--|
A|---------------------------|---------------------------|
E|---------------------------|---------------------------|

  C#7
e|------ ------ ------ ------|------ ------ ------ ------|
B|-------2---------2---2-----|-------2--2----------2-----|
G|-------4---------4---4-----|-------4--4----------4-----|
D|3------3---------3---3-----|3------3--3----------3-----|
A|-------4---------4---4-----|-------4--4----------4-----|
E|---------------------------|---------------------------|
  Then I    find                               I've got the

e|------ ------ ------ ------|---9-- ------ ------ ------|
B|-----------------------12-B|13-----12------------------|
G|---------------------------|----------10---------------|
D|---------------------------|---------------------------|
A|---------------------------|---------------------------|
E|---------------------------|---------------------------|

  F#7
e|------ ------ ------ ------|------ ------ ------ ------|
B|-------5--5------5---5-----|-------5--5---5--5---5--5--|
G|-------3--3------3---3-----|-------3--3---3--3---3--3--|
D|-------2--2------2---2-----|-------2--2---2--2---2--2--|
A|-------4--4------4---4-----|-------4--4---4--4---4--4--|
E|-------2--2------2---2-----|-------2--2---2--2---2--2--|
  number wrong                       Well
e|------ ------ ------ ------|------ ------ ------ ------|
B|---------------------------|---------------------------|
G|---------11----------11----|-------11-----11-----------|
D|---------11----------11----|-------11-----11-----------|
A|---------------------------|---13----------------13----|
E|---------------------------|---------------------------|

  B7
e|------ ------ ------ ------|------ ------ ------ ------|
B|0------0---------0------0--|----------0------0---------|
G|2------2---------2------2--|2---------2------2---------|
D|1------1---------1------1--|1---------1------1---------|
A|2------2---------2------2--|2---------2------2---------|
E|---------------------------|---------------------------|
    I said she's trav'ling on the one after 9      0  9
e|------ ------ ------ ------|------ ------ ------ ------|
B|0--------------------------|---------------------------|
G|2--------------------------|---------------------------|
D|1--------------------------|---------------------------|
A|2--------------------------|---------------------------|
E|---------------------------|---------------------------|


e|------ ------ ------ ------|------ ------ ------ ------|
B|-------0-------------0-----|-------0--0-------------0--|
G|-------2-------------2-----|-------2--2------2------2--|
D|-------1------1------1-----|-------1--1------1------1--|
A|-------2-------------2-----|-------2--2------2------2--|
E|---------------------------|---------------------------|
                                               I said
e|10B11- 10P9-- 12-10- B--11-|------ ------ ------ ------|
B|-----------9---------------|12-----10-12---------------|
G|---------------------------|---------------------8-----|
D|---------------------------|---------------------9-----|
A|---------------------------|---------------------9-----|
E|---------------------------|---------------------7-----|


e|------ ------ ------ ------|------ ------ ------ ------|
B|-------0---------0---------|-------0--0------0---------|
G|-------2---------2---------|-------2--2------2---------|
D|-------1---------1---------|-------1--1------1---------|
A|-------2---------2---------|-------2--2------2---------|
E|---------------------------|---------------------------|
  move over honey         I'm travelling on    that   line
e|------ ------ ------ ------|------ ------ ------ ------|
B|---------------------------|---------------------------|
G|---8-------8------------8--|----------8----------------|
D|---9-------9------------9--|----------9----------------|
A|---9-------9------------9--|----------9----------------|
E|---7-------7------------7--|----------7----------------|


e|------ ------ ------ ------|------ ------ ------ ------|
B|-------0-------------0-----|----------0------0---0-----|
G|-------2-------------2-----|-------2--2------2---2-----|
D|-------1-------------1-----|-------1--1------1---1-----|
A|-------2-------------2-----|-------2--2------2---2-----|
E|---------------------------|---------------------------|
                                               I said
e|------ ------ ------ ------|------ 7----- ------ ------|
B|--10-B-7------10-B-7---10-B|11-------------------------|
G|----------7----------7-----|--------------9B10R9-7-----|
D|---------------------------|------------------------9--|
A|---------------------------|---------------------------|
E|---------------------------|---------------------------|


e|------ ------ ------ ------|------ ------ ------ ------|
B|0--------------------------|0--------------------------|
G|2--------------------------|2--------------------------|
D|1--------------------------|1--------------------------|
A|2--------------------------|2--------------------------|
E|---------------------------|---------------------------|
  move over once,             move over twice
e|------ ------ ------ ------|------ ------ ------ ------|
B|---------------------------|---------------------------|
G|---------------------------|---------------------------|
D|-----------------9---------|---------------------------|
A|-----------------9---------|-----------------9---------|
E|---------------------------|---------------------------|

  E7
e|0----- 0----- ---0-- 0-----|0----- 0----- 0----- ------|
B|3------3---------3---3-----|3------3------3------------|
G|1------1---------1---1-----|1------1------1------------|
D|2------2---------2---2-----|2------2------2------------|
A|2------2---------2---2-----|2------2------2------------|
E|---------------------------|---------------------------|
     Come on    baby  don't be  cold as ice.
e|------ ------ ------ ------|------ ------ ------ ------|
B|---------------------------|---------------------------|
G|------------------------9--|---9----------9------------|
D|------------------------9--|---9----------9---------11-|
A|7------------------9/11----|----------11---------------|
E|---------------------------|---------------------------|

  B7                          F#7
e|------ ------ ------ ------|------ ------ ------ ------|
B|0------0---------0---------|---------------------------|
G|2------2---------2---------|-------3--3------3---------|
D|1------1---------1---------|-------2--2------2---------|
A|2------2---------2---------|-------4--4------4---------|
E|---------------------------|-------2--2------2---------|
      said she's trav'ling on the one after 9      0  9
e|------ ------ ------ ------|------ ------ ------ ------|
B|---------------------------|---9----------7------------|
G|-----------------8---------|---9----------9------------|
D|-----------------7---------|---8----------8------------|
A|-----------------9---------|---9----------9------------|
E|-----------------7---------|---------------------------|


                                               Solo
  B7
e|------ ------ ------ ------|------ ------ ------ ------|
B|-------0---------0------0--|-------0---------0---------|
G|-------2---------2------2--|-------2---------2---------|
D|-------1---------1------1--|-------1---------1---------|
A|-------2---------2------2--|-------2---------2---------|
E|---------------------------|---------------------------|

e|------ 7----- ------ ------|7----- ------ ---7-- ---7--|
B|-------7---------7---------|7--------------------------|
G|-----------------8---------|---------------------------|
D|---------------------------|---------------------------|
A|---------------------------|---------------------------|
E|---------------------------|---------------------------|

e|------ ------ ------ ------|------ ------ ------ ------|
B|-------0-------------0-----|0------0---------0---0-----|
G|-------2-------------2-----|2------2---------2---2-----|
D|-------1-------------1-----|1------1---------1---1-----|
A|-------2-------------2-----|2------2---------2---2-----|
E|---------------------------|---------------------------|

e|10-B-12---7-- ------ ------|------ ------ ------ ------|
B|----------7------10--7-----|-----------------------------|
G|---------------------------|9-B-11-------------------11--|R
D|---------------------------|-----------------------------|
A|---------------------------|-----------------------------|
E|---------------------------|-----------------------------|

e|------ ------ ------ ------|------ ------ ------ ------|
B|-------0-------------0-----|-------0--0------0---0-----|
G|-------2-------------2-----|-------2--2------2---2-----|
D|-------1-------------1-----|1------1--1------1---1-----|
A|-------2-------------2-----|-------2--2------2---2-----|
E|---------------------------|---------------------------|

e|------ ------ ------ ------|------ ------ ------ ------|
B|---------------------------|-----------------------------|
G|9------7-------------------|---------------------7--9-9--|B
D|-----------------9------x--|-----------------9-----------|
A|---------------------------|-----------------------------|
E|---------------------------|-----------------------------|

e|------ ------ ------ ------|------ ------ ------ ------|
B|-------0---------0---------|0------0---------0---------|
G|-------2---------2---------|2------2---------2---------|
D|1------1---------2---------|1------1---------1---------|
A|-------2---------2---------|2------2---------2---------|
E|---------------------------|---------------------------|

e|---9-- ------ ------ ---7--|------ ------ ------ ------|
B|----------9-----10-B-12----|10--7----------------------|
G|11-------------------------|------10\9-7---------------|
D|---------------------------|--------------9--7---------|
A|---------------------------|---------------------9--7--|
E|---------------------------|---------------------------|

e|------ ------ ------ ------|------ ------ ------ ------|
B|-------0---------0---------|0---------0------0---------|
G|-------2---------2---------|2---------2------2---------|
D|-------1---------1---------|1---------1------1---------|
A|-------2---------2---------|2---------2------2---------|
E|---------------------------|---------------------------|

e|------ ------ ------ ------|------ ------ ------ ------|
B|---------------------------|---------------------------|
G|---------------------------|---------------------------|
D|------------------------7--|---7----------7------------|
A|6------------------7/9-----|----------9----------9-----|
E|-------7------5------------|---------------------------|

e|2----- ------ ------ ------|2----- ------ ------ ------|
B|0--------------------------|0--------------------------|
G|2--------------------------|2--------------------------|
D|1--------------------------|1--------------------------|
A|2--------------------------|2--------------------------|
E|---------------------------|---------------------------|

e|------ ------ ------ ------|------ ------ ------ ------|
B|---9-P-7------9------------|---9-B-10------------------|
G|---9-P-7------9B8----------|---9-B-11-----7-B-8--------|
D|----------9----------9-----|---------------------9-----|
A|---------------------------|---------------------------|
E|---------------------------|---------------------------|


  E7
e|------ ------ ------ ------|------ ---0-- ------ ------|
B|-------3---------3------3--|----------3-------------0--|
G|-------1---------1------1--|----------1-------------2--|
D|-------2---------2------2--|----------2-------------1--|
A|-------2---------2------2--|----------2-------------2--|
E|---------------------------|---------------------------|

e|------ ------ 10-12-B-14-14|14-14- 14-14-R-12-10 ------|
B|----------12---------------|---------------------12----|
G|---------------------------|---------------------------|
D|---------------------------|---------------------------|
A|---------------------------|---------------------------|
E|---------------------------|---------------------------|

  B7                          F#7
e|------ ------ ------ ------|------ ------ ------ ------|
B|-------0---------0---------|---------------------------|
G|-------2---------2---------|-------3---------3---------|
D|-------1---------1---------|-------2---------2---------|
A|-------2---------2---------|-------4---------4---------|
E|---------------------------|-------2---------2---------|

e|10---- 7\5-7- ------ ------|------ ------ ------ ------|
B|-----------7---------------|---------------------------|
G|-----------------9---7-----|---7---9B11---11-----9-P-7-|
D|---------------------------|9--------------------------|
A|---------------------------|---------------------------|
E|---------------------------|---------------------------|


  B7
e|------ ------ ------ ------|------ ------ ------ ------|
B|------------------------0--|-----------------0---------|
G|-------2---------2------2--|-------2---------2---------|
D|-------1---------1------1--|-------1---------1---------|
A|-------2---------2------2--|-------2---------2---------|
E|---------------------------|---------------------------|

e|------ ------ ------ ------|------ ------ ------ ------|
B|---------------------------|---------------------------|
G|---------------------------|---------------------------|
D|9--9---9------9---------9--|-------7------7--9---------|
A|---------------------------|------------------------9-/|
E|---------------------------|---------------------------|


  E7
e|------ 0----- ------ 0-----|------ 0----- ---0-- 0--0--|
B|-------3-------------3-----|-------3---------3---3--3--|
G|-------1-------------1-----|-------1---------1---1--1--|
D|-------2-------------2-----|-------2---------2---2--2--|
A|-------2-------------2-----|-------2---------2---2--2--|
E|---------------------------|---------------------------|
     Pick up my bag,
e|------ ------ ------ ------|------ ------ ------ ------|
B|---------------------------|---------------------------|
G|---9--------------------9--|---9----------9------9-\---|
D|---9--------------------9--|---9----------9------9-\---|
A|11-----------------9/11----|----------11---------------|
E|---------------------------|---------------------------|

  B7
e|------ 2----- ------ ------|2----- ------ ------ ------|
B|-------0---------0---------|0------0--0------0---------|
G|-------2---------2---------|2------2--2------2---------|
D|-------1---------1---------|1------1--1------1---------|
A|-------2---------2---------|2------2--2------2---------|
E|---------------------------|---------------------------|
         run    to     the station
e|------ ------ ------ ------|------ ------ ------ ------|
B|-------7---------7---------|10--------10-----7---------|
G|-------8---------8---------|---------------------7B8---|
D|-------7---------7---------|---------------------------|
A|---------------------------|---------------------------|
E|---------------------------|---------------------------|


  C#7
e|------ ------ ------ ------|------ ------ ------ ------|
B|-------2-------------2-----|-------2---------2---------|
G|-------4-------------4-----|-------4---------4---------|
D|3------3-------------3-----|-------3---------3---------|
A|-------4-------------4-----|-------4---------4---------|
E|---------------------------|---------------------------|
  Railman says                                you've got the
e|------ ------ ------ ------|9----- ------ ------ 9-----|
B|-----------------12--B--14-|9---------12--B--14--9-----|
G|---------------------------|---------------------------|
D|---------------------------|---------------------------|
A|---------------------------|---------------------------|
E|---------------------------|---------------------------|


  F#7                                                 E7
e|------ ------ ------ ------|------ ------ ------ ------|
B|-------5-------------5-----|5------5---------5------3--|
G|-------3-------------3-----|3------3---------3------1--|
D|-------2-------------2-----|2------2---------2------2--|
A|-------4-------------4-----|4------4---------4------2--|
E|-------2-------------2-----|2------2---------2---------|
  wrong  location
e|------ ------ ------ ------|------ ------ ------ ------|
B|---9-------------9---------|---9-----------------------|
G|---9------9------9------9--|---9------9----------------|
D|----------8-------------8--|----------8----------------|
A|---------------------------|---------------------------|
E|---------------------------|---------------------------|

e|------ 0----- ------ 0-----|------ 0----- ---0-- 0-----|
B|-------3-------------3-----|-------3---------3---3-----|
G|-------1-------------1-----|-------1---------1---1-----|
D|-------2-------------2-----|-------2---------2---2-----|
A|-------2-------------2-----|-------2---------2---2-----|
E|---------------------------|---------------------------|
    Pick up my  bag,
e|------ ------ ------ ------|------ ------ ------ ------|
B|---------------------------|---------------------------|
G|7------7----------------7--|-------7-------------7-----|
D|6------6----------------6--|-------6-------------6-----|
A|7------7----------------7--|-------7-------------7-----|
E|---------------------------|---------------------------|

  B7
e|------ 2----- ------ ------|------ ------ ------ ------|
B|-------0-------------0-----|-----------------0---------|
G|-------2-------------2-----|-------2--2---2--2------4--|
D|-------1-------------1-----|-------1--1---1--1------3--|
A|-------2-------------2-----|-------2--2---2--2------4--|
E|---------------------------|---------------------------|
  run    right  home
e|------ ------ ------ ------|------ ------ ------ ------|
B|-------7---------7---------|----------7------7---------|
G|-------8---------8---------|----------8------9---------|
D|-------7---------7---------|----------7------7---------|
A|-------9---------9---------|----------9------9---------|
E|---------------------------|---------------------------|

  F#7
e|------ ------ ------ ------|------ ------ ------ ------|
B|-------2---------2---------|2------2---------2---2-----|
G|-------4---------4---------|4------4---------4---4-----|
D|-------3---------3---------|3------3---------3---3-----|
A|-------4---------4---------|4------4---------4---4-----|
E|---------------------------|---------------------------|
  Then I    find                               I've got the
e|------ ------ ------ ------|------ ------ ------ ---2--|
B|-------2---------2---------|2--2---2--2------2------2--|
G|-------4---------4---------|4--4---4--4------4------3--|
D|-------3---------3---------|3--3---3--3------3------2--|
A|-------4---------4---------|4--4---4--4------4------4--|
E|---------------------------|---------------------------|


  F#
e|------ ------ ------ ------|------ ------ ------ ------|
B|-------5---------5---------|5---------5------5---------|
G|-------3---------3---------|3---------3------3---------|
D|-------2---------2---------|2---------2------2---------|
A|-------4---------4---------|4---------4------4---------|
E|-------2---------2---------|2---------2------2---------|
  number wrong              Well
e|---2-- ---2-- ---2-- ------|------ ------ ---2-- ------|
B|---2------2------2---------|2------2------2--2---------|
G|---3------3------3---------|3------3------3--3---------|
D|---2------2------2---------|2------2------2--2---------|
A|---4------4------4---------|4------4------4--4---------|
E|---2------2------2---------|2------2------2--2---------|


  B7
e|------ ------ ------ ------|------ ------ ------ ------|
B|-----------------0---------|-----------------0---------|
G|-------2---------2---------|-------2---------2---------|
D|-------1---------1---------|-------1---------1---------|
A|-------2---------2---------|-------2---------2---------|
E|---------------------------|---------------------------|
      Said she's trav'ling on the one after 9      0  9
e|------ ------ ------ ------|------ ------ ------ ------|
B|-------0---------0------0--|-------0---------0---------|
G|-------2---------2------2--|-------2---------2---------|
D|-------1---------1------1--|-------1---------1---------|
A|-------2---------2------2--|-------2---------2---------|
E|---------------------------|---------------------------|

e|------ ------ ------ ------|------ ------ ------ ------|
B|-------0-------------0-----|-------0--0------0---0-----|
G|-------2-------------2-----|-------2--2------2---2-----|
D|1------1------1------1-----|1------1--1------1---1-----|
A|-------2-------------2-----|-------2--2------2---2-----|
E|---------------------------|---------------------------|
                                                      Said
e|------ ------ ------ ------|------ ------ ------ ------|
B|-------7--7------7---7-----|0------0------0--0---------|
G|-------7--7-B-8--8---8-----|2------2------2--2---------|
D|---------------------------|1------1------1--1---------|
A|---------------------------|-------2------2--2---------|
E|---------------------------|---------------------------|

e|------ ------ ------ ------|------ ------ ------ ------|
B|-------0-------------0-----|-------0-------------0-----|
G|-------2-------------2-----|-------2-------------2-----|
D|-------1-------------1-----|-------1-------------1-----|
A|-------2-------------2-----|-------2-------------2-----|
E|---------------------------|---------------------------|
  Move over honey         I'm travelling on    that   line
e|------ ------ ------ ------|------ ------ ------ ------|
B|-------0---------0------0--|-------0--0------0---------|
G|-------2---------2------2--|-------2--2------2---------|
D|-------1---------1------1--|-------1--1------1---------|
A|-------2---------2------2--|-------2--2------2---------|
E|---------------------------|---------------------------|

e|------ ------ ------ ------|------ ------ ------ ------|
B|-------0-------------0-----|-------0--0------0---------|
G|-------2-------------2-----|-------2--2------2---------|
D|-------1-------------1-----|1------1--1------1---------|
A|-------2-------------2-----|-------2--2------2---------|
E|---------------------------|---------------------------|
                                               I   said
e|------ ------ ------ ------|------ ------ ------ ------|
B|-------7--7------7------0--|-------0--0------0------0--|
G|-------7--7-B-8--8------2--|-------2--2------2------2--|
D|------------------------1--|-------1--1------1------1--|
A|------------------------2--|-------2--2------2------0--|
E|---------------------------|---------------------------|

e|------ ------ ------ ------|------ ------ ------ ------|
B|0--------------------------|0--------------------------|
G|2--------------------------|2--------------------------|
D|1--------------------------|1--------------------------|
A|2--------------------------|2--------------------------|
E|---------------------------|---------------------------|
  Move over once,             Move over twice
e|------ ------ ------ ------|------ ------ ------ ------|
B|0--------------------------|---------------------------|
G|2-----------------------2--|------------------------2--|
D|1-----------------------1--|------------------------1--|
A|2-----------------------2--|------------------------2--|
E|---------------------------|---------------------------|

  E7
e|0----- 0----- ------ 0-----|------ 0--0-- ---0-- ------|
B|3------3-------------3-----|-------3--3------3------0--|
G|1------1-------------1-----|-------1--1------1------2--|
D|2------2-------------2-----|-------2--2------2------1--|
A|2------2-------------2-----|-------2--2------2------2--|
E|---------------------------|---------------------------|
    Come on,    baby   don't be cold as ice
e|------ 7----- ------ ------|------ ------ ------ ------|
B|-------0---------0------7--|------------------------0--|
G|-------7----------------7--|------------------------2--|
D|------------------------6--|------------------------1--|
A|-------7----------------7--|------------------------2--|
E|---------------------------|---------------------------|


  B7                          F#7                     B7
e|------ ------ ------ ------|------ ------ ------ ------|
B|0------0---------0---------|----------5---5---------0--|
G|2------2---------2---------|----------3---3---------2--|
D|1------1---------1---------|----------2---2---------1--|
A|2------2---------2---------|----------4---4---------2--|
E|---------------------------|----------2---2------------|
      Said she's trav'ling on the one after 9      0,
e|------ 2----- ------ ------|------ ------ ------ ------|
B|-------0--0----------------|----------2----------------|
G|-------2-------------------|----------3----------------|
D|-------1-------------------|----------2----------------|
A|-------2-------------------|---------------------------|
E|---------------------------|----------2----------------|

                              F#7
e|------ ------ ------ ------|------ ------ ------ ------|
B|0------0---------0---------|-------5---------5---------|
G|2------2---------2---------|-------3---------3---------|
D|1------1---------1---------|-------2---------2---------|
A|2------2---------2---------|-------4---------4---------|
E|---------------------------|-------2---------2---------|
      Said she's trav'ling on the one after 9      0,
e|------ 2----- ------ ------|------ ------ ------ ------|
B|-------0---------0---------|----------2----------------|
G|-------2-------------------|----------3----------------|
D|-------1-------------------|----------2----------------|
A|-------2-------------------|---------------------------|
E|---------------------------|----------2----------------|


  B7                          F#7
e|------ ------ ------ ------|------ ------ ------ ------|
B|-------0---------0---------|5---------5---5------------|
G|-------2---------2---------|3---------3---3------------|
D|-------1---------1---------|2---------2---2------------|
A|-------2---------2---------|4---------4---4------------|
E|---------------------------|2---------2---2------------|
      Said she's trav'ling on the one after 9      0  9
e|------ 2----- ------ ------|------ ------ ------ ------|
B|-------0---------0---------|---------------------------|
G|-------2-------------------|---------------------------|
D|-------1-------------------|---------------------------|
A|-------2-------------------|---------------------------|
E|---------------------------|---------------------------|

                                                  (.
  B7                                               B13
e|------ ------ ------ ------|------ ---2-- ------ 4-----|
B|-------0---------0---------|0---------0----------0-----|
G|-------2---------2---------|2---------2----------2-----|
D|-------1---------1---------|1---------1----------1-----|
A|-------2---------2---------|2---------2----------2-----|
E|---------------------------|---------------------------|

e|------ ------ ------ ------|------ ------ ------ ------|
B|---9-B-10--10R9-P-7--------|---------------------------|
G|---------------------------|---------------------------|
D|---------------------9P7---|---7---9--9----------9-----|
A|-------------------------9-|9--------------------------|
E|---------------------------|---------------------------|


        B  Bend
        R  Release
        /  slide up
        \  slide down
        H  hammer-on
        P  pull-off
        ~  vibrato
        +  harmonic
        x  Mute note
        . - play note like a dot in standard notation
        ^ - ties two notes together
        (. Pause

    -----------------------------------------------------------

    THE BEATLES -  DON'T LET ME DOWN (Lennon & McCartney). From
                   LET IT BE NAKED album. Released 18th November
                   2003.

    -----------------------------------------------------------

    Tabbed by:PJVillanueva

    Don't let me down  don't let me down
    Don't let me down  don't let me down

    Nobody ever loved me like she does
    Ooh she does  yeah she does

    And if somebody ever loved me like she does
    Ohh she do me  yeah she does.

    Don't let me down  don't let me down
    Don't let me down  don't let me down

    I'm in love for the first time
    Don't you know it's gonna last
    It's a love that lasts forever
    It's a love that has no past

    Don't let me down  don't let me down
    Don't let me down  don't let me down

    And from the first time that she really done me
    Ooh she done me  she done me good.

    I guess nobody ever really done me
    Ooh she done me  she done me good

    Don't let me down  don't let me down
    Don't let me down  don't let me down

    Please ....


    4/4 time
                                            X
                                   (.

  e|------- ------- ------- -------|------- ------- ------- -------|
  B|-------------------------------|-------------------------------|
  G|------------9---9---9----------|-------------------------------|
  D|------------9---911-9----------|-------------------------------|
  A|11------9H11-----H------9---12-|11-----------------------------|
  E|-------------------------------|-------------------------------|
                                                    Don't let   me

    F#m7
  e|2-----2 2-----2 2-2-2-2 2---2-2|2---2-2 2-2-2-2 2-----2 2-2-2--|
  B|2-----2-2-----2-2-2-2-2-2---2-2|2---2-2-2-2-2-2-2-----2-2-2-2--|
  G|2-----2-2-----2-2-2-2-2-2---2-2|2---2-2-2-2-2-2-2-----2-2-2-2--|
  D|2-----2-2-----2-2-2-2-2-2---2-2|2---2-2-2-2-2-2-2-----2-2-2-2--|
  A|4-----4-4-----4-4-4-4-4-4---4-4|4---4-4-4-4-4-4-4-----4-4-4-4--|
  E|2-----2-2-----2-2-2-2-2-2---2-2|2---2-2-2-2-2-2-2-----2-2-2-2--|

  e|-9----- -9----- -9----- -9-----|-9----- -9----- -9----- -------|
  B|10------10------10------10-----|10------10------10-------------|
  G|11------11------11------11-----|11------11------11-------------|
  D|11------11------11------11-----|11------11------11-------------|
  A|-9-------9-------9-------9-----|-9-------9-------9-------------|
  E|-------------------------------|-------------------------------|

  e|------- 14---12 1412--- 12-1412/14-14-- ------- ------- -------|
  B|--------14---12-141214--12-1412/14-1214------------------------|
  G|--------------------14---------|-----H-------------------------|
  D|-------------------------------|-------------------------------|
  A|-------------------------------|-------------------------------|
  E|-------------------------------|-------------------------------|
    down                                            Don't let   me

    E               Esus4           E
  e|0-----0 0---0-0 0-0-0-0 --0-0--|0---0-0 0-0-0-0 0---0-0 0-0-0--|
  B|0-----0-0---0-0-0-0-0-0---0-0--|0---0-0-0-0-0-0-0---0-0-0-0-0--|
  G|1-----1-1---1-1-2-2-2-2---2-2--|1---1-1-1-1-1-1-1---1-1-1-1-1--|
  D|2-----2-2---2-2-2-2-2-2---2-2--|2---2-2-2-2-2-2-2---2-2-2-2-2--|
  A|2-----2-2---2-2-2-2-2-2---2-2--|2---2-2-2-2-2-2-2---2-2-2-2-2--|
  E|0-----0-0---0-0-0-0-0-0---0-0--|0---0-0-0-0-0-0-0---0-0-0-0-0--|

  e|------- ------- ------- -------|------- ------- ------- -------|
  B|----------------9---9----------|-------------------------------|
  G|-9--------------9---9--------9-|----x----9-------9-------------|
  D|-9--------------9---9--------9-|----x----9-------9-------------|
  A|11--------------------------11-|----x---11------11-------------|
  E|-------------------------------|-------------------------------|

  e|------- 7H9---7 0--0--- -------|------- ------- ------- -------|
  B|--------9-------89-97---5---5--|5------------------------------|
  G|----------------/---\-------6--|4------------------------------|
  D|----------------------------7--|6------------------------------|
  A|-------------------------------|-------------------------------|
  E|-------------------------------|-------------------------------|
    down                                            Don't let   me

    F#m7
  e|2---2-2 2---2-2 2-2-2-- 2-2-2--|2-----2 2-2-2-2 2---2-- 2-2-2--|
  B|2---2-2-2---2-2-2-2-2---2-2-2--|2-----2-2-2-2-2-2---2---2-2-2--|
  G|2---2-2-2---2-2-2-2-2---2-2-2--|2-----2-2-2-2-2-2---2---2-2-2--|
  D|2---2-2-2---2-2-2-2-2---2-2-2--|2-----2-2-2-2-2-2---2---2-2-2--|
  A|4---4-4-4---4-4-4-4-4---4-4-4--|4-----4-4-4-4-4-4---4---4-4-4--|
  E|2---2-2-2---2-2-2-2-2---2-2-2--|2-----2-2-2-2-2-2---2---2-2-2--|

  e|------- -9----- -9----9 ----9-9|------- -9----- ------- -------|
  B|--------10------10---10----1010|--------10--------------10-----|
  G|--------11------11---11----1111|--------11--11----------11-----|
  D|--------11------11---11----1111|--------11---------------------|
  A|---------9-------9----9-----9-9|---------9---------------------|
  E|-------------------------------|-------------------------------|

  e|------- 14---12 1412--- 12-1412|14--14- ------- ------- -------|
  B|--------14---12-141214--12-1412|14--14-------------------------|
  G|--------------------14---------|-------------------------------|
  D|-------------------------------|-------------------------------|
  A|-------------------------------|-------------------------------|
  E|-------------------------------|-------------------------------|
    down                                            Don't let   me

    E               Esus4
  e|0-----0 0-0---- 0-0-0-0 --0-0--|
  B|0-----0-0-0-----0-0-0-0---0-0--|
  G|1-----1-1-1-----2-2-2-2---2-2--|
  D|2-----2-2-2-----2-2-2-2---2-2--|
  A|2-----2-2-2-----2-2-2-2---2-2--|
  E|0-----0-0-0-----0-0-0-0---0-0--|

  e|------- ------- ------- -------|
  B|-------------------------------|
  G|-9----------9---9---9----------|
  D|-9----------9---911-9----------|
  A|11------9H11-----H------9---12-|
  E|-------------------------------|

  e|------- 7H9---7 0--0--- -------|
  B|--------9-------89-97-5-----5--|
  G|----------------/---\-------6--|
  D|----------------------------7--|
  A|-------------------------------|
  E|-------------------------------|
    down


    5/4
   (.
    E
  e|0------ ------- ------- ------- -------|
  B|0--------------------------------------|
  G|1--------------------------------------|
  D|2--------------------------------------|
  A|2--------------------------------------|
  E|0--------------------------------------|

  e|------- ------- ------- ------- -------|
  B|---------------------------------------|
  G|---------------------------------------|
  D|---------------------------------------|
  A|11-------------------------------------|
  E|---------------------------------------|

  e|------- ------- ------- ------- -------|
  B|5--------------------------------------|
  G|4--------------------------------------|
  D|6--------------------------------------|
  A|---------------------------------------|
  E|---------------------------------------|
        Nobody      ever    loved   like  does,
                                me      she

    4/4
    00:30
    F#m                             F#m7
  e|2---2-2 2-2-2-2 2---2-- 2-2-2-2|2---2-2 2---2-2 2-2-2-2 2-2-2--|
  B|2---2-2-2-2-2-2-2---2---2-2-2-2|2---2-2-2---2-2-2-2-2-2-2-2-2--|
  G|2---2-2-2-2-2-2-2---2---2-2-2-2|2---2-2-2---2-2-2-2-2-2-2-2-2--|
  D|4---4-4-4-4-4-4-4---4---4-4-4-4|2---2-2-2---2-2-2-2-2-2-2-2-2--|
  A|4---4-4-4-4-4-4-4---4---4-4-4-4|4---4-4-4---4-4-4-4-4-4-4-4-4--|
  E|2---2-2-2-2-2-2-2---2---2-2-2-2|2---2-2-2---2-2-2-2-2-2-2-2-2--|

  e|14-\12- 12--12- -9---9- -9-----|------- ------- ------- -------|
  B|14-\10--10--10--------------10-|10-\7---7---7-\-5---5-\-2-H-5--|
  G|---------------H11--11--11---9-|-9-\6---6---6-\-4---4-\-2------|
  D|-------------------------------|-------------------------------|
  A|-------------------------------|-------------------------------|
  E|-------------------------------|-------------------------------|

  e|14--12- 12--12- -9---9- 9------|------- ------- ------- -------|
  B|10------10--10------10-10---10-|10------10------10------10-----|
  G|11------11--11------11-11------|11--11--11--9----9-------9--9--|
  D|-------------------------------|11------11------11--11--11-----|
  A|-------------------------------|-------------------------------|
  E|-------------------------------|-------------------------------|
                            Ooh she                         yeah  does.
                                  does,                         she


    Emaj7
  e|0---0-0 0---0-0 0---0-0 0-0-0-0|
  B|0---0-0-0---0-0-0---0-0-0-0-0-0|
  G|1---1-1-1---1-1-1---1-1-1-1-1-1|
  D|1---1-1-1---1-1-1---1-1-1-1-1-1|
  A|2---2-2-2---2-2-2---2-2-2-2-2-2|
  E|0---0-0-0---0-0-0---0-0-0-0-0-0|

  e|4------ ----4-- ------- ----4--|
  B|4-------4---5-------4----------|
  G|4-----------4---------4---4----|
  D|2-----------------------2------|
  A|-------------------------------|
  E|-------------------------------|

  e|4------ ------- ------- -------|
  B|4------------------------------|
  G|4-------------------------9----|
  D|------------------------7---7--|
  A|6-------------------6----------|
  E|-------------------------------|

   (.

  e|0------ ------- ------- ------- -------|
  B|0--------------------------------------|
  G|1--------------------------------------|
  D|1--------------------------------------|
  A|2--------------------------------------|
  E|0--------------------------------------|

  e|------- ------- ------- ------- -------|
  B|---------------------------------------|
  G|---------------------------------------|
  D|---------------------------------------|
  A|---------------------------------------|
  E|---------------------------------------|

  e|------- ------- ------- ------- -------|
  B|5--------------------------------------|
  G|4--------------------------------------|
  D|6--------------------------------------|
  A|---------------------------------------|
  E|---------------------------------------|
        And if  somebody    loved   like  does
                                me      she

    00:42

  e|2---2-2 2---2-- 2-2-2-2 2-2-2-2|2---2-2 2-2-2-2 2-2-2-2 2---2--|
  B|2---2-2-2---2---2-2-2-2-2-2-2-2|2---2-2-2-2-2-2-2-2-2-2-2---2--|
  G|2---2-2-2---2---2-2-2-2-2-2-2-2|2---2-2-2-2-2-2-2-2-2-2-2---2--|
  D|4---4-4-4---4---4-4-4-4-4-4-4-4|2---2-2-2-2-2-2-2-2-2-2-2---2--|
  A|4---4-4-4---4---4-4-4-4-4-4-4-4|4---4-4-4-4-4-4-4-4-4-4-4---4--|
  E|2---2-2-2---2---2-2-2-2-2-2-2-2|2---2-2-2-2-2-2-2-2-2-2-2---2--|

  e|14-\12- 12--12- -9---9- -9-----|------- ------- ------- -------|
  B|14-\10--10--10--------------10-|10-\7---7---7-\-5---5-\-2-H-5--|
  G|---------------H11--11--11---9-|-9-\6---6---6-\-4---4-\-2------|
  D|-------------------------------|-------------------------------|
  A|-------------------------------|-------------------------------|
  E|-------------------------------|-------------------------------|

  e|14--12- 12--12- -9---9- 9------|------- ------- ------- -------|
  B|10------10--10------10-10---10-|10------10------10------10-----|
  G|11------11--11------11-11------|11--11--11--9----9-------9--9--|
  D|-------------------------------|11------11------11--11--11-----|
  A|-------------------------------|-------------------------------|
  E|-------------------------------|-------------------------------|
                            Ooh she     me                  yeah  does.
                                  do                            she


                                   (.       x       X     X     X

  e|0---0-0 0---0-0 0---0-0 --0-0--|0------ ------- ------- -------|
  B|0---0-0-0---0-0-0---0-0-0-0-0--|0------------------------------|
  G|1---1-1-1---1-1-1H2-2-2-2-2-2--|1------------------------------|
  D|2---2-2-2---2-2-2---2-2-2-2-2--|2------------------------------|
  A|2---2-2-2---2-2-2---2-2-2-2-2--|2------------------------------|
  E|0---0-0-0---0-0-0---0-0-0-0-0--|0------------------------------|

  e|------- 7------ ------- -------|------- ------- ------- -------|
  B|--------9-------9-----9---9-9--|9------------------------------|
  G|--------9-------9-----9---9-9--|9------------------------------|
  D|--------9-------9H11-11--1111--|9------------------------------|
  A|--------7----------------------|-------------------------------|
  E|-------------------------------|-------------------------------|

  e|------- ------- ------- -------|------- ------- ------- -------|
  B|5---------------5-----5-----5--|5------------------------------|
  G|4---------------4-----4-----4--|4------------------------------|
  D|6---------------6H7---7-----7--|6------------------------------|
  A|-------------------------------|-------------------------------|
  E|-------------------------------|-------------------------------|
                                                    Don't let   me

    00:54

  e|2---2-2 2-2-2-- 2-2-2-2 2-2-2--|2---2-2 2-2-2-2 2---2-2 2------|
  B|2---2-2-2-2-2---2-2-2-2-2-2-2--|2---2-2-2-2-2-2-2---2-2-2------|
  G|2---2-2-2-2-2---2-2-2-2-2-2-2--|2---2-2-2-2-2-2-2---2-2-2------|
  D|4---4-4-4-4-4---4-4-4-4-4-4-4--|2---2-2-2-2-2-2-2---2-2-2------|
  A|4---4-4-4-4-4---4-4-4-4-4-4-4--|4---4-4-4-4-4-4-4---4-4-4------|
  E|2---2-2-2-2-2---2-2-2-2-2-2-2--|2---2-2-2-2-2-2-2---2-2-2------|

  e|-9----9 -9----- 1212-12 -1212--|---12-- 12----- -9----9 -------|
  B|10---10-10------1010-10--1010--|---10---10------10---10--------|
  G|11---11-11-------9-9--9---9-9--|---11---11------11---11--------|
  D|11---11-11------1111-11--1111--|---11---11------11---11--------|
  A|-9----9--9-------9-9------9-9--|----9----9-------9----9--------|
  E|-------------------------------|-------------------------------|

  e|------- 14---12 1412--- 12-1412/14-14-- ------- ------- -------|
  B|--------14---12-141214--12-1412/14-1214------------------------|
  G|--------------------14---------|-----H-------------------------|
  D|-------------------------------|-------------------------------|
  A|-------------------------------|-------------------------------|
  E|-------------------------------|-------------------------------|
    down                                            Don't let   me

    E               Esus4           E
  e|0---0-0 0---0-0 0-0-0-0 0-0-0-0|0---0-0 0-0-0-- 0---0-- 0-0-0--|
  B|0---0-0-0---0-0-0-0-0-0-0-0-0-0|0---0-0-0-0-0---0---0---0-0-0--|
  G|1---1-1-1---1-1-2-2-2-2-2-2-2-2|1---1-1-1-1-1---1---1---1-1-1--|
  D|2---2-2-2---2-2-2-2-2-2-2-2-2-2|2---2-2-2-2-2---2---2---2-2-2--|
  A|2---2-2-2---2-2-2-2-2-2-2-2-2-2|2---2-2-2-2-2---2---2---2-2-2--|
  E|0---0-0-0---0-0-0-0-0-0-0-0-0-0|0---0-0-0-0-0---0---0---0-0-0--|

  e|------- ------- ------- -------|------- ------- ------- -------|
  B|-------------------------------|-------------------------------|
  G|-9----------9---9---9----------|-------------------------------|
  D|-9----------9---911-9----------|-9------9---9---9--------------|
  A|11------9H11-----H------9---12-|11-----11--11--11--------------|
  E|-------------------------------|-------------------------------|

  e|------- 7H9---7 0-----0 -------|------- ------- ------- -------|
  B|--------9-------7H9P7\5-----5--|5------------------------------|
  G|----------------/---\-------6--|4------------------------------|
  D|----------------------------7--|6------------------------------|
  A|-------------------------------|-------------------------------|
  E|-------------------------------|-------------------------------|
    down                                            Don't let   me

    F#m7
  e|2---2-2 2---2-- 2-2-2-2 2-2-2--|2---2-2 2-2-2-- 2---2-- 2-2-2--|
  B|2---2-2-2---2---2-2-2-2-2-2-2--|2---2-2-2-2-2---2---2---2-2-2--|
  G|2---2-2-2---2---2-2-2-2-2-2-2--|2---2-2-2-2-2---2---2---2-2-2--|
  D|4---4-4-4---4---4-4-4-4-4-4-4--|2---2-2-2-2-2---2---2---2-2-2--|
  A|4---4-4-4---4---4-4-4-4-4-4-4--|4---4-4-4-4-4---4---4---4-4-4--|
  E|2---2-2-2---2---2-2-2-2-2-2-2--|2---2-2-2-2-2---2---2---2-2-2--|

  e|-9----9 -9----- -9----9 --9-9--|------- -9----- 9------ -------|
  B|10---10-10--x---10---10--1010--|--------10-----10--------------|
  G|11---11-11--x---11---11--1111--|--------11--11-11--------------|
  D|11---11-11--x---11---11--1111--|--------11-----11--------------|
  A|-9----9--9-------9----9---9-9--|---------9------9--------------|
  E|-------------------------------|-------------------------------|

  e|------- 14---12 1412--- 12-1412|14--14- ------- ------- -------|
  B|--------14---12-141214--12-1412|14--14-------------------------|
  G|--------------------14---------|-------------------------------|
  D|-------------------------------|-------------------------------|
  A|-------------------------------|-------------------------------|
  E|-------------------------------|-------------------------------|
    down                                            Don't let   me


                                   (.
    E               Esus4
  e|0---0-0 0---0-- 0-0-0-0 --0-0--|0------ ------- ------- -------|
  B|0---0-0-0---0---0-0-0-0---0-0--|0------------------------------|
  G|1---1-1-1---1---2-2-2-2---2-2--|1------------------------------|
  D|2---2-2-2---2---2-2-2-2---2-2--|2------------------------------|
  A|2---2-2-2---2---2-2-2-2---2-2--|2------------------------------|
  E|0---0-0-0---0---0-0-0-0---0-0--|0------------------------------|

  e|------- ------- ------- -------|------- ------- ------- -------|
  B|-------------------------------|-------------------------------|
  G|-9----------9---9---9----------|-9-----------------------------|
  D|-9----------9---911-9----------|-9-----------------------------|
  A|11------9H11-----H------9---12-|11-----------------------------|
  E|-------------------------------|-------------------------------|

  e|------- 7H9---7 ------- -------|------- ------- ------- -------|
  B|--------9-------79-97-5-----5--|5------------------------------|
  G|----------------/---\-------6--|4------------------------------|
  D|----------------------------7--|6------------------------------|
  A|-------------------------------|-------------------------------|
  E|-------------------------------|-------------------------------|
    down                                    I'm in  love    for the
                                                                  first

    01:18
    E
  e|0---0-- 0-----0 0---0-- 0-----0|0---0-- 0-----0 0---0-- ----0--|
  B|0---0---0-----0-0---0---0-----0|0---0---0-----0-0---0-------0--|
  G|1---1---1-----1-1---1---1-----1|1---1---1-----1-1---1-------1--|
  D|2---2---2-----2-2---2---2-----2|2---2---2-----2-2---2-------2--|
  A|2---2---2-----2-2---2---2-----2|2---2---2-----2-2---2-------2--|
  E|0---0---0-----0-0---0---0-----0|0---0---0-----0-0---0-------0--|

  e|------- ------- ------- -------|------- ------- ------- -------|
  B|-------------------------------|-------------------------------|
  G|-------------------------------|-------------------------------|
  D|2-------2---1-------2----------|2-----------2-------2-------2--|
  A|------------------------4------|----2--------------------------|
  E|-------------------------------|----------------4-------2------|

  e|4------ 4------ 4------ 4------|4------ 4------ 4------ 4------|
  B|5-------5-------5-------5------|5-------5-------5-------5------|
  G|4-------4-------4-------4------|4-------4-------4-------4------|
  D|-------------------------------|-------------------------------|
  A|-------------------------------|-------------------------------|
  E|-------------------------------|-------------------------------|
        time                                Don't know  it's     last
                                                you         gonna


    B7
  e|2------ 2-----2 2---2-- 2-----2|2---2-- 2---2-- 2-----2 2---2--|
  B|0-------0-----0-0---0---0-----0|0---0---0---0---0-----0-0---0--|
  G|2-------2-----2-2---2---2-----2|2---2---2---2---2-----2-2---2--|
  D|1-------1-----1-1---1---1-----1|1---1---1---1---1-----1-1---1--|
  A|2-------2-----2-2---2---2-----2|2---2---2---2---2-----2-2---2--|
  E|-------------------------------|-------------------------------|

  e|------- ------- ------- -------|------- ------- ------- -------|
  B|-------------------------------|-------------------------------|
  G|--------------------2----------|1------------------------------|
  D|--------4---1-----------4------|----2-------4---1---2-------1--|
  A|2------------------------------|------------------------4------|
  E|-------------------------------|-------------------------------|

  e|2------ 2------ 2------ 2------|2------ 2------ 2------ 2------|
  B|4-------4-------4-------4------|4-------4-------4-------4------|
  G|4-------4-------4-------4------|4-------4-------4-------4------|
  D|-------------------------------|-------------------------------|
  A|-------------------------------|-------------------------------|
  E|-------------------------------|-------------------------------|
                                            It's  love  that    forever
                                                a           lasts

  e|2---2-- 2---2-2 2---2-- 2---2-2|2---2-- ----2-- ----2-2 2---2--|
  B|0---0---0---0-0-0---0---0---0-0|0---0-------0-------0-0-0---0--|
  G|2---2---2---2-2-2---2---2---2-2|2---2-------2-------2-2-2---2--|
  D|1---1---1---1-1-1---1---1---1-1|1---1-------1-------1-1-1---1--|
  A|2---2---2---2-2-2---2---2---2-2|2---2-------2-------2-2-2---2--|
  E|-------------------------------|-------------------------------|

  e|------- ------- ------- -------|------- ------- ------- -------|
  B|-------------------------------|-------------------------------|
  G|--------------------2----------|1------------------------------|
  D|--------4---0H1---------4------|----2-------4---1---2-------2--|
  A|2------------------------------|------------------------2H4----|
  E|-------------------------------|-------------------------------|

  e|2------ 2------ 2------ 2------|2------ 2------ 2------ 2------|
  B|4-------4-------4-------4------|4-------4-------4-------4------|
  G|4-------4-------4-------4------|4-------4-------4-------4------|
  D|-------------------------------|-------------------------------|
  A|-------------------------------|-------------------------------|
  E|-------------------------------|-------------------------------|
                                            It's  love  that      no
                                                a           has


    E               Esus4           E
  e|0---0-0 0-0-0-- 0---0-0 0-0-0--|0------ ------- ------- -------|
  B|0---0-0-0-0-0---0---0-0-0-0-0--|0------------------------------|
  G|1---1-1-1-1-1---2---2-2-2-2-2--|1------------------------------|
  D|2---2-2-2-2-2---2---2-2-2-2-2--|2------------------------------|
  A|2---2-2-2-2-2---2---2-2-2-2-2--|2------------------------------|
  E|0---0-0-0-0-0---0---0-0-0-0-0--|0------------------------------|

  e|------- ------- ------- -------|------- ------- ------- -------|
  B|-------------------------------|-------------------------------|
  G|------------9---9---9----------|-------------------------------|
  D|------------9---911-9-------11-|-9-----------------------------|
  A|2-------9H11-----H------9---12-|11-----------------------------|
  E|0------------------------------|-------------------------------|

  e|4------ 4------ ------- -------|------- ------- ------- -------|
  B|5-------5-------5-------5---5--|5------------------------------|
  G|4-------4-------4-------4---4--|4------------------------------|
  D|----------------7-------7---7--|6------------------------------|
  A|-------------------------------|-------------------------------|
  E|-------------------------------|-------------------------------|
        past                                        Don't       me
                                                        let


    01:41
    down  don't let me down
    Don't let me down  don't let me down

                                              02:06
    And from the first time that she really done me
    Ooh she done me  she done me good.

                                 02:18
    I guess nobody ever really done me
    Ooh she done me  she done me good

                 02:30
    Don't let me down  don't let me down
    Don't let me down  don't let me down

    Please ....

  e|------- ------- ------- -------|------- ------- ----7-- -------|
  B|-------------------------------|----------------79----97--5---5|
  G|-------------------------------|----------------/------\----6--|
  D|-------------------------------|-------------------------------|
  A|-------------------------------|-------------------------------|
  E|-------------------------------|-------------------------------|

    02:52 PIANO CODA

  e|------- ------- ------- -------|------- ------- --7-7-9 -------|
  B|5H7-----7-9-7-------7-9-7-9----|7-7---9-7------/9-------97-5--5|
  G|--------------9-6-----------9-6|----------9-6-6----------\--6--|
  D|-------------------------------|-------------------------------|
  A|-------------------------------|-------------------------------|
  E|-------------------------------|-------------------------------|

  e|------- ------- ------- -7-9-12|12----- 7/9---- 9---7-- -------|
  B|5-----------------5--5-79------|------------------------9-7-5--|
  G|------------4---6------/-------|-------------------------------|
  D|-------------------------------|-------------------------------|
  A|-------------------------------|-------------------------------|
  E|-------------------------------|-------------------------------|

  e|------- ------- ------- -------|------- ------- ------7 -------|
  B|7---7-9-7-------7-9-7-------7-9|7-------7-9-7-------9---987--7-|
  G|----------9-6---------9-6------|--9-6---------9----------\-----|
  D|-------------------------------|-------------------------------|
  A|-------------------------------|-------------------------------|
  E|-------------------------------|-------------------------------|

                                   (.

  e|------- 12--12- 7-7---- ----0--|0------ ------- ------- -------|
  B|5-------121412--7997--5\3---2--|0------------------------------|
  G|---------H------/--P--2-----2--|1------------------------------|
  D|-------------------------------|-------------------------------|
  A|-------------------------------|-------------------------------|
  E|-------------------------------|-------------------------------|

     I have transcribbed this piano coda an octave lower so that it
     can be played on any type of guitar. Of course, Billy Preston's
     roulades are necessarily slides here.


        B  Bend
        R  Release
        /  Slide up
        \  Slide down
        H  Hammer-on
        P  Pull-off
        ~  Vibrato
        +  Harmonic
        x  Mute note
        .  Play note like a dot in standard notation
        ^  Ties two notes together
        (. Pause


  --------------------------------------------------------------

  THE BEATLES - I ME MINE (Harrison) From LET IT BE NAKED album.
                Released on 18th November 2003.

  --------------------------------------------------------------

  Tabbed by:PJVillanueva

  All thru' the day I me mine, I me mine, I me mine.
  All thru' the night I me mine, I me mine, I me mine.
  Now they're frightened of leaving it
  Ev'ryone's weaving it,
  Coming on strong all the time,
  All thru' the day I me mine.

  I-me-me mine, I-me-me mine,
  I-me-me mine, I-me-me mine.

  All I can hear I me mine, I me mine, I me mine.
  Even those tears I me mine, I me mine, I me mine.
  No-one's frightened of playing it
  Ev'ryone's saying it,
  Flowing more freely than wine,
  All thru' the day I me mine.

  I-me-me mine, I-me-me mine,
  I-me-me mine, I-me-me mine.

  All I can hear I me mine, I me mine, I me mine.
  Even those tears I me mine, I me mine, I me mine.
  No-one's frightened of playing it
  Ev'ryone's saying it,
  Flowing more freely than wine,
  All thru' your life I me mine.


  3/4 Time


  Am
e|0-------- ----0---- 0--------|0-------- 0-------- 0--------|
B|1-------------1-----1--------|1---------1---------1--------|
G|2-------------2-----2--------|2---------2---------2--------|
D|2-------------2-----2--------|2---------2---------2--------|
A|0-------------0-----0--------|0---------0---------0--------|
E|-----------------------------|-----------------------------|

e|--------- --------- ---------|--------- --------- ---------|
B|-----------------------------|-----------------------------|
G|-----------------------------|--------------------5-H-7-/--|
D|-----------------------------|----------5-H-7--------------|
A|-----------------------------|-----------------------------|
E|-----------------------------|-----------------------------|


  D
e|2-------- --------- 2--------|2-------- --------- 2----2---|
B|3-------------------3--------|3-------------------3----3---|
G|2-------------------2--------|2-------------------2----2---|
D|0-------------------0--------|0-------------------0----0---|
A|-----------------------------|-----------------------------|
E|-----------------------------|-----------------------------|

e|--------- --------- ---------|--------- 8-------- 10-------|
B|----------8---------10-------|-----------------------------|
G|9----------------------------|-----------------------------|
D|-----------------------------|-----------------------------|
A|-----------------------------|-----------------------------|
E|-----------------------------|-----------------------------|


  G                             E
e|3-------- 3----3--- 3----3---|0-------- 0----0--- 0--------|
B|3---------3----3----3----3---|0---------0----0----0--------|
G|0---------0----0----0----0---|1---------1----1----1--------|
D|0---------0----0----0----0---|2---------2----2----2--------|
A|2---------2----2----2----2---|2---------2----2----2--------|
E|3---------3----3----3----3---|0---------0----0----0--------|

e|10-B-12-- --------- ---------|--------- 8-------- 10-------|
B|-----------------------------|-----------------------------|
G|-----------------------------|-----------------------------|
D|-----------------------------|-----------------------------|
A|-----------------------------|-----------------------------|
E|-----------------------------|-----------------------------|


  Am
e|0-------- 0-------- 0--------|0-------- -----0--- 0--------|
B|1---------1---------1--------|1--------------1----1--------|
G|2---------2---------2--------|2--------------2----2--------|
D|2---------2---------2--------|2--------------2----2--------|
A|0---------0---------0--------|0--------------0----0--------|
E|-----------------------------|-----------------------------|
  All                                thru'          the day
e|--------- --------- ---------|--------- --------- ---------|
B|10---------------------------|-----------------------------|
G|-----------------------------|-----------------------------|
D|-----------------------------|-----------------------------|
A|-----------------------------|-----------------------------|
E|-----------------------------|-----------------------------|


  D                             D7
e|2-------- 2----2--- 2--------|2-------- ----2---- 2--------|
B|3---------3----3----3--------|1-------------1-----1--------|
G|2---------2----2----2--------|2-------------2-----2--------|
D|0---------0----0----0--------|0-------------0-----0--------|
A|-----------------------------|-----------------------------|
E|-----------------------------|-----------------------------|
                                          I         me   mine,

  G                             E
e|3-------- -----3--- 3----3---|0-------- 0----0--- 0----0---|
B|3--------------3----3----3---|0---------0----0----0----0---|
G|0--------------0----0----0---|1---------1----1----1----1---|
D|0--------------0----0----0---|2---------2----2----2----2---|
A|2--------------2----2----2---|2---------2----2----2----2---|
E|3--------------3----3----3---|0---------0----0----0----0---|
            I         me   mine,          I         me   mine
e|--------- --------- ---------|--------- --------- ---------|
B|-----------------------------|-----------------------------|
G|-----------------------------|--------------------4--------|
D|-----------------------------|2-----4-/-6------------------|
A|----------2---------5--------|-----------------------------|
E|3----------------------------|-----------------------------|


  Am
e|0-------- -----0--- 0--------|0-------- -----0--- 0----0---|
B|1--------------1----1--------|1--------------1----1----1---|
G|2--------------2----2--------|2--------------2----2----2---|
D|2--------------2----2--------|2--------------2----2----2---|
A|0--------------0----0--------|0--------------0----0----0---|
E|-----------------------------|-----------------------------|

e|--------- --------- ---------|--------- --------- ---------|
B|-----------------------------|-----------------------------|
G|2----------------------------|-----------------------------|
D|-----------------------------|-----------------------------|
A|-----------------------------|-----------------------------|
E|-----------------------------|-----------------------------|

e|--------- --------- ---------|--------- --------- ---------|
B|-----------------------------|-----------------------------|
G|-----------------------------|5----------------------------|
D|-----------------------------|5----------------------------|
A|----------------5-/-7--------|----------7--\--5---3--H--5--|
E|-----------------------------|-----------------------------|

e|0-------- 0-------- 0--------|0-------- -----0--- 0--------|
B|1---------1---------1--------|1--------------1----1--------|
G|2---------2---------2--------|2--------------2----2--------|
D|2---------2---------2--------|2--------------2----2--------|
A|0---------0---------0--------|0--------------0----0--------|
E|-----------------------------|-----------------------------|
  All                                thru'          the  night
e|--------- --------- ---------|--------- --------- ---------|
B|-----------------------------|-----------------------------|
G|-----------------------------|-----------------------------|
D|-----------------------------|-----------------------------|
A|-----------------------------|-----------------------------|
E|5----------------------------|-----------------------------|


  D                             D7
e|2-------- 2----2--- 2--------|2-------- ----2---- 2--------|
B|3---------3----3----3--------|1-------------1-----1--------|
G|2---------2----2----2--------|2-------------2-----2--------|
D|0---------0----0----0--------|0-------------0-----0--------|
A|-----------------------------|-----------------------------|
E|-----------------------------|-----------------------------|
                                          I         me   mine,

  G                             E
e|3-------- 3----3--- 3----3---|0-------- -----0--- 0--------|
B|3---------3----3----3----3---|0--------------0----0--------|
G|0---------0----0----0----0---|1--------------1----1--------|
D|0---------0----0----0----0---|2--------------2----2--------|
A|2---------2----2----2----2---|2--------------2----2--------|
E|3---------3----3----3----3---|0--------------0----0--------|
            I         me   mine,          I         me   mine
e|--------- --------- ---------|--------- --------- ---------|
B|-----------------------------|-----------------------------|
G|-----------------------------|-----------------------------|
D|-----------------------------|----------6---------9--------|
A|--------------------5-----5-/|7----------------------------|
E|3-------5/7------------------|-----------------------------|


  Am
e|0-------- 0----0--- 0----0---|0-------- 0-------- 0--------|
B|1---------1----1----1----1---|1---------1---------1--------|
G|2---------2----2----2----2---|2---------2---------2--------|
D|2---------2----2----2----2---|2---------2---------2--------|
A|0---------0----0----0----0---|0---------0---------0--------|
E|-----------------------------|-----------------------------|
                                           Now      they're
e|--------- --------- ---------|--------- --------- ---------|
B|-----------------------------|-----------------------------|
G|-----------------------------|-----------------------------|
D|7----------------------------|-----------------------------|
A|-----------------------------|-----------------------------|
E|-----------------------------|-----------------------------|


  Dm                            Dm+5
e|1-------- --------- ---------|1-------- --------- ---------|
B|3----------------------------|3----------------------------|
G|2----------------------------|2----------------------------|
D|0----------------------------|2----------------------------|
A|-----------------------------|-----------------------------|
E|-----------------------------|-----------------------------|
  frightened     of       leaving         it
e|--------- --------- 10-------|10------- 10------- 10-------|
B|--------------------10-------|10--------10--------10-------|
G|--------------------10-------|10--------10--------10-------|
D|--------------------12-------|12--------12--------12-------|
A|-----------------------------|-----------------------------|
E|-----------------------------|-----------------------------|


  D6                            Dmsus4
e|1-------- --------- ---------|1-------- --------- ---------|
B|3----------------------------|3----------------------------|
G|2----------------------------|0----------------------------|
D|3----------------------------|-----------------------------|
A|-----------------------------|-----------------------------|
E|-----------------------------|-----------------------------|
  Ev'ryone's               weaving        it,
e|--------- --------- 10-------|10------- 10------- 10-------|
B|--------------------10-------|10--------10--------10-------|
G|--------------------10-------|10--------10--------10-------|
D|--------------------12-------|12--------12--------12-------|
A|-----------------------------|-----------------------------|
E|-----------------------------|-----------------------------|


  Dm-5                          Dm
e|1-------- --------- ---------|1-------- --------- ---------|
B|3----------------------------|3----------------------------|
G|1----------------------------|2----------------------------|
D|-----------------------------|0----------------------------|
A|-----------------------------|-----------------------------|
E|-----------------------------|-----------------------------|
  Coming         on             strong    all       the  time,
e|13------- --------- 13-------|13------- 13------- 13-------|
B|12------------------12-------|12--------12--------12-------|
G|13------------------13-------|13--------13--------13-------|
D|-----------------------------|-----------------------------|
A|-----------------------------|-----------------------------|
E|-----------------------------|-----------------------------|


  E7
e|0-------- --------- ---------|--------- --------- ---------|
B|3----------------------------|-----------------------------|
G|4----------------------------|-----------------------------|
D|2----------------------------|-----------------------------|
A|-----------------------------|--------------------2--------|
E|-----------------------------|0-------2/4------------------|

e|12------- --------- ---------|--------- --------- ---------|
B|12---------------------------|-----------------------------|
G|13---------------------------|-----------------------------|
D|-----------------------------|-----------------------------|
A|-----------------------------|-----------------------------|
E|-----------------------------|-----------------------------|


  Am                            Ammaj7
e|0-------- --------- ---------|0-------- --------- ---------|
B|1----------------------------|1----------------------------|
G|2----------------------------|1----------------------------|
D|2----------------------------|2----------------------------|
A|0----------------------------|0----------------------------|
E|-----------------------------|-----------------------------|
  All                                     thru'     the  day
e|--------- --------- ---------|--------- --------- ---------|
B|-----------------------------|-----------------------------|
G|----------5------------------|----------5------------------|
D|7-------------------7--------|6-------------------6--------|
A|-----------------------------|-----------------------------|
E|-----------------------------|-----------------------------|


  Am7                           Am6
e|0-------- --------- ---------|0-------- --------- ---------|
B|1----------------------------|1----------------------------|
G|0----------------------------|2----------------------------|
D|2----------------------------|4----------------------------|
A|0----------------------------|0----------------------------|
E|-----------------------------|-----------------------------|
                                          I         me   mine.
e|--------- --------- ---------|--------- --------- ---------|
B|-----------------------------|-----------------------------|
G|----------5------------------|----------5------------------|
D|5-------------------5--------|4-------------------4--------|
A|-----------------------------|-----------------------------|
E|-----------------------------|-----------------------------|

  12/8
                                         x x x  x x x
  Fmaj7
e|0---0- 0---0- 0---0- 0---0-|0---0- 0---0- 0---0- 0---0-|
B|1---1--1---1--1---1--1---1-|1---1--1---1--1---1--1---1-|
G|2---2--2---2--2---2--2---2-|2---2--2---2--2---2--2---2-|
D|3---3--3---3--3---3--3---3-|3---3--3---3--3---3--3---3-|
A|---------------------------|---------------------------|
E|---------------------------|---------------------------|

e|------ ------ ------ ------|------ ------ ------ ------|
B|---------------------------|---------------------5---5-|
G|---------------------------|---------------------5---5-|
D|---------------------------|---------------------------|
A|---------------------------|---------------------------|
E|---------------------------|---------------------------|


  A5     A6     A5 ....
e|------ ------ ------ ------|------ ------ ------ ------|
B|---------------------------|---------------------------|
G|---------------------------|---------------------------|
D|2--2---4---4--2---2--4---4-|2---2--4---4--5---5--4---4-|
A|0--0---0---0--0---0--0---0-|0---0--0---0--0---0--0---0-|
E|---------------------------|---------------------------|
     I-         me-me      mine,
e|------ ------ ------ ------|------ ------ ------ ------|
B|---------------------------|/8--8--/8--8--/8--8--------|
G|---------------------------|/9--9--/9--9--/9--9--9\7-5-|
D|---------------------------|---------------------------|
A|---------------------------|---------------------------|
E|---------------------------|---------------------------|

e|------ ------ ------ ------|------ ------ ------ ------|
B|---------------------------|---------------------------|
G|---------------------------|---------------------------|
D|2--2---4---4--2---2--4---4-|2---2--4---4--5---5--4---4-|
A|0--0---0---0--0---0--0---0-|0---0--0---0--0---0--0---0-|
E|---------------------------|---------------------------|
     I-         me-me      mine,
e|------ ------ ------ ------|------ ------ ------ ------|
B|---------------------------|8-8-8--8-8-8---------------|
G|---------------------------|9-9-9--9-9-9--9\7-5--7---5-|
D|---------------------------|---------------------------|
A|---------------------------|---------------------------|
E|---------------------------|---------------------------|


  D5     D6     D5 ....
e|------ ------ ------ ------|------ ------ ------ ------|
B|---------------------------|---------------------------|
G|2---2--4---4--2---2--4---4-|2---2--4---4--5---5--4---4-|
D|0---0--0---0--0---0--0---0-|0---0--0---0--0---0--0---0-|
A|---------------------------|---------------------------|
E|---------------------------|---------------------------|
      I-         me-me      mine,
e|------ ------ ------ ------|8-8-8- 8-8-8- 8-8-8- 8-\---|
B|---------------------------|6-6-6--6-6-6--6-6-6--6-\---|
G|---------------------------|7-7-7--7-7-7--7-7-7--7-\---|
D|7---7--9---9--7---7--------|---------------------------|
A|---------------------------|---------------------------|
E|---------------------------|---------------------------|


  A5     A6     A5 ....
e|------ ------ ------ ------|------ ------ ------ ------|
B|---------------------------|---------------------------|
G|---------------------------|---------------------------|
D|2---2--4---4--2---2--4---4-|2---2--4---4--5---5--4---4-|
A|0---0--0---0--0---0--0---0-|0---0--0---0--0---0--0---0-|
E|---------------------------|---------------------------|
      I-         me-me      mine.
e|------ ------ ------ ------|------ ------ ------ ------|
B|---------------------------|8-8-8------8---------------|
G|---------------------------\9-9-9-\9------9\7-5--7---5-|
D|---------------------------|---------------------------|
A|---------------------------|---------------------------|
E|---------------------------|---------------------------|


  E5     E6     E5 ....                     E
e|------ ------ ------ ------|------ ------ ------ ------|
B|---------------------------|---------------------------|
G|---------------------------|--------------1---1---1----|
D|---------------------------|--------------2---2---2----|
A|2---2--4---4--2---2--4---4-|2---2--4---4--2---2---2----|
E|0---0--0---0--0---0--0---0-|0---0--0---0--0---0---0----|

e|------ ------ ------ ------|------ ------ ------ ------|
B|---------------------10P8--|---------------------------|
G|7/9----------------------9-\7---5--7--7B8------8B9-R---|
D|---------------------------|--------------6----------7-|
A|---------------------------|---------------------------|
E|---------------------------|---------------------------|


  3/4

  Am
e|0-------- 0-------- 0--------|0-------- 0----0--- 0----0---|
B|1---------1---------1--------|1---------1----1----1----1---|
G|2---------2---------2--------|2---------2----2----2----2---|
D|2---------2---------2--------|2---------2----2----2----2---|
A|0---------0---------0--------|0---------0----0----0----0---|
E|-----------------------------|-----------------------------|
  All                                     I         can
e|--------- --------- ---------|--------- --------- ---------|
B|-----------------------------|-----------------------------|
G|-----------------------------|-----------------------------|
D|7----------------------------|-----------------------------|
A|-----------------------------|-----------------------------|
E|-----------------------------|-----------------------------|


  D                             D7
e|2-------- 2----2--- 2--------|2-------- 2---2---- 2---2----|
B|3---------3----3----3--------|1---------1---1-----1---1----|
G|2---------2----2----2--------|2---------2---2-----2---2----|
D|0---------0----0----0--------|0---------0---0-----0---0----|
A|-----------------------------|-----------------------------|
E|-----------------------------|-----------------------------|
  hear                                        I     me   mine,

  G                             E
e|3-------- 3----3--- 3--------|0-------- 0----0--- 0----0---|
B|3---------3----3----3--------|0---------0----0----0----0---|
G|0---------0----0----0--------|1---------1----1----1----1---|
D|0---------0----0----0--------|2---------2----2----2----2---|
A|2---------2----2----2--------|2---------2----2----2----2---|
E|3---------3----3----3--------|0---------0----0----0----0---|
            I         me   mine,          I         me   mine.
e|--------- --------- ---------|--------- --------- ---------|
B|-----------------------------|-----------------------------|
G|-----------------------------|-----------------------------|
D|-----------------------------|----------6---------9--------|
A|----------2---------5--------|7----------------------------|
E|3----------------------------|-----------------------------|


  Am
e|0-------- 0----0--- 0----0---|0-------- 0---0---- 0---0----|
B|1---------1----1----1----1---|1---------1---1-----1---1----|
G|2---------2----2----2----2---|2---------2---2-----2---2----|
D|2---------2----2----2----2---|2---------2---2-----2---2----|
A|0---------0----0----0----0---|0---------0---0-----0---0----|
E|-----------------------------|-----------------------------|

e|--------- --------- ---------|--------- --------- ---------|
B|-----------------------------|-----------------------------|
G|-----------------------------|-----------------------------|
D|7----------------------------|-----------------------------|
A|--------------------7-\-5----|3---------5---------7--------|
E|-----------------------------|-----------------------------|

e|0-------- 0---0---- 0--------|0-------- 0----0--- 0---0----|
B|1---------1---1-----1--------|1---------1----1----1---1----|
G|2---------2---2-----2--------|2---------2----2----2---2----|
D|2---------2---2-----2--------|2---------2----2----2---2----|
A|0---------0---0-----0--------|0---------0----0----0---0----|
E|-----------------------------|-----------------------------|
  Even                                         those
e|--------- --------- ---------|--------- --------- ---------|
B|-----------------------------|-----------------------------|
G|-----------------------------|-----------------------------|
D|-----------------------------|-----------------------------|
A|-----------------------------|-----------------------------|
E|5----------------------------|-----------------------------|


  D                             D7
e|2-------- 2----2--- 2----2---|2-------- 2---2---- 2--------|
B|3---------3----3----3----3---|1---------1---1-----1--------|
G|2---------2----2----2----2---|2---------2---2-----2--------|
D|0---------0----0----0----0---|0---------0---0-----0--------|
A|-----------------------------|-----------------------------|
E|-----------------------------|-----------------------------|
  tears                                   I         me   mine,

  G                             E
e|3-------- 3----3--- 3--------|0-------- 0----0--- 0--------|
B|3---------3----3----3--------|0---------0----0----0--------|
G|0---------0----0----0--------|1---------1----1----1--------|
D|0---------0----0----0--------|2---------2----2----2--------|
A|2---------2----2----2--------|2---------2----2----2--------|
E|3---------3----3----3--------|0---------0----0----0--------|
            I         me   mine,          I         me   mine
e|--------- --------- ---------|--------- --------- ---------|
B|-----------------------------|-----------------------------|
G|-----------------------------|-----------------------------|
D|-----------------------------|----------6---------9--------|
A|----------2---------5--------|7----------------------------|
E|3----------------------------|-----------------------------|


  Am
e|0-------- 0----0--- 0--------|0-------- 0---0---- 0--------|
B|1---------1----1----1--------|1---------1---1-----1--------|
G|2---------2----2----2--------|2---------2---2-----2--------|
D|2---------2----2----2--------|2---------2---2-----2--------|
A|0---------0----0----0--------|0---------0---0-----0--------|
E|-----------------------------|-----------------------------|
                                           No - one's
e|--------- --------- ---------|--------- --------- ---------|
B|-----------------------------|-----------------------------|
G|-----------------------------|-----------------------------|
D|7----------------------------|-----------------------------|
A|-----------------------------|-----------------------------|
E|-----------------------------|-----------------------------|


  Dm                            Dm+5
e|1-------- --------- ---------|1-------- --------- ---------|
B|3----------------------------|3----------------------------|
G|2----------------------------|2----------------------------|
D|0----------------------------|2----------------------------|
A|-----------------------------|-----------------------------|
E|-----------------------------|-----------------------------|
  frightened     of        playing        it
e|10------- --------- 10-------|10------- 10------- 10-------|
B|10------------------10-------|10--------10--------10-------|
G|10------------------10-------|10--------10--------10-------|
D|12------------------12-------|12--------12--------12-------|
A|-----------------------------|-----------------------------|
E|-----------------------------|-----------------------------|


  Dm6                           Dmsus4
e|1-------- --------- ---------|1-------- --------- ---------|
B|3----------------------------|3----------------------------|
G|2----------------------------|0----------------------------|
D|3----------------------------|-----------------------------|
A|-----------------------------|-----------------------------|
E|-----------------------------|-----------------------------|
  Ev'ryone's               saying         it,
e|10------- 10------- 10-------|10------- 10------- 10-------|
B|10--------10--------10-------|10--------10--------10-------|
G|10--------10--------10-------|10--------10--------10-------|
D|12--------12--------12-------|12--------12--------12-------|
A|-----------------------------|-----------------------------|
E|-----------------------------|-----------------------------|


  Dm-5                          Dm
e|1-------- --------- ---------|1-------- --------- ---------|
B|3----------------------------|3----------------------------|
G|1----------------------------|2----------------------------|
D|-----------------------------|0----------------------------|
A|-----------------------------|-----------------------------|
E|-----------------------------|-----------------------------|
  Flowing             more      freely         than
e|13------- --------- 13-------|13------- 13------- 13-------|
B|12------------------12-------|12--------12--------12-------|
G|13------------------13-------|13--------13--------13-------|
D|-----------------------------|-----------------------------|
A|-----------------------------|-----------------------------|
E|-----------------------------|-----------------------------|


  E7
e|0-------- --------- ---------|--------- --------- ---------|
B|3----------------------------|-----------------------------|
G|4----------------------------|-----------------------------|
D|2----------------------------|-----------------------------|
A|-----------------------------|-----------------------------|
E|-----------------------------|-----------------------------|
  wine,
e|12------- --------- ---------|--------- --------- ---------|
B|12---------------------------|-----------------------------|
G|13---------------------------|-----------------------------|
D|-----------------------------|--------------------2--------|
A|-----------------------------|-----------------------------|
E|-----------------------------|-----------------------------|


  Am                            Ammaj7
e|0-------- --------- ---------|0-------- --------- ---------|
B|1----------------------------|1----------------------------|
G|2----------------------------|1----------------------------|
D|2----------------------------|2----------------------------|
A|0----------------------------|0----------------------------|
E|-----------------------------|-----------------------------|
  All                                     thru'     your life


  Am7                           Am6
e|0-------- --------- ---------|0-------- --------- ---------|
B|1----------------------------|1----------------------------|
G|0----------------------------|2----------------------------|
D|2----------------------------|4----------------------------|
A|0----------------------------|0----------------------------|
E|-----------------------------|-----------------------------|
                                          I         me   mine.


  12/8
                                            x x x  x x x
  Fmaj7
e|0---0- 0---0- 0---0- 0---0-|0---0- 0---0- 0---0- 0---0-|
B|1---1--1---1--1---1--1---1-|1---1--1---1--1---1--1---1-|
G|2---2--2---2--2---2--2---2-|2---2--2---2--2---2--2---2-|
D|3---3--3---3--3---3--3---3-|3---3--3---3--3---3--3---3-|
A|---------------------------|---------------------------|
E|---------------------------|---------------------------|

e|------ ------ ------ ------|------ ------ ------ ------|
B|---------------------------|---------------------5---5-|
G|---------------------------|---------------------5---5-|
D|---------------------------|---------------------------|
A|---------------------------|---------------------------|
E|---------------------------|---------------------------|


  A
e|------ ------ ------ ------|------ ------ ------ ------|
B|---------------------------|---------------------------|
G|---------------------------|---------------------------|
D|2---2--4---4--2---2--4---4-|2---2--4---4--5---5--4---4-|
A|0---0--0---0--0---0--0---0-|0---0--0---0--0---0--0---0-|
E|---------------------------|---------------------------|
      I-         me-me      mine,
e|------ ------ ------ ------|------ ------ ------ ------|
B|---------------------------|/8--8--/8--8--/8--8--------|
G|---------------------------|/9--9--/9--9--/9--9--9\7-5-|
D|---------------------------|---------------------------|
A|---------------------------|---------------------------|
E|---------------------------|---------------------------|

e|------ ------ ------ ------|------ ------ ------ ------|
B|---------------------------|---------------------------|
G|---------------------------|---------------------------|
D|2---2--4---4--2---2--4---4-|2---2--4---4--5---5--4---4-|
A|0---0--0---0--0---0--0---0-|0---0--0---0--0---0--0---0-|
E|---------------------------|---------------------------|
      I-         me-me      mine,
e|------ ------ ------ ------|------ ------ ------ ------|
B|---------------------------|8-8-8--8-8-8---------------|
G|---------------------------|9-9-9--9-9-9--9\7-5--7---5-|
D|---------------------------|---------------------------|
A|---------------------------|---------------------------|
E|---------------------------|---------------------------|


  D
e|------ ------ ------ ------|------ ------ ------ ------|
B|---------------------------|---------------------------|
G|2---2--4---4--2---2--4---4-|2---2--4---4--5---5--4---4-|
D|0---0--0---0--0---0--0---0-|0---0--0---0--0---0--0---0-|
A|---------------------------|---------------------------|
E|---------------------------|---------------------------|
      I-         me-me      mine,
e|------ ------ ------ ------|8-8-8- 8-8-8- 8-8-8- 8-\---|
B|---------------------------|6-6-6--6-6-6--6-6-6--6-\---|
G|---------------------------|7-7-7--7-7-7--7-7-7--7-\---|
D|7---7--9---9--7---7--------|---------------------------|
A|---------------------------|---------------------------|
E|---------------------------|---------------------------|


  A
e|------ ------ ------ ------|------ ------ ------ ------|
B|---------------------------|---------------------------|
G|---------------------------|---------------------------|
D|2---2--4---4--2---2--4---4-|2---2--4---4--5---5--4---4-|
A|0---0--0---0--0---0--0---0-|0---0--0---0--0---0--0---0-|
E|---------------------------|---------------------------|
      I-         me-me      mine,
e|------ ------ ------ ------|------ ------ ------ ------|
B|---------------------------|8---8------8---------------|
G|---------------------------\9---9-\9------9\7-5--7---5-|
D|---------------------------|---------------------------|
A|---------------------------|---------------------------|
E|---------------------------|---------------------------|


  E
e|------ ------ ------ ------|------ ------ ------ ------|
B|---------------------------|---------------------------|
G|---------------------------|--------------1---1---1----|
D|---------------------------|--------------2---2---2----|
A|2---2--4---4--2---2--4---4-|2---2--4---4--2---2---2----|
E|0---0--0---0--0---0--0---0-|0---0--0---0--0---0---0----|

e|------ ------ ------ ------|------ ------ ------ ------|
B|---------------------10P8--|---------------------------|
G|7/9----------------------9-\7---5--7--7B8------8B9-R---|
D|---------------------------|--------------6----------7-|
A|---------------------------|---------------------------|
E|---------------------------|---------------------------|

  3/4

  Am
e|0-------- 0----0--- 0--------|0-------- 0----0--- 0---0----|
B|1---------1----1----1--------|1---------1----1----1---1----|
G|2---------2----2----2--------|0---------2----2----2---2----|
D|2---------2----2----2--------|2---------2----2----2---2----|
A|0---------0----0----0--------|0---------0----0----0---0----|
E|-----------------------------|-----------------------------|
  All                                     I         can
e|--------- --------- ---------|--------- --------- ---------|
B|-----------------------------|-----------------------------|
G|-----------------------------|-----------------------------|
D|7----------------------------|-----------------------------|
A|-----------------------------|-----------------------------|
E|-----------------------------|-----------------------------|


  D                             D7
e|2-------- 2----2--- 2--------|2-------- 2---2---- 2--------|
B|3---------3----3----3--------|1---------1---1-----1--------|
G|2---------2----2----2--------|2---------2---2-----2--------|
D|0---------0----0----0--------|0---------0---0-----0--------|
A|-----------------------------|-----------------------------|
E|-----------------------------|-----------------------------|
  hear                                        I     me   mine,
e|--------- --------- ---------|--------- --------- ---------|
B|-----------------------------|-----------------------------|
G|----------5------------------|-----------------------------|
D|----------5------------------|-----------------------------|
A|5/7---------------7\5-------3/5----/----7------------------|
E|-----------------------------|-----------------------------|


  G                             E
e|3-------- 3----3--- 3--------|0-------- 0----0--- 0--------|
B|3---------3----3----3--------|0---------0----0----0--------|
G|0---------0----0----0--------|1---------1----1----1--------|
D|0---------0----0----0--------|2---------2----2----2--------|
A|2---------2----2----2--------|2---------2----2----2--------|
E|3---------3----3----3--------|0---------0----0----0--------|
            I         me   mine,          I         me   mine.
e|--------- --------- ---------|--------- --------- ---------|
B|-----------------------------|-----------------------------|
G|-----------------------------|-----------------------------|
D|-----------------------------|----------6---------9--------|
A|----------2---------5--------|7----------------------------|
E|3----------------------------|-----------------------------|

e|--------- --------- ---------|--------- --------- ---------|
B|-----------------------------|-----------------------------|
G|-----------------------------|-----------------------------|
D|-----------------------------|-----------------------------|
A|-----------------------------|-----------------------------|
E|3----------------------------|-----------------------------|


  Am
e|0-------- 0----0--- 0--------|0-------- 0----0--- 0----0---|
B|1---------1----1----1--------|1---------1----1----1----1---|
G|2---------2----2----2--------|2---------2----2----2----2---|
D|2---------2----2----2--------|2---------2----2----2----2---|
A|0---------0----0----0--------|0---------0----0----0----0---|
E|-----------------------------|-----------------------------|

e|--------- --------- ---------|--------- --------- ---------|
B|-----------------------------|-----------------------------|
G|-----------------------------|-----------------------------|
D|7----------------------------|-----------------------------|
A|--------------------7-\-5----|3---------5---------7--------|
E|-----------------------------|-----------------------------|


e|0-------- 0----0--- 0--------|0-------- 0----0--- 0---0----|
B|1---------1----1----1--------|1---------1----1----1---1----|
G|2---------2----2----2--------|0---------2----2----2---2----|
D|2---------2----2----2--------|2---------2----2----2---2----|
A|0---------0----0----0--------|0---------0----0----0---0----|
E|-----------------------------|-----------------------------|
  Even                                         those
e|--------- --------- ---------|--------- --------- ---------|
B|-----------------------------|-----------------------------|
G|-----------------------------|-----------------------------|
D|-----------------------------|-----------------------------|
A|-----------------------------|-----------------------------|
E|5----------------------------|-----------------------------|

  D                             D7
e|2-------- 2----2--- 2----2---|2-------- 2---2---- 2----2---|
B|3---------3----3----3----3---|1---------1---1-----1----1---|
G|2---------2----2----2----2---|2---------2---2-----2----2---|
D|0---------0----0----0----0---|0---------0---0-----0----0---|
A|-----------------------------|-----------------------------|
E|-----------------------------|-----------------------------|
  tears                                   I         me   mine,


  G                             E
e|3-------- 3----3--- 3--------|0-------- 0----0--- 0--------|
B|3---------3----3----3--------|0---------0----0----0--------|
G|0---------0----0----0--------|1---------1----1----1--------|
D|0---------0----0----0--------|2---------2----2----2--------|
A|2---------2----2----2--------|2---------2----2----2--------|
E|3---------3----3----3--------|0---------0----0----0--------|
            I         me   mine,          I         me   mine
e|--------- --------- ---------|--------- --------- ---------|
B|-----------------------------|-----------------------------|
G|-----------------------------|-----------------------------|
D|-----------------------------|----------6---------9--------|
A|----------2---------5-----5--|7----------------------------|
E|3----------------------------|-----------------------------|


  Am
e|0-------- 0----0--- 0--------|0-------- 0----0--- 0--------|
B|1---------1----1----1--------|1---------1----1----1--------|
G|2---------2----2----2--------|2---------2----2----2--------|
D|2---------2----2----2--------|2---------2----2----2--------|
A|0---------0----0----0--------|0---------0----0----0--------|
E|-----------------------------|-----------------------------|
                                           No - one's
e|--------- --------- ---------|--------- --------- ---------|
B|-----------------------------|-----------------------------|
G|-----------------------------|-----------------------------|
D|7----------------------------|-----------------------------|
A|--------------------7-\-5----|3---------5---------7--------|
E|-----------------------------|-----------------------------|


  Dm                            Dm+5
e|1-------- --------- ---------|1-------- --------- ---------|
B|3----------------------------|3----------------------------|
G|2----------------------------|2----------------------------|
D|0----------------------------|2----------------------------|
A|-----------------------------|-----------------------------|
E|-----------------------------|-----------------------------|
  frightened     of        playing        it
e|10------- --------- 10-------|10------- 10------- 10-------|
B|10------------------10-------|10--------10--------10-------|
G|10------------------10-------|10--------10--------10-------|
D|12------------------12-------|12--------12--------12-------|
A|-----------------------------|-----------------------------|
E|-----------------------------|-----------------------------|


  Dm6                           Dmsus4
e|1-------- --------- ---------|1-------- --------- ---------|
B|3----------------------------|3----------------------------|
G|2----------------------------|0----------------------------|
D|3----------------------------|-----------------------------|
A|-----------------------------|-----------------------------|
E|-----------------------------|-----------------------------|
  Ev'ryone's               saying         it,
e|10------- 10------- 10-------|10------- 10------- 10-------|
B|10--------10--------10-------|10--------10--------10-------|
G|10--------10--------10-------|10--------10--------10-------|
D|12--------12--------12-------|12--------12--------12-------|
A|-----------------------------|-----------------------------|
E|-----------------------------|-----------------------------|


  Dm-9                          Dm
e|1-------- --------- ---------|1-------- --------- ---------|
B|3----------------------------|3----------------------------|
G|1----------------------------|2----------------------------|
D|-----------------------------|0----------------------------|
A|-----------------------------|-----------------------------|
E|-----------------------------|-----------------------------|
  Flowing             more      freely         than
e|13------- 13------- 13-------|13------- 13------- 13-------|
B|12--------12--------12-------|12--------12--------12-------|
G|14--------14--------14-------|14--------14--------13-------|
D|-----------------------------|-----------------------------|
A|-----------------------------|-----------------------------|
E|-----------------------------|-----------------------------|


  E7
e|0-------- --------- ---------|--------- --------- ---------|
B|3----------------------------|-----------------------------|
G|4----------------------------|-----------------------------|
D|2----------------------------|-----------------------------|
A|-----------------------------|-----------------------------|
E|-----------------------------|-----------------------------|
  wine,
e|12------- --------- ---------|--------- --------- ---------|
B|12---------------------------|-----------------------------|
G|13---------------------------|-----------------------------|
D|-----------------------------|--------------------2--------|
A|-----------------------------|-----------------------------|
E|-----------------------------|-----------------------------|


  Am                            Ammaj7
e|0-------- --------- ---------|0-------- --------- ---------|
B|1----------------------------|1----------------------------|
G|2----------------------------|1----------------------------|
D|2----------------------------|2----------------------------|
A|0----------------------------|0----------------------------|
E|-----------------------------|-----------------------------|
  All                                     thru'     the  day

  Am7                           Am6
e|0-------- --------- ---------|0-------- --------- ---------|
B|1----------------------------|1----------------------------|
G|0----------------------------|2----------------------------|
D|2----------------------------|4----------------------------|
A|0----------------------------|0----------------------------|
E|-----------------------------|-----------------------------|
                                          I         me   mine.


 (.
  Fmaj7
e|0-------- --------- ---------|--------- --------- ---------|
B|1----------------------------|-----------------------------|
G|2----------------------------|-----------------------------|
D|3----------------------------|-----------------------------|
A|-----------------------------|-----------------------------|
E|-----------------------------|-----------------------------|


        B  Bend
        R  Release
        /  slide up
        \  slide down
        H  hammer-on
        P  pull-off
        ~  vibrato
        +  harmonic
        x  Mute note
        . - play note like a dot in standard notation
        ^ - ties two notes together
        (. Pause

  -------------------------------------------------------------------

  THE BEATLES - ACROSS THE UNIVERSE (Lennon & McCartney) This version
                was first released on a charity album for the World
                Wildlife Fund on 12th December 1969. Also released on
                9th August 1988, as part of THE BEATLES PAST MASTERS
                VOL 2.

  -------------------------------------------------------------------

  Tabbed by:PJVillanueva

  Words are flowing out like
  endless rain into a paper cup
  They slither while they pass
  They slip away across the universe
  Pools of sorrow waves of joy
  Are drifting through my open mind
  Possessing and caressing me

  Jai guru deva om
  Nothing's gonna change my world
  Nothing's gonna change my world
  Nothing's gonna change my world
  Nothing's gonna change my world

  Images of broken light which
  Dance before me like a million eyes
  That call me on and on across the universe
  Thoughts meander like a
  Restless wind inside a letter box
  They tumble blindly as
  They make their way across the universe

  Jai guru deva om
  Nothing's gonna change my world
  Nothing's gonna change my world
  Nothing's gonna change my world
  Nothing's gonna change my world

  Sounds of laughter shades of life
  Are ringing through my open ears
  Exciting and inviting me
  Limitless undying love which
  shines around me like a million suns
  It calls me on and on across the universe

  Jai guru deva om
  Nothing's gonna change my world
  Nothing's gonna change my world
  Nothing's gonna change my world
  Nothing's gonna change my world
  Jai guru deva
  Jai guru deva


  4/4


e|-------- -------- -------- --------|2-----/- 10------ 9---7--- 5-------|
B|-----------------------------------|-------------------------------7---|
G|-----------------------------------|2-----/--10-------9---7----6-------|
D|-----------------------------------|----0--------0---------------------|
A|-----------------------------------|-----------------------------------|
E|-----------------------------------|-----------------------------------|

e|-------- -------- -------- --------|5------- 10------ -9------ --------|
B|-----------------------------------|7--------10-------10--12---10--12--|
G|-----------------------------------|7--------11-------11--11---11--11--|
D|-----------------------------------|-----------------------------------|
A|-----------------------------------|-----------------------------------|
E|-----------------------------------|-----------------------------------|


  F#m F#sus4 ...                      A   Aadd9 ...
e|2---2--- 2---2--- 2---2--- 2---2---|-------- -------- -------- --------|
B|2---2----2---2----2---2----2---2---|2---2----2---2----2---2----2---2---|
G|2---4----2---4----2---4----2---4---|2---4----2---4----2---4----2---4---|
D|4---4----4---4----4---4----4---4---|2---2----2---2----2---2----2---2---|
A|-----------------------------------|0---0----0---0----0---0----0---0---|
E|-----------------------------------|-----------------------------------|

e|-------- -------- -------- --------|-------- -------- -------- --------|
B|2---2----2---2----2---2----2---2---w2--w2---w2--w2---w2--w2---w2--w2---|
G|2---4----2---4----2---4----2---4---w2--w4---w2--w4---w2--w4---w2--w4---|
D|4---4----4---4----4---4----4---4---w2--w2---w2--w2---w2--w2---w2--w2---|
A|-----------------------------------|-----------------------------------|
E|-----------------------------------|-----------------------------------|


  D                 Bm                F#m
e|2---2--- 2---2--- 2---2--- 2---2---|2---2-2- 2---2--- 2---2--- 2-------|
B|3---3----3---3----3---3----3---3-x-|2---2-2--2---2----2---2----2---0---|
G|2---2----2---2----4---4----4---4-x-|2---2-2--2---2----2---2----2---0---|
D|0---0----0---0----4---4----4---4-x-|4---4-4--4---4----4---4----4---0---|
A|------------------2---2----2---2---|4---4-4--4---4----4---4----4-------|
E|-----------------------------------|-----------------------------------|

ew2--w2---w2--w2---w2-------w2-------w2--w2---w2--w2---w2--w2---w2-------|
Bw3--w3---w3--w3---w3-------w3-------w2--w2---w2--w2---w2--w2---w2--w0---|
Gw2--w2---w2--w2---w4-------w4-------w2--w2---w2--w2---w2--w2---w2--w0---|
D|-----------------------------------|-----------------------------------|
A|-----------------------------------|-----------------------------------|
E|-----------------------------------|-----------------------------------|
  Words  flying        like  endless  rain         a     paper       they
      are      out                        into              cup


  Em7                                 A                          A7
e|0---0-0- 0---0-0- 0---0--- 0-0-0---|0---0--- 0---0--- 0---0--- 3---3---|
B|3---3-3--3---3-3--3---3----3-3-3---|2---2----2---2----2---2----2---2---|
G|0---0-0--0---0-0--0---0----0-0-0---|2---2----2---2----2---2----2---2---|
D|0---0-0--0---0-0--0---0----0-0-0---|2---2----2---2----2---2----2---2---|
A|2---2-2--2---2-2--2---2----2-2-2---|0---0----0---0----0---0----0---0---|
E|0---0-0--0---0-0--0---0----0-0-0---|-----------------------------------|

ew0--w0---w0--w0---w0-------w0-------w0------- -------- -------- --------|
Bw3--w3---w3--w3---w3-------w3-------w2----------------------------------|
Gw0--w0---w0--w0---w0-------w0-------w2----------------------------------|
Dw2--w2---w2--w2---w2-------w2-------w2----------------------------------|
A|-----------------------------------|-----------------------------------|
E|-----------------------------------|-----------------------------------|
  slither      they pass     slip away    across    the Universe
      while             they


e|3---3---|
B|2---2---|
G|2---2---|
D|2---2---|
A|0---0---|
E|--------|


  D                 Bm                F#m
e|2---2--- 2---2--- 2---2-2- 2---2-2-|2---2--- 2-2-2--- 2-2-2--- 2-------|
B|3---3----3---3----3---3-3--3---3-3-|2---2----2-2-2----2-2-2----2---0---|
G|2---2----2---2----4---4-4--4---4-4-|2---2----2-2-2----2-2-2----2---0---|
D|0---0----0---0----4---4-4--4---4-4-|4---4----4-4-4----4-4-4----4---0---|
A|------------------2---2-2--2---2-2-|4---4----4-4-4----4-4-4----4-------|
E|-----------------------------------|-----------------------------------|

e|--w10--- -------- --w10--- --------|-------- -------- -------- --------|
B|--w-7---------------w-7------------|-----------------------------------|
G|--w-7---------------w-7------------|-----------------------------------|
D|-----------------------------------|-----------------------------------|
A|-----------------------------------|-----------------------------------|
E|-----------------------------------|-----------------------------------|
  Pools     sorrow  waves  joy    Are drifting through  open mind     Pos..
      of                of                         my


  Em7               Gm
e|0---0--- 0---0--- 3---3-3- 3-3-3-3-|3---3--- 3-------|
B|3---3----3---3----3---3-3--3-3-3-3-|3---3----3-------|
G|0---0----0---0----3---3-3--3-3-3-3-|3---3----3-------|
D|0---0----0---0----5---5-5--5-5-5-5-|5---5----5-------|
A|2---2----2---2----5---5-5--5-5-5-5-|5---5----5-------|
E|-----------------------------------|-----------------|

e|-------- -------- -------- --------w3--w3---w3--w2---|
B|-----------------------------------w3--w3---w3--w3---|
G|-----------------------------------w3--w3---w3--w2---|
D|-----------------------------------|-----------------|
A|-----------------------------------|-----------------|
E|-----------------------------------|-----------------|
  sessing  and  caressing  me

  D
e|2---2--- 2---2--- 2---2--- 2---2---|2---2--- 2---2--- 2------- 2---2---|
B|3---3----3---3----3---3----3---3---|3---3----3---3----3---3----3---3---|
G|2---2----2---2----2---2----2---2---|2---2----2---2----2---2----2---2---|
D|0---0----0---0----0---0----0---0---|0---0----0---0----0---0----0---0---|
A|-------------0----0---0----0---0---|0---0----0---0----0---0----0---0---|
E|-----------------------------------|-----------------------------------|
  Jai      guru                  deva

  A                                                     A7
e|0---0--- 0------- 0------- 0-------|5---5--- 5---5--- 3------- --------|
B|2---2----2---x----2---2----2----0--|2---2----2---2----2---2----2---2-x-|
G|2---2----2---x----2---2----2----0--|2---2----2---2----2---2----2---2-x-|
D|2---2----2---x----2---2----2----0--|2---2----2---2----2---2----2---2-x-|
A|0---0----0--------0---0----0-------|0---0----0---0----0---0----0---0---|
E|----------------------0------------|-------------0----0---0----0---0---|
  Om                                  Nothing's         change   my  world
                                               gonna


  A                                   G                              D
e|0-0-0--- 0---0-0- 0---0--- 0-------|3------- 3------- 3---3--- 3---2-2-|
B|2-2-2----2---2-2--2---2----2---0---|3--------3--------3---3----3---3-3-|
G|2-2-2----2---2-2--2---2----2---0---|0--------0--------0---0----0---2-2-|
D|2-2-2----2---2-2--2---2----2---0---|0--------0--------0---0----0---0-0-|
A|0-0-0----0---0-0--0---0----0-------|2--------2--------2---2----2-------|
E|0-0-0----0---0-0--0---0----0-------|3--------3--------3---3----3-------|
                                      Nothing's         change   my   world
                                               gonna
(Aaaaaaaaaaaaaaaaaaaaaaaaaaaaaaaaaaaaaah)


                                      A                 A7
e|2---2--- 2---2-2- 2------- 2-------|5------- -------- 3------- --------|
B|3---3----3---3-3--3---3----3---x---|2---2----2---x----2---2----2-------|
G|2---2----2---2-2--2---2----2---x---|2---2----2---x----2---2----2-------|
D|0---0----0---0-0--0---0----0---x---|2---2----2---x----2---2----2-------|
A|0---0----0---0-0--0---0----0-------|0---0----0--------0---0----0-------|
E|-----------------------------------|0---0----0--------0---0----0-------|
                                      Nothing's         change   my   world
                                               gonna
(Aaaaaaaaaaaaaaaaaaaaaaaaaaaaaaaaaaaaaah)


  A                                   G
e|0---0--- 0---0-0- 0---0--- 0-------|3------- 3------- 3---3--- 3---2---|
B|2---2----2---2-2--2---2----2----0--|3--------3--------3---3----3---3---|
G|2---2----2---2-2--2---2----2----0--|0--------0--------0---0----0---2---|
D|2---2----2---2-2--2---2----2----0--|0--------0--------0---0----0---0---|
A|0---0----0---0-0--0---0----0-------|2--------2--------2---2----2-------|
E|-----------------------------------|3--------3--------3---3----3-------|
                                      Nothing's         change   my   world
                                               gonna
(Aaaaaaaaaaaaaaaaaaaaaaaaaaaaaaaaaaaaaah)


  D
e|2---2--- 2-----2- 2---2--- 2-------|
B|3---3----3---3-3--3---3----3---3---|
G|2---2----2---2-2--2---2----2---2---|
D|0---0----0---0-0--0---0----0---0---|
A|0---0----0---0-0--0---0----0---0---|
E|-----------------------------------|

(Aaaaaaaaaaaaaaaaaaaaaaaaaaaaaaaaaaaaaah)

  D                 Bm                F#m
e|2---2--- 2---2--- 2---2--- 2---2---|2---2-2- 2---2--- 2---2--- 2-------|
B|3---3----3---3----3---3----3---3---|2---2-2--2---2----2---2----2---0---|
G|2---2----2---2----4---4----4---4---|2---2-2--2---2----2---2----2---0---|
D|0---0----0---0----4---4----4---4---|4---4-4--4---4----4---4----4---0---|
A|------------------2---2----2---2---|4---4-4--4---4----4---4----4-------|
E|-----------------------------------|-----------------------------------|

e|-------- -------- -------- --------|-------- -------- --------w10------|
B|-----------------------------------|--------------------------w12------|
G|-----------------------------------|--------------------------w11------|
D|-----------------------------------|--------------------------w12------|
A|-----------------------------------|-----------------------------------|
E|-----------------------------------|-----------------w10---------------|
  Images        of  broken   light    dance         me  like a million
                                  which    before                     eyes


  Em7                                 A                          A7
e|0---0-0- 0---0-0- 0-0-0--- 0---0---|0---0--- 0---0--- 0---0--- 3---3---|
B|3---3-3--3---3-3--3-3-3----2---3---|2---2----2---2----2---2----2---2---|
G|0---0-0--0---0-0--0-0-0----0---0---|2---2----2---2----2---2----2---2---|
D|0---0-0--0---0-0--0-0-0----0---0---|2---2----2---2----2---2----2---2---|
A|2---2-2--2---2-2--2-2-2----2---2---|0---0----0---0----0---0----0---0---|
E|0---0-0--0---0-0--0-0-0----0---0---|-----------------------------------|

e|-------- -------- -------- --------|-------- -------- -------- --------|
B|-----------------------------------|------------w14--------------------|
G|-----------------------------------|---w14------w14--------------------|
Dw14---------------------------------|-----------------------------------|
A|-----------------------------------|-----------------------------------|
E|-----------------------------------|-----------------------------------|
       That     me  on  and       across   the Universe
           call            on


  D                 Bm                F#m
e|2---2--- 2---2--- 2---2-2- 2-2-2---|2---2--- 2-2-2--- 2-2-2--- 2-------|
B|3---3----3---3----3---3-3--3-3-3---|2---2----2-2-2----2-2-2----2---0---|
G|2---2----2---2----4---4-4--4-4-4---|2---2----2-2-2----2-2-2----2---0---|
D|0---0----0---0----4---4-4--4-4-4---|4---4----4-4-4----4-4-4----4---0---|
A|------------------2---2-2--2-2-2---|4---4----4-4-4----4-4-4----4-------|
E|-----------------------------------|-----------------------------------|

e|-------- -------- -------- --------|--------w5--w5---w5--w5--- --------|
B|-----------------------------------|--------w7--w7---w7--w7---w0--w0---|
G|-----------------------------------|--------w6--w6---w6--w6------------|
D|-----------------------------------|--------w7--w7---w7--w7------------|
A|-----------------------------------|-----------------------------------|
E|-----------------------------------|-----------------------------------|
  Thoughts          like a restless   wind  inside a    letter box    they
       meander


  Em7                                 A                          A7
e|0---0--- 0---0-0- 0---0--- 0-0-0---|0---0--- 0--0-0-- 0---0--- 0---0---|
B|3---3----3---3-3--3---3----3-3-3---|2---2----2--2-2---2---2----2---2---|
G|0---0----0---0-0--0---0----0-0-0---|2---2----2--2-2---2---2----2---2---|
D|0---0----0---0-0--0---0----0-0-0---|2---2----2--2-2---2---2----2---2---|
A|2---2----2---2-2--2---2----2-2-2---|0---0----0--0-0---0---0----0---0---|
E|0---0----0---0-0--0---0----0-0-0---|-----------------------------------|
  tumble blindly    as  they make     way across  the   Universe
                                 their


e|3---3---|
B|2---2---|
G|2---2---|
D|2---2---|
A|0---0---|
E|--------|


  D
e|2---2--- 2-2-2--- 2---2-2- 2---2---|2---2--- 2-2-2--- 2------- 2-------|
B|3---3----3-3-3----3---3-3--3---3---|3---3----3-3-3----3---3----3---3---|
G|2---2----2-2-2----2---2-2--2---2---|2---2----2-2-2----2---2----2---2---|
D|0---0----0-0-0----0---0-0--0---0---|0---0----0-0-0----0---0----0---0---|
A|0---0----0-0-0----0---0-0--0---0---|0---0----0-0-0----0---0----0---0---|
E|-----------------------------------|-----------------------------------|

e|-------- -------- -------- --------|-------- -------- -------- --------|
B|-----------------w7-----------w7---|---w7----------------w7---w7-------|
G|-----------------w7--w7-------w7---w7--w7-------w7---w7--w7---w7--w7---|
D|---------------------w7------------w7-----------w7---w7-----------w7---|
A|-----------------------------------|-----------------------------------|
E|-----------------------------------|-----------------------------------|
  Jai      guru                  deva

  A                                                     A7
e|0---0--- 0------- 0------- 0-------|5------- 5------- 3------- 3-------|
B|2---2----2---2----2---2----2---2---|2--------2--------2--------2-------|
G|2---2----2---2----2---2----2---2---|2--------2--------2--------2-------|
D|2---2----2---2----2---2----2---2---|2--------2--------2--------2-------|
A|0---0----0---0----0---0----0---0---|0--------0--------0--------0-------|
E|-------------0--------0--------0---|-----------------------------------|

e|-------- -------- -------- --------|-------- -------- -------- --------|
B|--------w5----------------w5-------|------------------------------w5---|
G|--------w6--w6---w6-------w6--w6---|--------w6--w6-------w6-------w6---|
D|------------w7---w7-----------w7---|--------w7--w7-------w7------------|
A|-----------------------------------|-----------------------------------|
E|-----------------------------------|-----------------------------------|
  Om                                  Nothing's         change   my   world
                                               gonna


  A                                   G                              D
e|0---0--- 0---0-0- 0---0-0- 0-------|3---3--- 3---3--- 3------- 3-------|
B|2---2----2---2-2--2---2-2--2---0---|3---3----3---3----3--------3---3---|
G|2---2----2---2-2--2---2-2--2---0---|0---0----0---0----0--------0---0---|
D|2---2----2---2-2--2---2-2--2---0---|0---0----0---0----0--------0---0---|
A|0---0----0---0-0--0---0-0--0-------|2---2----2---2----2--------2---2---|
E|-----------------------------------|3---3----3---3----3--------3---3---|

e|-------- -------- -------- --------|-------- -------- -------- --------|
B|--------w5--w5---w5--w5---w5--w3---w3-----------w3----------------w3---|
G|--------w6--w6---w6--w6---w6--w4---w4-------w4--w4----------------w4---|
D|--------w7--w7---w7--w7---w7--w5---w5-------w5-------------------------|
A|-----------------------------------|-----------------------------------|
E|-----------------------------------|-----------------------------------|
                                      Nothing's         change   my   world
                                               gonna
 (Aaaaaaaaaaaaaaaaaaaaaaaaaaaaaaaaaaaaah)


                                      A                 A7
e|2---2--- 2---2-2- 2------- 2-------|5------- -------- 3------- --------|
B|3---3----3---3-3--3---3----3---3---|2---2----2---x----2---2----2---x---|
G|2---2----2---2-2--2---2----2---2---|2---2----2---x----2---2----2---x---|
D|0---0----0---0-0--0---0----0---0---|2---2----2---x----2---2----2---x---|
A|0---0----0---0-0--0---0----0---0---|0---0----0--------0---0----0-------|
E|-----------------------------------|-----------------------------------|

e|-------- -------- -------- --------|-------- -------- -------- --------|
Bw7-------w7--w7---w7--w7---w7-------|-----------------------------------|
Gw7-------w7--w7---w7--w7---w7-------|-----------------------------------|
Dw7-------w7--w7---w7--w7---w7-------|-----------------------------------|
A|-----------------------------------|-----------------------------------|
E|-----------------------------------|-----------------------------------|
                                      Nothing's         change   my   world
                                               gonna
 (Aaaaaaaaaaaaaaaaaaaaaaaaaaaaaaaaaaaaah)


  A                                   G
e|0---0--- 0---0-0- 0---0--- 0-0-----|3---3--- 3---3-3- 3---3--- 3---3---|
B|2---2----2---2-2--2---2----2-2--0--|3---3----3---3-3--3---3----3---3---|
G|2---2----2---2-2--2---2----2-2--0--|0---0----0---0-0--0---0----0---0---|
D|2---2----2---2-2--2---2----2-2--0--|0---0----0---0-0--0---0----0---0---|
A|0---0----0---0-0--0---0----0-0-----|2---2----2---2-2--2---2----2---2---|
E|-----------------------------------|3---3----3---3-3--3---3----3---3---|

e|-------- -------- -------- --------|-------- -------- -------- --------|
B|--------w5--w5---w5-------w5--w3---|-----------------------------------|
G|--------w6--w6---w6-------w6--w4---|-----------------------------------|
D|--------w7--w7---w7-------w7--w5---|-----------------------------------|
A|-----------------------------------|-----------------------------------|
E|-----------------------------------|-----------------------------------|
                                      Nothing's         change   my   world
                                               gonna
 (Aaaaaaaaaaaaaaaaaaaaaaaaaaaaaaaaaaaaah)


  D
e|2---2-2- 2---2-2- 2------- 2-------|
B|3---3-3--3---3-3--3---3----3---3---|
G|2---2-2--2---2-2--2---2----2---2---|
D|0---0-0--0---0-0--0---0----0---0---|
A|0---0-0--0---0-0--0---0----0---0---|
E|-----------------------------------|
 (Aaaaaaaaaaaaaaaaaaaaaaaaaaaaaaaaaah)

  D                 Bm                F#m
e|2---2--- 2---2--- 2---2-2- 2-2-2---|2---2--- 2---2--- 2---2--- 2-------|
B|3---3----3---3----3---3-3--3-3-3---|2---2----2---2----2---2----2---0---|
G|2---2----2---2----4---4-4--4-4-4---|2---2----2---2----2---2----2---0---|
D|0---0----0---0----4---4-4--4-4-4---|4---4----4---4----4---4----4---0---|
A|------------------2---2-2--2-2-2---|4---4----4---4----4---4----4-------|
E|-----------------------------------|-----------------------------------|

e|-------- -------- -------- --------|-------- -------- -------- --------|
B|-----------------------------------|--------------------------+12------|
G|-----------------------------------|-----------------------------------|
D|-----------------------------------|-----------------------------------|
A|-----------------------------------|-----------------------------------|
E|-----------------------------------|-----------------------------------|
  Sounds laughter   shades life   are ringing  through  open ears     ex..
       of                of                         my


  Em7               Gm
e|0---0--- 0---0--- 3---3--- --3-3---|3---3--- 3-------|
B|3---3----3---3----3---3------3-3---|3---3----3---x---|
G|0---0----0---0----3---3------3-3---|3---3----3---x---|
D|0---0----0---0----5---5------5-5---|5---5----5---x---|
A|2---2----2---2----5---5------5-5---|5---5----5-------|
E|-----------------------------------|-----------------|

e10------- -------- -------- --------w3--w3---w3--w2---|
Bw8----------------------------------w3--w3---w3--w3---|
Gw9----------------------------------w3--w3---w3--w2---|
Dw9----------------------------------|-----------------|
A|-----------------------------------|-----------------|
E|-----------------------------------|-----------------|
  citing   and  inviting     me

  D                 Bm                F#m
e|2---2--- 2---2-2- 2---2-2- 2-2-2---|2---2--- 2---2--- 2---2--- 2-------|
B|3---3----3---3-3--3---3-3--3-3-3---|2---2----2---2----2---2----2---0---|
G|2---2----2---2-2--4---4-4--4-4-4---|2---2----2---2----2---2----2---0---|
D|0---0----0---0-0--4---4-4--4-4-4---|4---4----4---4----4---4----4---0---|
A|------------------2---2-2--2-2-2---|4---4----4---4----4---4----4-------|
E|-----------------------------------|-----------------------------------|

ew2------- -------- -------- --------|-------- -------- -------- w7------|
Bw3----------------------------------|--------------------------w8-------|
Gw2----------------------------------|-----------------------------------|
D|-----------------------------------|-----------------------------------|
A|-----------------------------------|-----------------------------------|
E|-----------------------------------|-----------------------------------|
   Limitless    undying    love   which    around   me  like a million
                                      shines


  Em7                                 A                          A7
e|0---0-0- 0-0-0-0- 0-0-0--- 0---0---|0---0--- 0-0-0--- 0-0-0--- 3-------|
B|3---3-3--3-3-3-3--3-3-0----2---3---|2---2----2-2-2----2-2-2----2---2---|
G|0---0-0--0-0-0-0--0-0-0----0---0---|2---2----2-2-2----2-2-2----2---2---|
D|0---0-0--0-0-0-0--0-0-0----0---0---|2---2----2-2-2----2-2-2----2---2---|
A|2---2-2--2-2-2-2--2-2-2----2---2---|0---0----0-0-0----0-0-0----0---0---|
E|0---0-0--0-0-0-0--0-0-0----0---0---|-----------------------------------|

e|-------- -------- -------- --------|-------- --------w7/9----- -----w9\|
Bw3--w3---w3-------------------------|-----------------------------------|
Gw4--w4---w4-------------------------|-----------------w7/9-----------w9\|
Dw5--w5---w5-------------------------|-----------------------------------|
A|-----------------------------------|-----------------------------------|
E|-----------------------------------|-----------------------------------|
  suns It  calls    on   and      across   the Universe
                me         on


  D
e|2---2--- 2---2--- 2---2--- 2---2---|2---2--- 2-2-2--- 2-2-2--- 2-------|
B|3---3----3---3----3---3----3---3---|3---3----3-3-3----3-3-3----3---3---|
G|2---2----2---2----2---2----2---2---|2---2----2-2-2----2-2-2----2---2---|
D|0---0----0---0----0---0----0---0---|0---0----0-0-0----0-0-0----0---0---|
A|0---0----0---0----0---0----0---0---|0---0----0-0-0----0-0-0----0---0---|
E|-----------------------------------|-----------------------------------|

e|-------- -------- -------- --------|-------- -------- -------- --------|
B|-----------------------------------|--------------------------w3-------|
G|-----------------------------------|---w2-------w2----------------w2---|
D|-----------------------------------w4-------w4-------------------------|
A|-----------------------------------|-----------------------------------|
E|-----------------------------------|-----------------------------------|
  Jai      guru                  deva

  A                                                     A7
e|0---0--- 0------- 0------- 0-------|5------- 5------- 3------- 3-------|
B|2---2----2---2----2---2----2---0---|2---2----2---2----2---2----2---2---|
G|2---2----2---2----2---2----2---0---|2---2----2---2----2---2----2---2---|
D|2---2----2---2----2---2----2---0---|2---2----2---2----2---2----2---2---|
A|0---0----0---0----0---0----0-------|0---0----0---0----0---0----0---0---|
E|----0----0---0----0---0----0-------|0---0----0---0----0---0----0---0---|

e|-------- -------- -------- --------|-------- -------- -------- --------|
B|--------w5--w5---w5--w5---w5-------|-----------------------------------|
G|--------w6--w6---w6--w6---w6-------|-----------------------------------|
D|--------w7--w7---w7--w7---w7-------|-----------------------------------|
A|-----------------------------------|-----------------------------------|
E|-----------------------------------|-----------------------------------|
  Om                                  Nothing's         change   my   world
                                               gonna


  A                                   G
e|0---0--- 0---0-0- 0---0-0- 0-------|3---3--- 3---3--- 3---3--- 3-------|
B|2---2----2---2-2--2---2-2--2---0---|3---3----3---3----3---3----3---0---|
G|2---2----2---2-2--2---2-2--2---0---|0---0----0---0----0---0----0---0---|
D|2---2----2---2-2--2---2-2--2---0---|0---0----0---0----0---0----0---0---|
A|0---0----0---0-0--0---0-0--0-------|2---2----2---2----2---2----2-------|
E|0---0----0---0-0--0---0-0--0-------|3---3----3---3----3---3----3-------|

e|-------- -------- -------- --------|-------- -------- -------- --------|
B|------------w5---w5--w5---w5--w3---|-----------------w2----------------|
G|------------w6---w6--w6---w6--w4---|-----------------w4----------------|
D|------------w7---w7--w7---w7--w5---|-----------------w5----------------|
A|-----------------------------------|-----------------------------------|
E|-----------------------------------|-----------------------------------|
                                      Nothing's         change   my   world
                                               gonna
(Aaaaaaaaaaaaaaaaaaaaaaaaaaaaaaaaaaah)


  D                                   A                 A7
e|2---2-2- 2---2--- 2---2--- 2---2---|5------- -------- 3------- --------|
B|3---3-3--3---3----3---3----3---3---|2---2----2---2----2---2----2---2---|
G|2---2-2--2---2----2---2----2---2---|2---2----2---2----2---2----2---2---|
D|0---0-0--0---0----0---0----0---0---|2---2----2---2----2---2----2---2---|
A|0---0-0--0---0----0---0----0---0---|0---0----0---0----0---0----0---0---|
E|-----------------------------------|-------------0----0---0----0---0---|

e|-------- -------- -------- --------|-------- -------- -------- --------|
B|--------w7--w7---w7-------w7-------w5----------------------------------|
G|--------w7--w7---w7-------w7-------w6----------------------------------|
D|--------w7--w7---w7-------w7-------w7----------------------------------|
A|-----------------------------------|-----------------------------------|
E|-----------------------------------|-----------------------------------|
                                      Nothing's         change   my   world
                                               gonna
(Aaaaaaaaaaaaaaaaaaaaaaaaaaaaaaaaaaah)


  A                                   G
e|0---0--- 0---0-0- 0---0--- 0-------|3---3--- 3---3--- 3---3-3- 3---3---|
B|2---2----2---2-2--2---2----2---0---|3---3----3---3----3---3-3--3---3---|
G|2---2----2---2-2--2---2----2---0---|0---0----0---0----0---0-0--0---0---|
D|2---2----2---2-2--2---2----2---0---|0---0----0---0----0---0-0--0---0---|
A|0---0----0---0-0--0---0----0-------|2---2----2---2----2---2-2--2---2---|
E|-----------------------------------|3---3----3---3----3---3-3--3---3---|

e|-------- -------- -------- --------|-------- -------- -------- --------|
B|---w5------------w5-------w5-------w3----------------------------------|
G|---w6------------w6-------w6-------w4----------------------------------|
D|---w7------------w7-------w7-------w5----------------------------------|
A|-----------------------------------|-----------------------------------|
E|-----------------------------------|-----------------------------------|
                                      Nothing's         change   my   world
                                               gonna
(Aaaaaaaaaaaaaaaaaaaaaaaaaaaaaaaaaaah)


  D
e|2---2--- 2---2-2- 2---2-2- 2-------|
B|3---3----3---3-3--3---3-3--3---3---|
G|2---2----2---2-2--2---2-2--2---2---|
D|0---0----0---0-0--0---0-0--0---0---|
A|0---0----0---0-0--0---0-0--0---0---|
E|-----------------------------------|
 (Aaaaaaaaaaaaaaaaaaaaaaaaaaaaaaaaaah)
e|-------- -------- -------- --------|
B|--------w7--w7---w7-------w7-------|
G|--------w7--w7---w7-------w7-------|
D|--------w7--w7---w7-------w7-------|
A|-----------------------------------|
E|-----------------------------------|

e|2---2--- 2------- 2---2--- 2---2---|2---2--- 2------- 2---2--- 2-------|
B|3---3----3---3----3---3----3---3---|3---3----3---3----3---3----3---3---|
G|2---2----2---2----2---2----2---2---|2---2----2---2----2---2----2---2---|
D|0---0----0---0----0---0----0---0---|0---0----0---0----0---0----0---0---|
A|0---0----0---0----0---0----0---0---|0---0----0---0----0---0----0---0---|
E|-----------------------------------|-----------------------------------|

e|-------- -------- -------- --------|-------- -------- -------- ---w10--|
Bw7----------------------------------|---------------------w10-----------|
Gw7----------------------------------|--------------------------w11------|
Dw7----------------------------------|-----------------------------------|
A|-----------------------------------|-----------------------------------|
E|-----------------------------------|-----------------------------------|
  Jai      guru                  deva

  D
e|2---2-2- 2---2--- 2-2-2--- 2---2---|----2--- 2------- ----2--- 2-------|
B|3---3-3--3---3----3-3-3----3---3---|3---3----3---3----3---3----3---3---|
G|2---2-2--2---2----2-2-2----2---2---|2---2----2---2----2---2----2---2---|
D|0---0-0--0---0----0-0-0----0---0---|0---0----0---0----0---0----0---0---|
A|0---0-0--0---0----0-0-0----0---0---|0---0----0---0----0---0----0---0---|
E|-----------------------------------|-----------------------------------|

e|-------- -------- -------- --------|-------- -------- -------- --------|
B|---w10-----------------------------|-----------------------------------|
G|------------w11--------------------|-----------------------------------|
D|-----------------------------------|0---0--------------------------0---|
A|-----------------------------------|------------------0---2----4-------|
E|-----------------------------------|---------2---3---------------------|
  Jai      guru                  deva
          (guru                  deva)


  D
e|2---2--- 2---2-2- 2---2--- ----2---|----2--- 2------- 2---2-2- 2-------|
B|3---3----3---3-3--3---3--------3---|----3----3---3----3---3-3--3---3---|
G|2---2----2---2-2--2---2--------2---|----2----2---2----2---2-2--2---2---|
D|0---0----0---0-0--0---0--------0---|----0----0---0----0---0-0--0---0---|
A|0---0----0---0-0--0---0--------0---|----0----0---0----0---0-0--0---0---|
E|-----------------------------------|-----------------------------------|

e|-------- -------- -------- --------|-------- -------- -------- --------|
B|-----------------------------------|-----------------------------------|
G|-----------------------------------|-----------------------------------|
D|0---0--------------------------0---|0------------------------------0---|
A|------------------0---2----4-------|------------------0---2----4-------|
E|---------2---3---------------------|---------2---3---------------------|
  Jai      guru                  deva
 (Jai      guru                  deva)
                                      .............. Fade ...............

  D
e|2-2-2--- 2---2-2- 2-2-2--- ----2---|2---2--- 2-2-2--- 2---2-2- 2-------|
B|3-3-3----3---3-3--3-3-3--------3---|3---3----3-3-3----3---3-3--3---3---|
G|2-2-2----2---2-2--2-2-2--------2---|2---2----2-2-2----2---2-2--2---2---|
D|0-0-0----0---0-0--0-0-0--------0---|0---0----0-0-0----0---0-0--0---0---|
A|0-0-0----0---0-0--0-0-0--------0---|0---0----0-0-0----0---0-0--0---0---|
E|-----------------------------------|-----------------------------------|

e|-------- -------- -------- --------|-------- -------- -------- --------|
B|-----------------------------------|-----------------------------------|
G|-----------------------------------|-----------------------------------|
D|0---0--------------------------0---|0------------------------------0---|
A|------------------0---2----4-------|------------------0---2----4-------|
E|---------2---3---------------------|---------2---3---------------------|
  Jai      guru                  deva
 (Jai      guru                  deva)
  .......................................................................

  D
e|2---2--- 2-2-2--- 2---2-2- 2-------|2---2-2- 2---2--- 2---2--- 2-------|
B|3---3----3-3-3----3---3-3--3---3---|3---3-3--3---3----3---3----3---3---|
G|2---2----2-2-2----2---2-2--2---2---|2---2-2--2---2----2---2----2---2---|
D|0---0----0-0-0----0---0-0--0---0---|0---0-0--0---0----0---0----0---0---|
A|0---0----0-0-0----0---0-0--0---0---|0---0-0--0---0----0---0----0---0---|
E|-----------------------------------|-----------------------------------|

e|-------- -------- -------- --------|-------- -------- -------- --------|
B|-----------------------------------|-----------------------------------|
G|-----------------------------------|-----------------------------------|
D|----0--------------------------0---|0------------------------------0---|
A|------------------0---2----4-------|------------------0---2----4-------|
E|---------2---3---------------------|---------2---3---------------------|
  Jai      guru                  deva
 (Jai      guru                  deva)
  .......................................................................


  D
e|2---2--- 2------- 2---2-2- 2-------|2---2--- 2---2--- 2------- 2-------|
B|3---3----3---3----3---3-3--3---3---|3---3----3---3----3---3----3---3---|
G|2---2----2---2----2---2-2--2---2---|2---2----2---2----2---2----2---2---|
D|0---0----0---0----0---0-0--0---0---|0---0----0---0----0---0----0---0---|
A|0---0----0---0----0---0-0--0---0---|0---0----0---0----0---0----0---0---|
E|-----------------------------------|-----------------------------------|

e|-------- -------- -------- --------|-------- -------- -------- --------|
B|-----------------------------------|-----------------------------------|
G|-----------------------------------|-----------------------------------|
D|----0--------------------------0---|0---0--------------------------0---|
A|------------------0---2----4-------|------------------0---2----4-------|
E|---------2---3---------------------|---------2---3---------------------|
  Jai      guru                  deva
 (Jai      guru                  deva)
  .......................................................................


        B  Bend
        R  Release
        /  Slide up
        \  Slide down
        H  Hammer-on
        P  Pull-off
        ~  Vibrato
        +  Harmonic
        x  Mute note
        .  Play note like a dot in standard notation
        ^  Ties two notes together
        (. Pause
        w  Wah

    ------------------------------------------------------------

    THE BEATLES - LET IT BE (Lennon & McCartney). Released as a
                  single w YOU KNOW MY NAME (LOOK UP THE NUMBER)
                  as the B side on 6th March 1970.

    ------------------------------------------------------------

    Tabbed by:PJVillanueva


    When I find myself in times of trouble
    Mother Mary comes to me
    Speaking words of wisdom, let it be.

    And in my hour of darkness
    She is standing right in front of me
    Speaking words of wisdom, let it be.

    Let it be, let it be.
    Let it be, let it be.
    Whisper words of wisdom, let it be.

    And when the broken hearted people
    Living in the world agree,
    There will be an answer, let it be.

    For though they may be parted there is
    Still a chance that they will see
    There will be an answer, let it be

    Let it be, let it be.
    Let, let it, let it be.
    Yeah, there will be an answer, let it be.

    Let it be, let it be.
    Let it be, let it be.
    Whisper words of wisdom, let it be.

    (Instrumental Break)

    Let it be, let it be.
    Let it be, let it be.
    Whisper words of wisdom, let it be.

    And when the night is cloudy,
    There is still a light that shines on me.
    Shine on 'til tomorrow, let it be.

    I wake up to the sound of music
    Mother Mary comes to me
    Speaking words of wisdom, let it be.

    Let it be, let it be.
    Let it be, yeah let it be.
    Oh there will be an answer, let it be.

    Let it be, let it be.
    Let it be, yeah let it be.
    Oh there will be an answer, let it be.

    Let it be, let it be.
    Let it be, yeah let it be.
    Whisper words of wisdom, let it be.


    C               G               Am              Fmaj7   F6
  e|0------ 0------ 3------ 3------|0------ 0---0-- 0------ -------|
  B|1-------1-------3-------3------|1-------1---1---1-------3------|
  G|0-------0-------0-------0------|2-------2---2---2-------2------|
  D|-------------------------------|------------------------3------|
  A|3---3-------3------------------|0---0--------------------------|
  E|--------------2/3---3-------3--|------------3---1---1-------1--|


    C               G               F               C
  e|0------ 0------ 3------ 3------|5------ 3---1-- 0------ -------|
  B|1-------1-------3-------3------|6-------5---3---1--------------|
  G|0-------0-------0-------0------|----------------0--------------|
  D|-------------------------------|3------------------------------|
  A|3---3-------3------------------|----------------3---3---3---3--|
  E|--------------2/3----3------3--|-------------------------------|
                                                                When
                                                                  I


    00:13
    C               G               Am              Fmaj7   F6
  e|0------ 0------ 3------ 3------|0------ 0---0-- 0------ -------|
  B|1-------1-------3-------3------|1-------1---1---1-------3------|
  G|0-------0-------0-------0------|2-------2---2---2-------2------|
  D|-------------------------------|------------------------3------|
  A|3---3-------3------------------|0---0--------------------------|
  E|--------------2/3---3-------3--|------------3---1---1-------1--|
    find        in  times   trouble Mother      comes   to
        myself          of              Mary              me

    C               G               F               C
  e|0------ 0------ 3------ 3------|------- ------- 0------ 0------|
  B|1-------1-------3-------3------|----------------1-------1------|
  G|0-------0-------0-------0------|2-------0-------0-------0------|
  D|-------------------------------|3-------2---3---2--------------|
  A|3---3-------3------------------|------------5---3---3-------3--|
  E|--------------2/3---3-------3--|1---1--------------------------|
    speaking    of            Let be                              And
            words wisdom        it

    00:26
    C               G               Am              Fmaj7   F6
  e|0------ 0------ 3------ 3------|0------ 0---0-- 0------ -------|
  B|1-------1-------3-------3------|1-------1---1---1-------3------|
  G|0-------0-------0-------0------|2-------2---2---2-------2------|
  D|-------------------------------|------------------------3------|
  A|3---3--------------------------|0------------------------------|
  E|--------------2/3-----------3--|------------3---1-----------1--|
    in    hour  of          she is          right in    of
      my          darkness        standing          front me

    C               G               F               C
  e|0------ 0------ 3------ 3------|------- ------- 0------ 0------|
  B|1-------1-------3-------3------|----------------1-------1------|
  G|0-------0-------0-------0------|2-------0-------0-------0------|
  D|-------------------------------|3-------2---3---2--------------|
  A|3---3--------------------------|------------5---3---3---3---2--|
  E|--------------2/3---3-------3--|1---1--------------------------|
    speaking    of            Let be                        Let   be
            words wisdom        it                             it

    00:39
    Am              Am7             Fmaj7           C
  e|0------ 0------ 0------ 0------|0------ 0------ 0------ 0------|
  B|1-------1-------1-------1------|1-------1-------1-------1------|
  G|2-------2-------2-------2------|2-------2-------0-------0------|
  D|-------------------------------|-------------------------------|
  A|0-----------0------------------|----------------3---3---3---3--|
  E|----------------3---3---3---3--|1-------1----------------------|
            let   be        let   be        let   be
               it             it              it


  e|0------ 0------ 3------ 3------|------- ------- 0---0-- 0---0--|
  B|1-------1-------3-------3------|----------------1---1---1---1--|
  G|0-------0-------0-------0------|2-------0-------0---0---0---0--|
  D|-------------------------------|3-------2---3------------------|
  A|3---3-------3------------------|------------5---3---3---3---3--|
  E|--------------2/3---3-------3--|1---1--------------------------|
      Whisper   of            let be                            And
          words   wisdom        it


    00:52

  e|0------ 0------ 3------ 3------|0------ 0---0-- 0------ -------|
  B|1-------1-------3-------3------|1-------1---1---1-------3------|
  G|0-------0-------0-------0------|2-------2---2---2-------2------|
  D|-------------------------------|------------------------3------|
  A|3---3-------3------------------|0---0--------------------------|
  E|--------------2/3-----------3--|------------3---1---1-------1--|
    when  broken          people    living      the     agree
        the     hearted                 in        world


  e|0------ 0------ 3------ 3------|------- ------- 0---0-- 0------|
  B|1-------1-------3-------3------|1---------------1---1---1------|
  G|0-------0-------0-------0------|2-------0-------0---0---0------|
  D|-------------------------------|3-------2---3------------------|
  A|3---3-------3------------------|------------5---3-------3------|
  E|--------------2/3-----------3--|----1--------------------------|
    There will  an            let be                              For
              be  answer        it

    01:05

  e|0------ 0------ 3------ 3------|0------ 0---0-- 0------ -------|
  B|1-------1-------3-------3------|1-------1---1---1-------3------|
  G|0-------0-------0-------0------|2-------2---2---2-------2------|
  D|-------------------------------|------------------------3------|
  A|3---3-------3------------------|0------------------------------|
  E|--------------2/3---3----------|------------3---1-------1---1--|
    though    be              there still       that    will
        they    parted          is    a chance    they    see
          may

                                                      xxx x X X x
  e|0------ 0------ 3------ 3------|------- ------- 0------ 0------|
  B|1-------1-------3-------3------|----------------1-------1------|
  G|0-------0-------0-------0------|2-------0-------0-------0------|
  D|-------------------------------|3-------2---3---2--------------|
  A|3---3--------------------------|------------5---3---3---3---2--|
  E|------------0-2-3---3-------3--|1---1--------------------------|
    There will  an            let be                        Let   be
            be    answer        it                            it

    01:19

  e|0------ 0------ 0------ 0------|0------ 0------ 0------ 0------|
  B|1-------1-------1-------1------|1-------1-------1-------1------|
  G|2-------2-------2-------2------|2-------2-------0-------0------|
  D|-------------------------------|-------------------------------|
  A|0---0-------0------------------|----------------3---3-------3--|
  E|----------------3---3-------3--|1---1-------1------------------|
            let   be        let   be        let   be              Yeah
               it             it              it


  e|0------ 0------ 3------ 3------|------- ------- 0---0-0 0---0--|
  B|1-------1-------3-------3------|----------------1---1-1-1---1--|
  G|0-------0-------0-------0------|2-------0-------0---0-0-0---0--|
  D|-------------------------------|3-------2---3------------------|
  A|3---3-------3------------------|------------5---3---3---3---3--|
  E|----------------3---3-------3--|1------------------------------|
    there   be  answer        let be                          Let be
          will an               it                              it

    01:32

  e|0------ 0------ 0------ 0------|0------ 0------ 0------ 0------|
  B|1-------1-------1-------1------|1-------1-------1-------1------|
  G|2-------2-------2-------2------|2-------2-------0-------0------|
  D|-------------------------------|-------------------------------|
  A|0---0-------0------------------|----------------3---3-------3--|
  E|----------------3---3-------3--|1---1-------1------------------|
            let   be        let   be        let   be
               it             it              it


  e|0------ 0------ 3------ 3------|------- ------- 0---0-0 0-0-0--|
  B|1-------1-------3-------3------|----------------1---1-1-1-1-1--|
  G|0-------0-------0-------0------|2-------0-------0---0-0-0-0-0--|
  D|-------------------------------|3-------2---3------------------|
  A|3---3-------3------------------|------------5---3---3---3---3--|
  E|----------------3---3-------3--|1------------------------------|
    whisper     of            let be
          words   wisdom        it

    F               C       Bb  F   G       F       C
  e|5------ ------- ------- -------|------- ------- ------- -------|
  B|6-------8---6---5-------3---1--|0-------1-------1--------------|
  G|5-------5---5---5-------3---2--|0-------2-------0--------------|
  D|----------------5-------3---3--|0-------3-------2--------------|
  A|-------------------------------|----------------3-------3------|
  E|-------------------------------|3---3---1---1------------------|

  e|------- ------- ------- -------|------- ------- ------- -------|
  B|-------------------------------|-------------------------------|
  G|2-------0---0------------------|-------------------------------|
  D|3-------2---0---2-------0------|-------------------------------|
  A|----------------3-------1---3--|2-------3-------3--------------|
  E|----------------------------5--|3-------1-------0--------------|

  e|5------ 3---3-- ------- -------|------- ------- ----3-3 3-3----|
  B|6-------5---3---5-------3---1--|0-------1-------1---5-5\3-1----|
  G|5-------5---4---5-------3---2--|0-------2-------0-----------2--|
  D|----------5---5-5---------3---0|0-------3-------2--------------|
  A|-------------------------------|----------------3--------------|
  E|-------------------------------|3-------1-------0--------------|

  e|------- ------- ------- -------|------- ------- ------- -------|
  B|-------------------------------|-------------------------------|
  G|-------------------------------|-------------------------------|
  D|-------------------------------|-------------------------------|
  A|-------------------------------|-------------------------------|
  E|-------------------------------|----------------------------3H5|

    SOLO
    02:00

  e|0---0-- 0---0-- 3---3-- 3---3--|0---0-- 0---0-- 0---0-- -------|
  B|1---1---1---1---3---3---3---3--|1---1---1---1---1---1---3---3--|
  G|0---0---0---0---0---0---0---0--|2---2---2---2---2---2---2---2--|
  D|-------------------------------|------------------------3---3--|
  A|3-------3----------------------|0-------0----------------------|
  E|----------------3-------3------|----------------3-------1------|

  e|------- ------- ------- -------|------- ------- ------- -------|
  B|-------------------------------|---------------------------------|
  G|-------------------------------|---------------------------------|
  D|---------BR--------------------|----5---7P5----------------------|
  A|3---3---575-3---5---5-------3H5/7-----------7\5-3-------------5--|
  E|------------------------3H5----|---------------------------------|

  e|0---0-- 0---0-- 3---3-- 3---3--|------- ------- ----0-0 --0-0--|
  B|1---1---1---1---3---3---3---3--|1---1---1---0---1---1-1---1-1--|
  G|0---0---0---0---0---0---0---0--|2-------0---0---0---0-0---0-0--|
  D|-------------------------------|3-------2---0---2--------------|
  A|3-------3----------------------|----------------3---3---3---3--|
  E|----------------3-------3------|-------------------------------|

  e|------- ------- ------- -------|------- ------- ------- -------|
  B|------------------8-10P8-------|---------------------------------|
  G|--------------5-79------9\7-5--|7P5------------------------------|
  D|--5-5---5---7----/-------------|----7-5--------------------------|
  A|7-----7------------------------|----------7\5---3-------------5--|
  E|-------------------------------|----------------------------35---|
                                                                 P


  e|0---0-- 0---0-- 3---3-- 3---3--|0---0-0 ----0-- 0------ -------|
  B|1---1---1---1---3---3---3---3--|1---1-1-----1---1-------3------|
  G|0---0---0---0---0---0---0---0--|2---2-2-----2---2-------2------|
  D|-------------------------------|------------------------3------|
  A|3-------3----------------------|0-------0----------------------|
  E|----------------3-------3------|------------3---1-------1------|

  e|------- ------- ------- -------|------- ------- ------- -------|
  B|-------------------------------|----8---10P8------------------5--|
  G|--------------7/9--7-5H7------7/9-----------9\7-5-----------57---|
  D|------5/7---5-----------7--5H7-|-----------------------------H---|
  A|7---3--------------------------|---------------------------------|
  E|-------------------------------|---------------------------------|

  e|0------ 0------ 3------ 3------|------- ------- ------- -------|
  B|1-------1-------3-------3------|1---1---1---0---1-------0------|
  G|0-------0-------0-------0------|2---2---0---0---0-------0------|
  D|-------------------------------|3---3---2---0---2-------2------|
  A|3-------3----------------------|----------------3-------2------|
  E|----------------3-------3------|-------------------------------|

  e|----8-- ------- 101210- 8-----8|------- ------- ------- -------|
  B|--------10P8------B--------10-8|----10\8-----------------------|
  G|9-----------9------------------|---9----9\7-5---5--------------|
  D|-------------------------------|-------------------------------|
  A|-------------------------------|-------------------------------|
  E|-------------------------------|-------------------------------|
                                                            Let   be
                                                              it


    02:27

  e|0------ 0------ 0------ 0------|0------ 0------ 0------ 0------|
  B|1-------1-------1-------1------|1-------1-------1-------1------|
  G|2-------2-------2-------2------|2-------2-------0-------0------|
  D|-------------------------------|-------------------------------|
  A|0-----------0------------------|----------------3-------3------|
  E|----------------3---3---3---3--|1-------1----------------------|
            let   be        let   be    eh  let   be
               it             it              it

  e|0------ 0------ 3------ 3------|------- ------- ------- -------|
  B|1-------1-------3-------3------|-------------------------------|
  G|0-------0-------0-------0------|2-------0----------------------|
  D|-------------------------------|3-------2---3------------------|
  A|3-------3----------------------|------------5------------------|
  E|--------------2/3-------3------|1------------------------------|
    Whisper       of          let be        Eeeeeeeeeee           And
          words     wisdom      it


    02:41

  e|0------ 0---0-- 3------ 3------|0------ 0---0-- 0------ -------|
  B|1-------1---1---3-------3------|1-------1---1---1-------3------|
  G|0-------0---0---0-------0------|2-------2---2---2-------2------|
  D|-------------------------------|------------------------3------|
  A|3-------3----------------------|0---0---0----------------------|
  E|----------------3-------3------|------------3---1-------1---1--|
    when  night is          there   still       that  on
        the       cloudy        is    a light     shines  me


  e|0------ 0------ 3------ 3------|------- ------- 0------ 0------|
  B|1-------1-------3-------3------|1---------------1-------1------|
  G|0-------0-------0-------0------|2-------0-------0-------0------|
  D|-------------------------------|3-------2---3------------------|
  A|3---3-------3------------------|------------5---3-------3------|
  E|--------------2/3-------3------|1------------------------------|

  e|------- ------- ------- -------|------- ------- ------- -------|
  B|-------------------------------|-------------------------------|
  G|-------------------------------|----------------5---5----------|
  D|-------------------------------|----------------5H7-5----------|
  A|-------------------------------|------------------------7\5-3H5|
  E|-------------------------------|-------------------------------|
    shine       tomorrow      let be                              I
          until                  it

    02:55

  e|0------ 0------ 3------ 3------|1------ 0---0-- 0------ -------|
  B|1-------1-------3-------3------|1-------1---1---1-------3------|
  G|0-------0-------0-------0------|2-------2---2---2-------2------|
  D|-------------------------------|------------------------3------|
  A|3---3-------3------------------|0-------0----------------------|
  E|--------------2/3-------3------|------------3---1-------1---1--|

  e|------- ------- ------- -------|------- ------- ------- -------|
  B|-------------------------------|-------------------------------|
  G|-------------------------------|-------------------------------|
  D|-------------------------------|-------------------------------|
  A|3------------------------------|-------------------------------|
  E|-------------------------------|-------------------------------|
    wake    to  the     of          mother        comes me
        up        sound   music         Mary          to


  e|0------ 0------ 3------ 3------|------- ------- 0------ 0------|
  B|1-------1-------3-------3------|1---------------1-------1------|
  G|0-------0-------0-------0------|2-------0-------0-------0------|
  D|-------------------------------|3-------2---3---2--------------|
  A|3---3--------------------------|------------5---3---3---3---2--|
  E|------------0---3-------3------|1---1--------------------------|
    speaking    of            Let be            Eeeeeee ah  Let   be
            words   wisdom      it                            it

    03:09

  e|0------ 0------ 0------ 0------|0------ 0------ 0---0-0 --0-0--|
  B|1-------1-------1-------1------|1-------1-------1---1-1---1-1--|
  G|2-------2-------2-------2------|2-------2-------0---0-0---0-0--|
  D|-------------------------------|-------------------------------|
  A|0---0-------0------------------|----------------3-------3------|
  E|----------------3---3-------3--|1-------1----------------------|
            let   be        let   be    eh  let   be              Oh
               it             it              it


  e|0------ 0------ 3------ 3------|------- ------- 0---0-0 0---0--|
  B|1-------1-------3-------3------|----------------1---1-1-1---1--|
  G|0-------0-------0-------0------|2-------0-------0---0-0-0---0--|
  D|-------------------------------|3-------2---3------------------|
  A|3---3-------3------------------|------------5---3-------3------|
  E|----------------3---3-------3--|1---1--------------------------|

  e|------- ------- ------- -------|------- ------- ------- -------|
  B|-------------------------------|-------------------------------|
  G|--------------------7B9-7P5-7--|5-----------5---5-------------5|
  D|-------------------------------|--------5H7----------------5H7-|
  A|-------------------------------|-------------------------------|
  E|-------------------------------|----------------------------3H5|
    there     be  answer      let be.           Eeeeeee     Let   be
          will  an              it                            it

    03:23

  e|0------ 0------ 0------ 0------|0------ 0------ 0---0-- 0---0--|
  B|1-------1-------1-------1------|1-------1-------1---1---1---1--|
  G|2-------2-------2-------2------|2-------2-------0---0---0---0--|
  D|-------------------------------|-------------------------------|
  A|0---0-------0------------------|----------------3-------3------|
  E|----------------3---3-------3--|1---1-------1------------------|

  e|------- ------- ------- -------|------- ------- ------- -------|
  B|-------------------------------|----------8-8---8----------1513|
  G|----5-------5------------------|5-------79----9-----------B--R-|
  D/7-------5H7--------------------|---------/---------------------|
  A|----------------7\5-3-5-3------|-------------------------------|
  E|-------------------------------|-------------------------------|
            let   be        let   be    eh  let   be
               it             it              it


  e|0------ 0------ 3------ 3------|------- ------- 0---0-0 0-0-0--|
  B|1-------1-------3-------3------|----------------1---1-1-1-1-1--|
  G|0-------0-------0-------0------|2-------0-------0---0-0-0-0-0--|
  D|-------------------------------|3-------2---3------------------|
  A|3---3---3---3------------------|------------5---3-------3------|
  E|----------------3---3---3---3--|1------------------------------|

  e|------- ------- ------- -------|------- ------- ------- -------|
  B|-------------------------------|-------------------------------|
  G|14--------------12-------------|-------------------------------|
  D|-------------------1412--101214|10----------10--10-------------|
  A|---------------------\-------/-|--------1012-------------------|
  E|-------------------------------|----------H--------------------|
    Whisper       of          let be    Eeeeeeeeeeeeeeeee
          words     wisdom      it


                                                   (.

  e|5------ 3---1-- ------- -------|------- ------- ------- -------|
  B|6-------5---1---5-------3---1--|0-------1-------1--------------|
  G|5-------0---0---5-------3---2--|0-------2-------0--------------|
  D|----------------5-------3---3--|0-------3-------2--------------|
  A|-------------------------------|----------------3--------------|
  E|-------------------------------|3-------1-------0--------------|

  e|------- ------- ------- -------|------- ------- ------- -------|
  B|-------------------------------|-------------------------------|
  G|2-------0---0------------------|-------------------------------|
  D|3-------2---0---2-------0------|-------------------------------|
  A|----------------3-------1---3--|2-------3-------3--------------|
  E|----------------------------5--|3-------1-------0--------------|


        B  Bend
        R  Release
        /  Slide up
        \  Slide down
        H  Hammer-on
        P  Pull-off
        ~  Vibrato
        +  Harmonic
        x  Mute note
        .  Play note like a dot in standard notation
        ^  Ties two notes together
        (. Pause
comments
We did not receive enough feedback on this tab! Please rate:
print report bad tab
1 2 3 4 5
1 comment total.
0 reply
Tone Jones wrote on December 20 2010, 02:23 pm

For Easy Guitar

I want to post or [tab]
guest
You may want to rate the tab now too:
select rating
Please do not post tabs as comments. Select "correction" instead!