Oops, an error
Loading. Please wait.

Let It Be Tab

ver5
17,577 views 3 this week
no commentswrite comment
1 2 3 4 5
worth learning
x 3
Autoscroll
+/-
esc
set tempo
stop
Contributor
Difficulty
intermediate
Hey! There's an official Ultimate Guitar app which is ideal
for learning songs when you're away from computer. Get the app
WARNING: You are trying to view
                                    content from Ultimate-Guitar.com
                                    in an unauthorized application,
                                    which is prohibited.

                                    Please use an official Ultimate
                                    Guitar Tabs application for iPhone,
                                    iPad or Android to access legitimate
                                    chords, guitar, bass, and drum tabs
                                    from Ultimate-Guitar.com database.

                                    Type "ultimate guitar tabs" in Apple
                                    App Store's or Android Market's
                                    search to find the application.
Gtr I (E A D G B E) - 'Rock Organ'
Gtr II (E A D G B E) - 'Piano'
Gtr III (E A D G B E) - 'E.Piano Chorused'
Gtr IV (E A D G B E) - 'Gtr 1 Overdrv Main'


  Q=70
 4/4
  Gtr II
|---------|-8---8-----3-0-3---|-0---0-0-0-------|-3---3-----3-0-3----|
|---------|-8---8-----3---3---|-1---1-1-1---3---|-5---5-----3---3----|
|---------|-9---9-----4---4---|-2---2-2-2---5---|-5---5-----4---4----|
|---------|-------------------|-------------7---|--------------------|
|---------|-------------------|---0-------------|---3---3------------|
|---------|---8---8-1-3-----3-|-----------1---1-|---------1-3-----3--|


|-5---3-1-3-------|-8---8-----3-0-3---|-0---0---0-----0-|-3---3-----3-0-3---|
|-6---5-3-5-------|-8---8-----3---3---|-1---1-5-1---3---|-5---5-----3---3---|
|---------5-------|-9---9-----4---4---|-2---2---2---5---|-5---5-----4---4---|
|-----------------|-------------------|-------------7---|-------------------|
|-----------3-3-3-|-------------------|---0-------------|---3---3-----------|
|---1-------------|---8---8-1-3-----3-|-------3-1-1-----|---------1-3-----3-|


|-1---3-1-3---3---|-8---8-----3-0-3---|-0---0---0-----0-|-3---3-----3-0-3---|
|-1---5-1-5---5---|-8---8-----3---3---|-1---1-1-1---3---|-5---5-----3---3---|
|-2---5---5---5---|-9---9-----4---4---|-2---2-2-2---5---|-5---5-----4---4---|
|-----------------|-------------------|-------------7---|-------------------|
|-----------3---3-|-------------------|---0-------------|---3---3-----------|
|---1-0-----------|---8---8-1-3-----3-|---------1-1-----|---------1-3-----3-|


  Gtr I
|-----------------|-20-------20-------|
|-----------------|-22-------20-------|
|-----------------|-21-------21-------|
|-----------------|-------------------|
|-----------------|-------------------|
|-----------------|-------------------|
|
| Gtr II
|-1---3---3---3---|--5---5----3---3---|
|-1---5-1-5---5---|--5---5----5---5---|
|-2---5---5---5---|--5---5----5---5---|
|-----------------|-------------------|
|-----------3-2-2-|-------------------|
|---1-0-----------|--5-5---5--3-3---3-|


|-20-------20-------|-20---------19--------|
|-22-------20-------|-20---------20--------|
|-22-------21-------|-21---------19--------|
|-------------------|----------------------|
|-------------------|----------------------|
|-------------------|----------------------|
|
|--1---1----3---3---|--3-0-3------3-0-3----|
|--1---1----5---5---|--5---5------3---3----|
|--2---2----5---5---|--5---5------4---4----|
|-------------------|----------------------|
|-------------3---3-|--3-----3-------------|
|----1---1----------|----------1--3-----3--|


|-17---15-13-15-------|-------------------|
|-18---17-15-17-------|-------------------|
|-17---17-17-17-------|-------------------|
|---------------------|-------------------|
|---------------------|-------------------|
|---------------------|-------------------|
|
|--5----3--1--3-------|-8---8-----3-0-3---|
|--6----5--1--5-------|-8---8-----3---3---|
|--5----5-----5-------|-9---9-----4---4---|
|---------------------|-------------------|
|---------------3-3-3-|-------------------|
|----1--0-------------|-8-8---8-1-3-----3-|


|-----------------|-------------------|
|-----------------|-------------------|
|-----------------|-------------------|
|-----------------|-------------------|
|-----------------|-------------------|
|-----------------|-------------------|
|
|-0---0-0-0-----0-|-3-0-3-----3-0-3-0-|
|-1---1-1-1---3---|-5---5-----3---3---|
|-2---2-2-2---5---|-5---5-----4---4---|
|-------------7---|-------------------|
|---0-------------|-3-----3-----------|
|---------1-1-----|---------1-3-------|


  Gtr II
|-1---3---3---3---|-8---8-----3-0-3---|---0---0------0-|-3-0-3---3-0-3----|
|-1---5-3-5---5---|-8---8-----3---3---|-5---5------3---|-5---5---3---3----|
|-2---5-5-5---5---|-9---9-----4---4---|-5---5---5--5---|-5---5---4---4----|
|-----------------|-------------------|-7---7------7---|------------------|
|-----------3-3-3-|-------------------|-0----------3---|-3-----3----------|
|---1-0-----------|-8-8---8-1-3-----3-|----------------|---------3-----3--|


  Gtr I
|----------------|-20-------19-------|
|----------------|-22-------20-------|
|----------------|-21-------19-------|
|----------------|-------------------|
|----------------|-------------------|
|----------------|-------------------|
|
| Gtr II
|-1--3-1-3---3---|--5---5----3---3---|
|-1--5---5---5---|--5---5----5---5---|
|-2--5---5---5---|--5---5----5---5---|
|----------------|-------------------|
|----------3-3-2-|-------------------|
|-1--0-----------|----5---5----3---3-|


|-20-------20-------|-20---------19--------|
|-22-------20-------|-20---------20--------|
|-22-------21-------|-21---------19--------|
|-------------------|----------------------|
|-------------------|----------------------|
|-------------------|----------------------|
|
|--1---1----3---3---|--3-0-3------3-0-3----|
|--1---1----5---5---|--5---5------3---3----|
|--2---2----5---5---|--5---5------4---4----|
|-------------------|----------------------|
|-------------3---3-|--3-----3-------------|
|--1-1---1----------|----------1--3-----3--|


|-17---15-13-15-------|-----------------|-----------------|--------------------|
|-18---17-15-17-------|-----------------|-----------------|--------------------|
|-17---17-17-17-------|-----------------|-----------------|--------------------|
|---------------------|-----------------|-----------------|--------------------|
|---------------------|-----------------|-----------------|--------------------|
|---------------------|-----------------|-----------------|--------------------|
|
|--5----3--1--3-------|-5---5---3---3---|-1---1---3---3---|-3-0-3-----3-0-3----|
|--6----5--3--5-------|-5---5---5---5---|-1---1---5---5---|-5---5-----3---3----|
|--5----5--5--5-------|-5---5---5---5---|-2---2---5---5---|-5---5-----4---4----|
|---------------------|-----------------|-----------------|--------------------|
|---------------3-3-2-|-----------------|-----------3---3-|-3-----3------------|
|----1--0-------------|---5---5---3---3-|-1-1---1---------|---------1-3-----3--|


  Gtr II
|-5---3---3-------|--5--3-1-0------|
|-6---5-3-5-------|-----5--------1-|
|-5---5-5-5-------|------------3-2-|
|-----------------|----------------|
|-----------3-3-3-|----------------|
|---1-0-----------|--1--0----------|
|
| Gtr III
|-----------------|----------------|
|-----------------|-10--8-6-5--3-1-|
|-----------------|-10--9-7-5--3-2-|
|-----------------|----------------|
|-----------------|----------------|
|-----------------|----------------|


               Gtr I
|----0-------|-----20----20----20--18---20---|
|-0----------|-----20----18----20--18---22---|
|------------|-----21----19----21--19---22-0-|
|-0-----5----|------------------------3------|
|-------3----|-----19----17------------------|
|------------|-13-----15----15-20--18--------|
|
|------------|-------------------------------|
|-0----------|-------------------------------|
|-0--2--0----|-------------------------------|
|----3--2----|-------------------------------|
|------------|-------------------------------|
|------------|-------------------------------|


|-15--13--20----------|-20-----------19-------------|-17---------17-------|
|-15------17----------|-20-----------20-------------|-17---------18-------|
|---------------------|-21-----------19-------------|-17---------17-------|
|---------------------|-----------------------------|---------------------|
|---------------------|-----------------------------|---------------------|
|-15--13--------------|-----------------------------|---------------------|
|
| Gtr II
|---------------------|--8---8--------3-0--3--------|--0---0-0----0-------|
|---------------------|--8---8--------3----3--------|--1---1-1----1---3---|
|---------------------|--9---9--------4----4--------|--2---2------2---5---|
|---------------------|-----------------------------|-----------------7---|
|---------------------|-----------------------------|----0----------------|
|---------------------|----8-----8-1--3---------3---|--------3------1---1-|
|
| Gtr IV
|---------------------|-----------------------------|--0------------------|
|------------1--1-----|---------------------------1-|--3-----5-3--1-------|
|------------2--0-----|--------0-0----0---(0)-0-2---|---------------------|
|------------5----2-0-|------2-----2----------------|---------------------|
|---------------------|--3-3-5----------------------|---------------------|
|---------------------|-----------------------------|---------------------|


|-20-------------19---------|-17---------------15------------|
|-20-------------20---------|-18---------------17------------|
|-21-------------19---------|-17---------------17------------|
|---------------------------|--------------------------------|
|---------------------------|--------------------------------|
|---------------------------|--------------------------------|
|
|--3-----3--------3-0-3-----|--5-------3---1----3------------|
|--5-----5--------3---3-----|--6-------5---3----5------------|
|--5-----5--------4---4-----|--5-------5---5----5------------|
|---------------------------|--------------------------------|
|----3-------3--------------|---------------------3-3---3----|
|--------------1--3-------3-|------1---0---------------------|
|
|----0-8----------0-5-------|--------------------------------|
|----3---------3--3---5-3-1-|--------------------------------|
|--------9-7-5--------------|--2-0-2-0--------------------5--|
|---------------------------|----------2-0------------5-7----|
|---------------------------|--------------3-5--3------------|
|---------------------------|--------------------------------|


|-20------------19-------------|
|-20------------20-------------|
|-21------------19-------------|
|------------------------------|
|------------------------------|
|------------------------------|
|
|--8-0---8-------3----0-3------|
|--8-----8-------3------3------|
|--9-----9-------4------4------|
|------------------------------|
|------------------------------|
|--8--------8-1--3----------3--|
|
|-----------3---(3)---3-----3--|
|--------5----------3-5---3-5--|
|--5---5-7---------------------|
|----7-------------------------|
|------------------------------|
|------------------------------|


|-17-----------17-------------|-20---------19------------|
|-17-----------18-------------|-20---------20------------|
|-17-----------17-------------|-21---------19------------|
|-----------------------------|--------------------------|
|-----------------------------|--------------------------|
|-----------------------------|--------------------------|
|
|----0----------0--------0----|--3-0-3------3--0-3-------|
|--5---5--------1---3---------|--5---5------3----3-------|
|--5---5--------2---5---------|--5---5------4----4-------|
|--7---7------------7---------|--------------------------|
|--0----------------3---------|--3-----3-----------------|
|----------3------------------|-------------3------3-----|
|
|--5-----3-5-8-12--12-10-8-10-|--8---------17-15---------|
|--------------15-------------|----------------------17--|
|-----------------------------|--------------------------|
|-----------------------------|----------9---------------|
|-----------------------------|--------------------------|
|-----------------------------|--------------------------|


|-17--------------------15-------|----------12-------|
|-18--------------------17-------|-13-------13-------|
|-17--------------------17-------|-14-------12-------|
|--------------------------------|-14----------------|
|--------------------------------|-------------------|
|--------------------------------|-------------------|
|
|--1---------3-----------3---3---|--5---5----3---3---|
|--1---------5-----3-----5---5---|--5---5----5---5---|
|--2---------5-----------5---5---|--5---5----5---5---|
|--------------------------------|-------------------|
|--------------------------3-3-2-|-------------------|
|--1-----1---0-------------------|----5---5----3---3-|
|
|--------------------------------|-------------------|
|-15-13-15--17-15-13-15-13-------|-------------------|
|--------------------------------|-------------------|
|--------------------------------|-------------------|
|--------------------------------|-------------------|
|--------------------------------|-------------------|


|-12-------8-------|-8---------10--------|
|-10-------8-------|-8---------12--------|
|-10-------9-------|-9---------12--------|
|------------------|---------------------|
|------------------|---------------------|
|------------------|---------------------|
|
|--1---1---3---3---|-3-0-3------3-0-3----|
|--1---1---5---5---|-5---5------3---3----|
|--2---2---5---5---|-5---5------4---4----|
|------------------|---------------------|
|------------3---3-|-3-----3-------------|
|----1---1---------|---------1--3-----3--|
|
|------------------|---------------------|
|------------------|---------------------|
|------------------|---------------------|
|------------------|---------------------|
|------------------|---------------------|
|------------------|---------------------|


|-------------------|-8---------7-------|
|-10--------8-------|-8---------8-------|
|-10--------9-------|-9---------7-------|
|-10-------10-------|-------------------|
|-------------------|-------------------|
|-------------------|-------------------|
|
|--5---3-1--3-------|-8---8-----3-0-3---|
|--6---5-3--5-------|-8---8-----3---3---|
|--5---5----5-------|-9---9-----4---4---|
|-------------------|-------------------|
|-------------3-3-3-|-------------------|
|----1-0------------|-8-8---8-1-3-----3-|


|--8-------13-------|-12---------10-------|
|-10-------13-------|-13---------12-------|
|--9-------14-------|-12---------12-------|
|-------------------|---------------------|
|-------------------|---------------------|
|-------------------|---------------------|
|
|--0---0----0-----0-|--3-0-3------3-0-3---|
|--1---1----1---3---|--5---5------3---3---|
|--2---2----2---5---|--5---5------4---4---|
|---------------7---|---------------------|
|----0--------------|--3-----3------------|
|--------3--1-1-----|----------1--3-----3-|


|-13---12-10-12------------------|-12---------10-------|
|-13---------13------------------|-13---------12-------|
|-14---------12------------------|-12---------12-------|
|--------------------------------|---------------------|
|--------------------------------|---------------------|
|--------------------------------|---------------------|
|
|--1----3--1--3--------3---------|--8---8------3-0-3---|
|--1----5--3--5--------5---------|--8---8------3---3---|
|--2----5-----5--------5---------|--9---9------4---4---|
|--------------------------------|---------------------|
|-------------------3--3----3----|---------------------|
|----1--0------------------------|--8-8---8-1--3-----3-|
|
| Gtr IV
|--------------------------------|---------------------|
|--------------------------------|---------------------|
|--------------------------------|---------------------|
|--------------------------------|---------------------|
|------------15----15------------|---------------------|
|------------15-17-15-12-10-8-10-|--8------------------|


|-12-------13------|-12-------10-------|
|-13-------13------|-13-------12-------|
|-14-------14------|-12-------12-------|
|------------------|-------------------|
|------------------|-------------------|
|------------------|-------------------|
|
|----0---0--0----0-|--3-0-3----3-0-3---|
|--5---5-1-----3---|--5---5----3---3---|
|--5---5-2-----5---|--5---5----4---4---|
|--7---7-------7---|-------------------|
|--0-----------3---|--3-----3----------|
|--------3---------|-----------3-----3-|
|
|------------------|-------------------|
|------------------|-------------------|
|------------------|-------------------|
|------------------|-------------------|
|------------------|-------------------|
|------------------|-------------------|


|--8------8-------|-20-------19-------|
|-10------8-------|-22-------20-------|
|-10------9-------|-21-------19-------|
|-----------------|-------------------|
|-----------------|-------------------|
|-----------------|-------------------|
|
|--1--3-0-3---3---|--5---5----3---3---|
|--1--5---5---5---|--5---5----5---5---|
|--2--5---5---5---|--5---5----5---5---|
|-----------------|-------------------|
|-----------3-3-2-|-------------------|
|--1--0-----------|--5-5---5--3-3---3-|


|-20-------20-------|-20---------19--------|
|-22-------20-------|-20---------20--------|
|-22-------21-------|-21---------19--------|
|-------------------|----------------------|
|-------------------|----------------------|
|-------------------|----------------------|
|
|--1---1----3---3---|--3-0-3------3-0-3----|
|--1---1----5---5---|--5---5------3---3----|
|--2---2----5---5---|--5---5------4---4----|
|-------------------|----------------------|
|-------------3---3-|--3-----3-------------|
|--1-1---1----------|----------1--3-----3--|


                        Gtr IV
|-17---15-13-15-------|---------------------------------|
|-18---17-15-17-------|---------------------------------|
|-17---17-17-17-------|---------------------------------|
|---------------------|---------10-10-10-------10-------|
|---------------------|---------12-10----12-10-10-------|
|---------------------|---------------------------12-10-|
|
|--5----3--1--3-------|-5---5-------3--------3----------|
|--6----5--1--5-------|-5---5-------5--------5----------|
|--5----5-----5-------|-5---5-------5--------5----------|
|---------------------|---------------------------------|
|---------------3-3-2-|---------------------------------|
|----1--0-------------|---5---5-----3-----3--------3----|


|---------------------------------|
|---------------------------------|
|---------------------------------|
|--------10-----------------------|
|--------10-12--------------------|
|-12-----------12-10-8-10-8-10-8--|
|
|--1---1--------3---------3-------|
|--1---1--------5---------5-------|
|--2---2--------5---------5-------|
|---------------------------------|
|--------------------3-------3----|
|----1----1-----------------------|


  Gtr II
|-3-0-3-----3--0--3-----|-5--3-----3---3-------|-5-----5-----3-------3--------|
|-5---5-----3-----3-----|-6--5---3-5---5-------|-5-----5-----5-------5--------|
|-5---5-----4-----4-----|-5--5-----5---5-------|-5-----5-----5-------5--------|
|-----------------------|----------------------|------------------------------|
|-3-----3---------------|------------3-3---2---|------------------------------|
|---------1-3---------3-|----0-----------------|-----5-----5-----3-------3----|
|
| Gtr IV
|-----------------------|----------------------|-----------------------5------|
|---------------------3-|-1--1---1-1-----1---1-|-----1-----1-----1-3-5---5-3--|
|--------------9--7-5---|----0-2---------0-2---|-0-2---0-2---0-2--------------|
|-------------12--------|----------------------|------------------------------|
|-----------------------|----------------------|------------------------------|
|-----------------------|----------------------|------------------------------|


|-1----1-------3---3------|--3-0-3--------3-0---3-------|-5---3------3-------|
|-1----1-------5---5------|--5---5--------3-----3-------|-6---5---1--5-------|
|-2----2-------5---5------|--5---5--------4-----4-------|-5---5------5-------|
|-------------------------|-----------------------------|--------------------|
|----------------3----3---|--3--------3-----------------|--------------3-3-3-|
|-1-1------1--------------|-------------1-3---------3---|---1-0--------------|
|
|------0-3---3-3-----10-8-|-----------------------------|--------------------|
|-1-3--3------------------|-10---8-10-----8---------3-5-|--------------------|
|-------------------------|-----------------9-7---5-----|-5-------5--5-------|
|-------------------------|-----------------------------|-----5-7------------|
|-------------------------|-----------------------------|--------------------|
|-------------------------|-----------------------------|--------------------|


  Q=52
|-5--3-0-0------|-------0----|--0-----*|
|----5--------1-|------------|--------*|
|-----------3---|----2-------|--------*|
|---------------|-0--3-------|--------*|
|---------------|------------|--------*|
|-1--0----------|------------|--------*|
|
| Gtr III
|-5--3-1-0------|------------|--------*|
|-6--5-3-1--3-1-|-0----------|--------*|
|-----------3-2-|-0--2--0----|-(0)----*|
|---------------|----3--2----|-(2)----*|
|---------------|------------|--------*|
|---------------|------------|--------*|




--------------------------------------------------------------------------------


Tablature Legend
----------------
 h   - hammer-on
 p   - pull-off
 b   - bend
 pb  - pre-bend
 r   - bend release (if no number after the r, then release immediately)
 /\  - slide into or out of (from/to "nowhere")
 s   - legato slide
 S   - shift slide
 - natural harmonic
[n]  - artificial harmonic
n(n) - tapped harmonic
 ~   - vibrato
 tr  - trill
 T   - tap
 TP  - trem. picking
 PM  - palm muting
\n/  - tremolo bar dip; n = amount to dip
 \n  - tremolo bar down
 n/  - tremolo bar up
/n\  - tremolo bar inverted dip
 =   - hold bend; also acts as connecting device for hammers/pulls
 <> - volume swell (louder/softer)
 x   - on rhythm slash represents muted slash
 o   - on rhythm slash represents single note slash

Misc Legend
-----------
 |  - bar
||  - double bar
||o - repeat start
o|| - repeat end
*|  - double bar (ending)
 :  - bar (freetime)
 $  - Segno
 &  - Coda
Tempo markers -  = BPM(8/16=s8/s16), where s8 = swing 8ths, s16 = swing 16ths


comments
We did not receive enough feedback on this tab! Please rate:
print report bad tab
1 2 3 4 5
I want to post or [tab]
guest
You may want to rate the tab now too:
select rating
Please do not post tabs as comments. Select "correction" instead!