Oops, an error
Loading. Please wait.

Magical Mystery Tour Tab

ver1
ver1

Album

Whole song

More versions @911Tabs.com
77,376 views 109 this week
2 commentsread comments
1 2 3 4 5
excellent!
x 7
Autoscroll
+/-
esc
set tempo
stop
Contributor
WARNING: You are trying to view
                                    content from Ultimate-Guitar.com
                                    in an unauthorized application,
                                    which is prohibited.

                                    Please use an official Ultimate
                                    Guitar Tabs application for iPhone,
                                    iPad or Android to access legitimate
                                    chords, guitar, bass, and drum tabs
                                    from Ultimate-Guitar.com database.

                                    Type "ultimate guitar tabs" in Apple
                                    App Store's or Android Market's
                                    search to find the application.
Magical Mystery Tour
Album

1. Magical Mystery Tour
2. The Fool On The Hill
3. Flying
4. Blue Jay Way
5. Your Mother Should Know
6. I Am the Walrus
7. Hello, Goodbye
8. Strawberry Fields Forever
9. Penny Lane
10. Baby You're A Rich Man
11. All You Need Is Love


=============================================================================


Magical Mystery Tour

|D     |A     |

E
Roll up, roll up for the mystery tour

E
  Roll up
G                    A
  Roll up for the mystery tour    2X


Roll up - and that's an invitation
Roll up for the mystery tour
Roll up - to make a reservation
Roll up for the mystery tour


CHORUS

D                D/C          G/B                  Gm/Bb
  The magical mystery tour is waiting to take you away
D/A                  A
waiting to take you away


Roll up, we've got everything you need
Roll up for the mystery tour
Roll up, satisfaction guaranteed
Roll up for the mystery tour


CHORUS

The magical mystery tour is hoping to take you away
Hoping to take you away

repeat verse 1


CHORUS  2X

The magical mystery tour is coming to take you away
Coming to take you away


The magical mystery tour is dying to take you away
Dying to take you away, take you today


G/B = x20003
Gm/Bb = 6x533x
F#m = xx4222

==========================================================================

                           The Fool On The Hill

    Verse 1
        C              F
        Day after day alone on a hill the
         C                                 F
        man with the fool grin is keeping perfectly still, But
         Dm              G7                 C                   Am
        nobody wants to know him, they can see that he's justa fool and
         Dm               G7
        he never gives an answer.

    Chorus
        Dm7      Cm  Ab     Cm             Ab
        But the fool on the hill sees the sun going down and the
        Bb                       Cm                   C
        eyes in his head see the world spinning round

    Verse 2
        Well on the way head in a cloud, the
        man of thousand voices talking perfectly loud, But
        nobody ever hears him, or the sound he appears to make and
        he never seems to notice.

        (Chorus)

    Verse 3
        Day after day alone on a hill the
        man with the foolish grin is keeping perfectly still, And
        nobody seems to like him, they can tell what he wants to do and
        he never shows his feelings.

        (Chorus)

    Verse 4
        Day after day alone on a hill the
        man with the foolish grin is keeping perfectly still.
        He never listens to them he knows that they're fools
        ________Theydon't like him.

        (Chorus)

        C  Am  C

#----------------------------------PLEASE NOTE--------------------------------#
#This file is the author's own work and represents their interpretation of the#
#song. You may only use this file for private study, scholarship, or research.#
#-----------------------------------------------------------------------------#

Date: Thu, 12 Mar 1998 07:54:46 +1000
From: Kevin Woodgate 
Subject:  TAB: the fool on the hill, by the beatles

The Fool On The Hill     Beatles

Transcribed by K Woodgate
Easy Melody Version

  C                 F                  C
e|----------------|------------------|-------------------------|--------------|
B|----------------|------------------|---------0---1----1---1--|-1--0---------|
G|----------------|-----0--2-2-------|-0--2--------------------|---------0----|
D|-2--2--2---2--2-|-3-------------3--|-2-----------------------|--------------|
A|----------------|------------------|-------------------------|--------------|
E|----------------|------------------|-------------------------|--------------|
  Day af-ter day a-lone on a hill the man with the fool-ish grin is keep-ing
  Well on the way head in a cloud the man of   a   thou-sand voic-es talk-ing
  Day af-ter day a-lone on a hill the man with the fool-ish grin is keep-ing
  Day af-ter day a-lone on a hill the man with the fool-ish grin is keep-ing

  F                    Dm                 G7                 C
e|--------------------|-------------------0----------------|-----------------|
B|----3----3--3-------|----3--3--3-----1-------3-----------|----1----1----1--|
G|-2----------------0-|-2--------------------------2----0--|-2-------------2-|
D|-3------------------|-3-----------------3----------------|-2---------------|
A|--------------------|------------------------------------|-----------------|
E|--------------------|------------------------------------|-----------------|
  Per-fect-ly still But no-bod-y wants to know him they can see that he's just a
  Per-fect-ly loud, But no-bod-y ev - er hears him or  the sound he app-ears to
  Per-fect-ly still And no-body seems to like him they can tell what he  wants to
  Per-fect-ly still He nev-er list-ens to them    he      knows that they're the

  Am               Dm           G7   Dm7     Cm   Ab     Cm
e|-------|----------------------0-----------|-------------------------------|
B|-1-----|----3--1--3-----1--3-------1------|-1-----------------------------|
G|---2-0-|-2-----------------------------2--|---0-1------0---------0--------|
D|-2-----|-3-----------------3-------3------|-1------3--------3-------------|
A|-------|----------------------------------|-------------------------------|
E|-------|----------------------------------|-------------------------------|
  fool and he never gives an answer. But the fool on the hill sees the
  make and he never seems to notice.
  Do and he never shows his feelings.
  Fools _______ They don't like him.  Ab                    Bb
         Cm                   C
e|---------------------|------------------------|------------------|----------|
B|---------------------|----------------------1-|-3-----4---3----1-|-1-1-1-1--|
G|-1--0----------0---1-|-3----1--0---1----3-----|------------------|--0-0-0-0-|
D|-1----3---3----------|-3----------------------|-1----------------|-2--------|
A|---------------------|------------------------|------------------|----------|
E|---------------------|------------------------|------------------|----------|
  sun going down and the eyes in his head see the world spinning round

  After 4th verse only
  C                 Am                C
e|-----------------|-----------------|-----------------|----------|
B|-1---1---1---1---|-1---1---1---1---|-1---1---1---1---|-1--------|
G|---0---0---0---0-|---2---2---2---2-|---0---0---0---0-|----------|
D|-2---------------|-2---------------|-2---------------|-2--------|
A|-----------------|-----------------|-----------------|----------|
E|-----------------|-----------------|-----------------|----------|

==========================================================================


	                     Flying
	                     ------

We'll call this rhythm figure 1
Play fill 1 when notated (see below)

  C
-|-------------------------|-------------------------|
-|-------------------------|-------------------------|
-|-------------------------|-------------------------|
-|--3-----3-----3-----2----|--------3-----3-----2----|
-|--3-----3-----3-----3----|--------3-----3-----3----|
-|-------------------------|-------------------------|
    ^     ^     ^     ^       ^     ^     ^     ^

-|-------------------------|-------------------------|
-|-------------------------|-------------------------|
-|-------------------------|-------------------------|
-|--3-----3-----3-----2----|--------3-----3-----2----|
-|--3-----3-----3-----3----|--------3-----3-----3----|
-|-------------------------|-------------------------|
    ^     ^     ^     ^       ^     ^     ^     ^
  F7
-|-------------------------|-------------------------|
-|-------------------------|-------------------------|
-|--------2-----2----------|--------2-----2-----2----|
-|--------1-----1----------|--------1-----1-----1----|
-|-----3--------------3----|-----3-----3-----3-------|
-|-------------------------|-------------------------|
    ^     ^     ^     ^       ^     ^     ^     ^
  C
-|-------------------------|-------------------------|
-|-------------------------|-------------------------|
-|-------------------------|-------------------------|
-|--------3-----3-----3----|--2-----3-----3-----2----|
-|--------3-----3-----3----|--3-----3-----3-----3----|
-|-------------------------|-------------------------|
    ^     ^     ^     ^       ^     ^     ^     ^
  G7                        F
  Play Fill 1 here
-|-------------------------|-------------------------|
-|-------------------------|-------------------------|
-|-------------------------|-------------------------|
-|--------3-----3-----3----|--------3-----3-----3p2--|
-|--------5-----5-----5----|-----3--3-----3-----3p3--|
-|-------------------------|-------------------------|
    ^     ^     ^     ^       ^     ^     ^     ^
  C
-|-------------------------|-------------------------|
-|-------------------------|-------------------------|
-|-------------------------|-------------------------|
-|--------2-----2-----2----|--------3--------3-------|
-|--------3-----3-----3----|--3-----3--------5-------|
-|-------------------------|-------------------------|
    ^     ^     ^     ^       ^     ^     ^     ^

Play it again with this ending for the last measure:

 G7
|-------------------------|
|-------------------------|
|-------------------------|
|--5-----5-----5-----5----|
|--5-----5-----5-----5----|
|-------------------------|
   ^     ^     ^     ^

And one more time, plus the "La la la la la la" vocals, with this ending:

 C
|-------------------------|
|-------------------------|
|-------------------------|
|--2----------------------|
|--3----------------------|
|-------------------------|
   ^     ^     ^     ^

That's it!  Oh, and here is Fill 1:

  G7                        F
-|--12\10-8---7\5-3---1--0-|--1/3---3-----1/3-3-1--0-|
-|-------------------------|-------------------------|
-|--12\10-9---7\5-4---2--0-|--2/4---4-----2/4-4-2--0-|
-|-------------------------|-------------------------|
-|-------------------------|-------------------------|
-|-------------------------|-------------------------|
    ^     ^     ^     ^       ^     ^     ^     ^

  C
-|-----0-------------------|-------------------------|
-|--1--------1-----1-------|-------------------------|
-|-----0-------------------|-------------------------|
-|--2--------2-----2-------|-------------------------|
-|----------------------3p0|-------------------------|
-|-------------------------|--3----------------------|
    ^     ^     ^     ^       ^     ^     ^     ^

============================================================================

YOUR MOTHER SHOULD KNOW
(Lennon/McCartney)
Magical Mystery Tour (1967)

 Am
Oo oo oo oo
                     Fmaj7
Let's all get up and dance to a song
           A7/E            Dm
That was a hit before your mother was born.
G7                      C       C/B   A                       D7     G7
Though she was born a long long time ago, your mother should know
                    C
Your mother should know.

 E
Sing it again...

 Am                  Fmaj7
Let's all get up and dance to a song
           A7/E             Dm
That was a hit before your mother was born.
  G7                    C       C/B   A                       D7     G7
Though she was born a long long time ago, your mother should know
                    C
Your mother should know.

E  Am  F  Dm  G  C  E


 Am                    Fmaj7
Lift up your hearts and sing me a song
           A7/E              Dm
That was a hit before your mother was born.
  G7                    C       C/B   A                       D7     G7
Though she was born a long long time ago, your mother should know
                    C    A
Your mother should know.
                     D7    G7
Your mother should know,
                     C
Your mother should know.

E  Am  F  Dm  G  C  E
                  Sing it again...

              Fmaj7
Da da da da da da da da da
        A7/E         Dm
Da da da da da da da da da da da
  G7                    C       C/B   A                       D7     G7
Though she was born a long long time ago, your mother should know
                     C     A
Your mother should know.
                     D7    G7
Your mother should know,
                     C     A
Your mother should know.
                     D7    G7
Your mother should know,
                     C
Your mother should know.

 ==========================================================================

I AM THE WALRUS



 B    B  A  G  F  E  E7  D  D7


A          A/G           C              D             A    A/G
I am he as you are he as you are me and we are all together.
 C                                         D                  A
See how they run like pigs from a gun see how they fly, I'm crying.
  A                  A/G  A/F#    F             G      A  A/G
Sitting on a cornflake         waiting for the van to come.
F
Corporation t-shirt stupid bloody Tuesday,
 B
Man you've been a naughty boy you let your face grow long,
           C                    D                E
I am the eggman, they are the eggmen, I am the Walrus, goo goo goo joob.


  A           A/G               C             D              A    A/G
Mister city policeman sitting pretty little police men in a row.
 C                                         D                 A
See how they fly like Lucy in the Sky see how they run, I'm crying.

    Dsus4          A           E    D
I'm crying.  I'm crying.  I'm cry--ing.

   A            A/G   D/F#   F             G          A   A/G
Yellow matter custard     dripping from a dead dog's eye.
 F
Crab a locker fishwife pornographic priestess,
 B
Boy you been a naughty girl you let your knickers down.
           C                    D                E
I am the eggman, they are the eggmen, I am the Walrus, goo goo goo joob.


  B  A  G  F  E

  B              A      G             F       E
Sitting in an English garden waiting for the sun.
F                   B
  If the sun don't come you get a tan from standing in the English rain
           C                    D                E
I am the eggman, they are the eggmen, I am the Walrus, goo goo goo joob.
     D
Goo goo goo goo joob


 A               A/G            C                   D              A   A/G
Expert texpert choking smokers don't you think the joker laughs at you?
 C                                          D                    A
See how they smile like pigs in a sty, see how they snied, I'm crying.


  A              A/G   A/F#     F              G      A   A/G
Semolina Pilchard            climbing up the Eiffel Tower.
  F
Element'ry penguin singing Hare Krishna,
 B
man you should have seen them kicking Edgar Allan Poe,
           C                    D                E
I am the eggman, they are the eggmen, I am the Walrus, goo goo goo joob
     D
Goo goo goo goo joob
 C                                         B
Goo goo goo joob goo goo goo goo joob goo goo.  (Chooga chooga chooga)


A                        G                             F
 (chooga chooga chooga   chooga chooga   Chooga chooga    chooga chooga
 E                       D                             C              B
                          Everybody's got one.....)


A  G  F  E  D  C  B  [repeat and fade--reciting King Lear!]

------------------------------------------------------------------------------

 A/G  (you can substitute    A/F#     Dsus4
 -0-   an A7 for this)       -0-       -3-|
 -2-                         -2-       -3-|
 -2-                         -2-       -2-|
 -2-                         -2-       -0-|
 -x-                         -x-       ---|
 -3-                         -2-       ---|

 (use your thumb to play the bass
 note in these two chords)

 ==========================================================================

HELLO, GOODBYE
(Lennon/McCartney)
Magical Mystery Tour (1967)

  F           C
You say yes, I say no,
G7                Am            G7   Am      G7
You say stop, and I say go, go, go.       Oh no.

 G7                 F       C  C/B       Am7     C/G
You say goodbye and I say hello, hello, hello.
              F              G#           C  C/B       Am7    C/G
I don't know why you say goodbye, I say hello, hello, hello.
              F              Bb           C
I don't know why you say goodbye, I say hello.


F            C
I say high, you say low,
G7               Am             G7   Am      G7
You say why, and I say I don't know.      Oh no.

G7                  F       C  C/B       Am7     C/G
You say goodbye and I say hello, hello, hello.
              F              G#           C  C/B       Am7     C/G
I don't know why you say goodbye, I say hello, hello, hello.
              F              Bb           C
I don't know why you say goodbye, I say hello.


F          C
             Why why why
G7                    Am               G7                    Am   G7
Why, why, why, do you say goodbye, goodbye bye bye bye bye?    Oh no.

G7                  F       C  C/B       C/A     C/G
You say goodbye and I say hello, hello, hello.
              F              G#           C  C/B       Am7     C/G
I don't know why you say goodbye, I say hello, hello, hello.
              F              Bb           C
I don't know why you say goodbye, I say hello.


 F                   C                 G7
You say yes,         I say no,
           (I say yes),   (but I mean no)
 G7           Am                     G7     Am        G7
You say stop, I say          go, go, go.           Oh no.
      (I can stay still it's time to go)


G7                  F       C  C/B       Am7     C/G
You say goodbye and I say hello, hello, hello.
              F              G#           C  C/B       Am7     C/G
I don't know why you say goodbye, I say hello, hello, hello.
              F              Bb           C
I don't know why you say goodbye, I say hello.
              F              G#           G#     Cm   D7/F#  F
I don't know why you say goodbye, I say hello-oh-oh-oh-oh-oh-oh-oh.
  C
Hello.


 C
Hey-la hey-ba hello-a  (repeat and fade)

{title:Hello, Goodbye}
{st:Lennon/ McCartney}

[C]You say yes, [G]I say no, [D7]you say stop, [Em]I say go, go, [D7]go      [Em]
Oh [D7]no. You [G]say good[D7]bye and [C]I say hel[G]lo, hello, hello
I don't know [C]why you say good[Eb]bye, I say hel[G]lo, hello, hello
I don't know [C]why you say good[F]bye, I say hel[G]lo

[C]I say high, [G]you say low, [D7]you say why, and [Em]I say I don't [D7]know     [Em]
Oh [D7]no. You [G]say good[D7]bye and [C]I say hel[G]lo, hello, hello
I don't know [C]why you say good[Eb]bye, I say [G]hello, hello, hello
I don't know [C]why you say good[F]bye, I say hel[G]lo

[C]Why, why, why, [G]why, why, why, [D7]do you say good[Em]bye, goodbye, bye, [D7]bye    [Em]
Oh [D7]no. You [G]say good[D7]bye and [C]I say hel[G]lo, hello, hello
I don't know [C]why you say good[Eb]bye, I say [G]hello, hello, hello
I don't know [C]why you say good[F]bye, I say hel[G]lo

[C]You say yes, [G]I say no,  [D7]you say stop, [Em]I say g[D7]o, go, [Em]go.
Oh, oh [D7]no. You [G]say good[D7]bye and [C]I say hel[G]lo, hello, hello
I don't know [C]why you say good[Eb]bye, I say [G]hello, hello, hello
I don't know [C]why you say good[F]bye, I say hel[G]lo, hello, hello
I don't know [C]why you say good[Eb]bye, I say [G]hello, hello, hello
I say hello, hello, hello


==========================================================================

                     Strawberry Fields Forever   -    The Beatles
                 -----------------------------------------------------


                                 From the album 'Magical Mystery Tour'

                                 Tabbed by Howard Wright

There are two other versions of this in the archives, but none are in the
right key. I thought a great song such as this deserved a proper tab in the
archives.


Because the recording of this song involved a lot of playing around with
tape speeds, you need to tune down your guitar by a whole step.

So instead of tuning your bottom string to E, tune to D, then tune the other
strings to this by playing at the 5th/4th fret (you know the routine ...)

You should end up tuned to DGCFAD.

This means that the song is based on the C chord for the guitar, but it
ends up being in the key of Bb.

I've tried to give a guitar part that does justice to all the things that are
going on in the song. For the first bit it's fairly straight forward since the
song has a guitar playing here - but later on I've tried to tab out a guitar
version of what the cellos and trumpets are doing.

Of course you can't play all of the song on just one guitar - but you can do
a pretty good job. I've written the chords above each line of tab if you just
want to strum along, and the words are underneath the line of tab.

Intro :
---------

This is played on the mellotron, but you can do it fairly easily on guitar.


    G    Gmaj7  G7           Am        G       F     C

D--------------------------------------------------------------|
A---3--3--3--3--3--3--1--0--------1--------0-------------------|
F---4--4--4--4--4--4--2--1------2--------0------2----0---------|
C---5-----4-----3--3----------2--------0--------3----2---------|
G--------------------------------------------------3-----------|
D--------------------------------------------------------------|

Chorus :
----------


    C                                   Gm7

D-------------------------------------------------------------------------|
A----------------------------------------3------------------------3--3----|
F---0------------------------------------3-------------------3--3---------|
C---2------------------------------------3----------------3---------------|
G---3------------------------------------5------------3h5-----------------|
D----------------------------------------3--------------------------------|

    Let me take you down cos' I'm going to  Strawberry fields


    A7

D----------------0----------0--0---------------------------------|
A------2--2----2------------------2--2---------------------------|
F---0--------0-----------0---------------------------------------|
C--------------------0h2-----------------------------------------|
G--------------------0-------------------------------------------|
D----------------------------------------------------------------|

    Nothing is real


     F               A7

D-------1---------------------0-----------------------------------|
A----1--1-----------------------2----2----------------------------|
F----2--------------------0-------0-------------------------------|
C----3---------------0h2------------------------------------------|
G----3---------------0--------------------------------------------|
D----1------------------------------------------------------------|

  And nothing to get hung about


    F                 C

D---------------------------------------------------------------|
A---1-----------1------1----------------------------------------|
F---2-----------2------0----------------------------------------|
C---3-----------3------2----------------------------------------|
G---3-----------3------3----------------------------------------|
D---1-----------1-----------------------------------------------|

    Strawberry fields forever

Verse 1:
---------

    G         Gmaj7     G7

D--------------------------------------------------------------------|
A---3--3------3--3-----3--3---1---0----------------------------------|
F---4--4------4--4-----4--4---2---1----------------------------------|
C---5---------4--------3---------------------------------------------|
G--------------------------------------------------------------------|
D--------------------------------------------------------------------|

   Living is easy with eyes closed


    Am      Am/G             F

D-------0---------0---------------1------1-----------------------------|
A-------1---------1---------------1---1------1-------------------------|
F-------2---------2-------------2------------2-------------------------|
C-----2---------2---------------3--------------------------------------|
G---0------0--------------------3--------------------------------------|
D-------------3-------------0h1----------------------------------------|

     Misunderstanding all you see

    F            G               C         G/B      Am    Am/G

D---------1----------3----------------------------------0------------|
A---------1----------3----------------------------------1------------|
F---------2-------4----------------0---------0----------2------------|
C------3----------5----------------2---------0----------2------------|
G------3-------------------------3---------2---------0---------------|
D--0h1--------1/3-------------------------------------------3--------|

    It's getting hard to be someone but it all works out


    F          G               F           C

D--------1-----------3---------------1--------------------------------|
A------1-------------3---3-----------1--1--0h1------------------------|
F------2-------------4---4-----------2--2--0--------------------------|
C------3-----------------5--------------3-----------------------------|
G---------------------------------------------------------------------|
D--0h1----------1/3-------------0h1-----------------------------------|

      It doesn't matter much to me


Chorus :
---------

   C                                   Gm               (no chord )

D--------------------------------------3-------------------------|
A--------------------------------------3-------------------------|
F--------------------------------------3-------------------------|
C--2-----------------------------------5------0------------------|
G--3-----------------------------------5---1-----1-----1------1--|
D--------------------------------------3------------3------1-----|

   Let me take you down cos' I'm going to  Strawberry fields

  (no chord)

D--------------------------------------------------------------|
A--------------------------------------------------------------|
F--------------------------------------------------------------|
C--------------------------------------------------------------|
G---7--------------7-------------------------------------------|
D---0--------------0-------------------------------------------|

       Nothing is real


      F          G     A7

D-----1----------3-----0----------------------------------------|
A-----1----------3-----2----------------------------------------|
F-----2----------4-----0----------------------------------------|
C-----3----------5-----2----------------------------------------|
G-----3----------5-----0----------------------------------------|
D-----1----------3----------------------------------------------|

  And nothing to get hung about

    F                 C

D---------------------------------------------------------------|
A---1---------1-------1-----------------------------------------|
F---2---------2-------0-----------------------------------------|
C---3---------3-------2-----------------------------------------|
G---3---------3-------3-----------------------------------------|
D---1---------1-------------------------------------------------|

   Strawberry fields forever


Linking phrase :
-----------------

This is the little downwards scale played on a harp-like instrument.
Leave all strings to sustain as much as possible.


D----1p0----------------------------------------------------------|
A---------1-------------------------------------------------------|
F-----------3p0---------------------------------------------------|
C---------------3p2-----------------------------------------------|
G--------------------3--------------------------------------------|
D-----------------------------------------------------------------|


Verse 2:
---------

    G       Gmaj7     G7

D-------------------------------------------------------------------|
A---3--------3---------3-----1---0----------------------------------|
F---4--------4---------4-----2---1----------------------------------|
C---5--------4---------3-----3---3----------------------------------|
G-------------------------------------------------------------------|
D-------------------------------------------------------------------|

   Noone I think is in my tree


    Am         Am7             F

D-----------------------------------------------------------------|
A---1-----------1--------------1----------------------------------|
F---2-----------0--------------2----------------------------------|
C---2-----------2--------------3----------------------------------|
G-------------------------------------0---------------------------|
D-----------------------------------------3-----------------------|

    I mean it must be high or low

    F              G                  C                 Am  Am/G

D--------------------------------------------------------------------|
A---1--------------3------------------1----------------1-------------|
F---2--------------4------------------0----------------2-------------|
C---3--------------5------------------2----------------2-------------|
G---3--------------5------------------3----------------0-------------|
D---1--------------3---------------------------------------3---------|

      That is you can't you know tune in but it's alright


    F               G                 F                C

D------------------------------------------------------0------0-------------------|
A---1---1---1---1---3---3---3---3------1-------1-------1------1-------------------|
F---2---2---2---2---4---4---4---4------2-------2-------0------0-------------------|
C---3---3---3---3---5---5---5---5------3-------3-------2---2-----2----------------|
G---3---3---3---3---5---5---5---5------3---0---3---0---3--------------------------|
D---1---1---1---1---3---3---3---3------1------------------------------------------|

       That is I  think it's not too bad

Chorus :
---------

   C                                   Gm

D---------------------------------------------6-6---------------|
A---------------------------------------------3-3---------------|
F---------------------------------------3-----3-3---------------|
C--2------------------------------------5-----------------------|
G--3------------------------------------5-----------------------|
D---------------------------------------3-----------------------|

     Let me take you down cos I'm going to

                                   Gm/E

D-------------------------------6-6-----------3--3--3--3--3-------|
A-------------------------------8-8-------------------------------|
F--------------3------------------------------0--0--0--0--0-------|
C--------------5--------------------------------------------------|
G--------------5-------1------------------------------------------|
D--------------3-------1-----0-------------0----------------------|

  Strawberry fields             Nothing is real

         F         G        A

D--------1---------3--------5-----------------------------------|
A--------1---------3--------5-----------------------------------|
F--------2---------4--------6-----------------------------------|
C--------3---------5--------7-----------------------------------|
G--------3---------5--------7-----------------------------------|
D--------1---------3--------5-----------------------------------|

   And nothing to get hung about

   F                   C

D---------------------------------------------------------------|
A--1-----------1-------1----------------------------------------|
F--2-----------2-------0----------------------------------------|
C--3-----------3-------2----------------------------------------|
G--3-----------3-------3----------------------------------------|
D--1-----------1------------------------------------------------|

   Strawberry fields forever

Linking phrase :
-----------------


D----1p0----------------------------------------------------------|
A---------1-------------------------------------------------------|
F-----------3p0---------------------------------------------------|
C---------------3p2-----------------------------------------------|
G--------------------3--------------------------------------------|
D-----------------------------------------------------------------|

Verse 3:
---------

    G       Gmaj7     G7

D--------------------------------------------------------------------|
A---3--3----3---3-----3---3--------1--0------------------------------|
F---4--4----4---4-----4---4--------2--1------------------------------|
C---5--5----4---4-----3---3--------3--3------------------------------|
G--------------------------------------------------------------------|
D--------------------------------------------------------------------|

   Always, no, sometimes think it's me

    Am                Am7             F

D-------------------------------------------------------------|
A---1--------1--------1-------1-------1-----------------------|
F---2--------2--------0-------0-------2-----------------------|
C---2--------2--------2-------2-------3-----------------------|
G-----------------------------------------------0-------------|
D----------------------------------------------------3--------|

     But you know I know when it's a dream

   F           G           C              Am    Am/G

D-------------------------------------------------------------|
A-------------------------------------------------------------|
F-------------------------------------------------------------|
C-------------------------------------------------------------|
G----------0-------0---2---3---------------0------------------|
D--1---3-------3----------------3----0----------3-------------|

    I think a no I mean a yes but it's all wrong

   F            G7          F            C

D--------------------------------------------------------------------------|
A--1--1--1--1---3--3--3--3-------------------------------------------------|
F--2--2--2--2---4--4--4--4-------------------0-----------------------------|
C--3--3--3--3---3--3--3--3---3-------------2----3p2p0----------------------|
G--3--3--3--3---5--5--5--5---3--0--3--0--3--------------3------------------|
D--1--1--1--1---3--3--3--3---1---------------------------------------------|

    That is I think I disagree

Chorus :
---------

   C                                   Gm                   Gm7

D--------------------------------------3--------------------------------|
A--1-----------------------------------3------------------3------3------|
F--0-----------------------------------3----------------3------3------3-|
C--2-----------------------------------5--------------5------3------3---|
G--3-----------------------------------5--------------------------------|
D--------------------------------------3--------------------------------|

   Let me take you down cos' I'm going to  Strawberry fields

   A7/E

D---0--------------0--0--0--0--0-----------------------------------|
A---2--------------2--2--2--2--2-----------------------------------|
F---0--------------0--0--0--0--0-----------------------------------|
C---2--------------------------------------------------------------|
G---0--------------------------------------------------------------|
D---0--------------------------------------------------------------|

       Nothing is real


      F          G     A7

D-----1----------3-----0----------------------------------------|
A-----1----------3-----2----------------------------------------|
F-----2----------4-----0----------------------------------------|
C-----3----------5-----2----------------------------------------|
G-----3----------5-----0----------------------------------------|
D-----1----------3----------------------------------------------|

  And nothing to get hung about

    F                 C       Am7      F                 C

D------------------------------------------------------------------|
A---1---------1-------1--------1-------1---------1-------1---------|
F---2---------2-------0--------0-------2---------2-------0---------|
C---3---------3-------2--------2-------3---------3-------2---------|
G---3---------3-------3--------0-------3---------3-------3---------|
D---1---------1------------------------1---------1-----------------|

   Strawberry fields forever         Strawberry fields forever

    F           G      F

D---1-----------3------1-----------5r3---1--0h1p0h1p0--------|
A---1-----------3------1--------------------------------3-3--|
F---2-----------4------2-------------------------------------|
C---3-----------5------3-------------------------------------|
G---3-----------5------3-------------------------------------|
D---1-----------3------1-------------------------------------|

    Strawberry fields forever

Fade out over a chord of C
----------------------------

 (cellos)                     (elec. gtr)

D-----------------------------------------1--0h1p0h1p0h1p0h1p0------|
A-------------------------------------------------------------------|
F-----------5------2------------------------------------------------|
C--------------3-5---3----2-3-5-------------------------------------|
G--3/1---3--------------5-------3-------3---------------------------|
D-------------------------------------------------------------------|

(harp-thing)

D-------------------------------12--------------13--12--12---------15--13---|
A-----------13--11-----11-----------13--11------------------11--------------|
F---10--12-----------------12---------------12------------------12----------|
C---------------------------------------------------------------------------|
G---------------------------------------------------------------------------|
D---------------------------------------------------------------------------|


etc etc  fade back in, a few weird noises etc etc ......

==========================================================================

PENNY LANE

I'm posting this song in two different versions.  The First is written
as the song is heard--in B and modulating to A during the chorus.  The
second version employs a capo to help make the chords more guitar-
friendly.  Technically its still in B, but the chord shapes are those
of the key of A, modulating to G.


       B                              C#m7     F#7sus4
Penny Lane there is a barber showing photographs
    F#7    B                                 Bm
Of every head he's had the pleasure to have known.
            Bm/G#               Bm/G
And all the people that come and go
         F#7sus4  F#7   F#7sus4  F#7
Stop and say hello.


         B                       C#m7     F#7sus4
On the corner is a banker with a motor car.
     F#7      B                              Bm
The little children laugh at him behind his back.
        Bm/G#               Bm/G
And the banker never wears a mac
       F#7sus4      F#7   E
In the pouring rain.    Very strange.


       A            A/C#            D
Penny Lane is in my ears and in my eyes.
  A               A/C#            D
There beneath the blue suburban skies,
            F#
I sit and meanwhile back,


          B                               C#m7    F#7sus4
In Penny Lane there is a fireman with an hourglass.
    F#7      B                          Bm
And in his pocket is a portrait of the queen.
            Bm/G#                 Bm/G
He likes to keep his fire engine clean,
      F#7sus4       F#7   F#sus4   F#7
It's a clean machine.


[horn solo]
B               C#m7    F#sus4  F#
B               Bm
Bm/G#           Bm/G
F#7sus4   F#7   E


       A            A/C#            D
Penny Lane is in my ears and in my eyes.
A       A/C#             D
  For a fish and finger pie,
            F#
In summer meanwhile back,


              B                          C#m7    F#7sus4
Behind the shelter in the middle of the roundabout
      F#7    B                             Bm
The pretty nurse is selling poppies from a tray
               Bm/G#                  Bm/G
And though she feels as if she's in a play,
       F#7sus4    F#7   F#sus4    F#7
She is anyway.


       B                               C#m7    F#7sus4
Penny Lane the barber shaves another customer.
   F#7       B                           Bm
We see the banker sitting waiting for a trim.
              Bm/G#        Bm/G
And then the fireman rushes in
         F#7sus4       F#7   E
From the pouring rain.     Very strange.


       A            A/C#            D
Penny Lane is in my ears and in my eyes.
  A               A/C#            D
There beneath the blue suburban skies,
            F#
I sit and meanwhile back,


       B            B/Eb            E
Penny Lane is in my ears and in my eyes.
  B               B/Eb            E
There beneath the blue suburban skies.
             B
Penny Lane!

--------------------------------------------------------------
Version #2: capo 2nd fret!!

       A                              Bm7      Esus4
Penny Lane there is a barber showing photographs
     E    A                                  Am
Of every head he's had the pleasure to have known.
            Am/F#               Am/F
And all the people that come and go
        Esus4    E   Esus4  E
Stop and say hello.


         A                       Bm7      Esus4
On the corner is a banker with a motor car.
      E       A                              Am
The little children laugh at him behind his back.
        Am/F#               Am/F
And the banker never wears a mac
        Esus4       E   D
In the pouring rain.  Very strange.


       G            G/B             C
Penny Lane is in my ears and in my eyes.
  G               G/B             C
There beneath the blue suburban skies,
             E
I sit and meanwhile back,


          A                                Bm7     Esus4
In Penny Lane there is a fireman with an hourglass.
    E        A                          Am
And in his pocket is a portrait of the queen.
            Am/F#                 Am/F
He likes to keep his fire engine clean,
       Esus4        E   Esus4   E
It's a clean machine.


[horn solo]
A               Bm7    Esus4  E
A               Am
Am/F#           Am/F
Esus4    E      D


       G            G/B             C
Penny Lane is in my ears and in my eyes.
 G          G/B             C
     For a fish and finger pie,
            E
In summer meanwhile back,


              A                          Bm7     Esus4
Behind the shelter in the middle of the roundabout
       E     A                             Am
The pretty nurse is selling poppies from a tray
               Am/F#                  Am/F
And though she feels as if she's in a play,
       Esus4    E   Esus4    E
She is anyway.


       A                               Bm7    Esus4
Penny Lane the barber shaves another customer.
    E        A                           Am
We see the banker sitting waiting for a trim.
              Am/F#        Am/F
And then the fireman rushes in
          Esus4       E     D
From the pouring rain.     Very strange.

       G            G/B             C
Penny Lane is in my ears and in my eyes.
  G               G/B             C
There beneath the blue suburban skies,
             E
I sit and meanwhile back,


       A            A/C#            D
Penny Lane is in my ears and in my eyes.
  A               A/C#            D
There beneath the blue suburban skies,
             A
Penny Lane!

---------------------------------------------------------------
 Bm7    Esus4   A/C#   Am/F#   Am/F

 -2-     -0-    -0-     -0-    -0-
 -3-     -0-    -2-     -1-    -1-
 -2-     -2-    -2-     -2-    -2-    <-- use your thumb to play the bass
 -4-     -2-    -2-     -2-    -2-        notes of the last two chords.
 -2-     -2-    -4-     -x-    -x-
 ---     -0-    ---     -2-    -1-


==========================================================================


Bably You're a Rich Man


G7         C/G    4X

G                           C/G
How does it feel to be      one of the beau - ti ful
G7                                                F               G7
people     Now that you know___ who you are__     what do you want to be
C           G7                                    F             G7
            And have you traveled very far__      Far as the eye can see


How does it feel to be one of the beautiful people
How often have you been there   often enough to know
    What did you see when you were there   nothing that doesn't show


CHORUS
C              G                       C
               Baby you're a rich man, baby you're a rich man
G                      C             Bbdim         G7/B
Baby you're a rich man too       You keep all your money in a
C                        G7                        C
big brown bag inside a zoo       what a thing to do
G                       C                       G                       C
Baby you're a rich man, baby you're a rich man, baby you're a rich man too


   How does it feel to be one of the beautiful people
Tuned to a natural E       happy to be that way
   Now that you've found another key   what are you going to play


CHORUS


Bbdim = xx2323
G7/B = x20001

==========================================================================


All you need is love


intro:

``` means to let the note ring

E-----------------------------------10```--------------|
B------------------------10---10----------12-----------|
G-------------12---12--------------------------12------|
D--12---12---------------------------------------------|
A------------------------------------------------------|
E------------------------------------------------------|


E------------------------------------------------------|
B-------12---------------13```------------10--------10-|
G--12------12----------------------------------12------|
D------------------14----------------------------------|
A------------------------------------------------------|
E------------------------------------------------------|


G      D/F#     Em
Love   love     love

G      D/F#     Em
Love   love     love

D7/A   G        D7/A
Love   love     love

(Then play this)

E------------------------------------------------------|
B------------------------------------------------------|
G---------------------------------0--------------------|
D--0-------------------0----0--2-----------------------|
A-------3-----2---3------------------------------------|
E------------------------------------------------------|

G                       D/F#             Em
There's nothing you can do that can't be done

G                      D/F#               Em
Theres nothing you can sing that can't be sung

D7/A            G               D/F#              D7
Nothing you can say but you can learn to play the game

D7/A    D7
It's    easy


There's nothing you can make that can't be made
No one  you can save that can't be saved
Nothing you can do but you can learn how to be you in time
It's easy


CHORUS:

G       A7sus   D7
All you need is love

G       A7sus   D7
All you need is love

G       B7      Em         G/D
All you need is love       love

C       D7      G
Love is all you need


There's nothing you can know that isn't known
Nothing you can see that isn't shown
Nowhere you can be that isn't where you're meant to be
Its easy

CHORUS

C       D7      G
Love is all you need

G       A7sus   D7
All you need is love

D7                 G       A7sus   D7
All together now   All you need is love

D7              G       A7sus   D7
Everybody now   All you need is love

G       D       G
Love is all you need   (repeats a few times)

(Then Paul (I think) starts going "Oh yeah  - loves you yeah yeah
yeah  - she loves you yeah yeah yeah").

Chords used:

A7sus  x02020
B7     x21202
C      x32010
D      xx0232
D/F#   xx4232
D7     xx0212
D7/A   x00212
Em     022000
G      320033
G/D    xx0033
comments
print report bad tab
2 comments total.
0 reply
Who66 wrote on November 27 2007, 06:59 pm

again, you really shouldn't present this as your work, though the same goes for BC. not bad though. "fool" is in D and
the second Hello goodbye is out of key, but these are mostly accurate.

0 reply
HasARubberSoul wrote on February 27 2012, 03:58 am

Where's Blue Jay Way? And the Strawberry Fields is wrong

I want to post or [tab]
guest
You may want to rate the tab now too:
select rating
Please do not post tabs as comments. Select "correction" instead!