Oops, an error
Loading. Please wait.

Misery Tab

ver1
ver1

Whole song

Interactive

More versions @911Tabs.com
10,464 views 27 this week
4 commentsread comments
1 2 3 4 5
excellent!
x 2
Autoscroll
+/-
esc
set tempo
stop
Contributor
Hey! There's an official Ultimate Guitar app which is ideal
for learning songs when you're away from computer. Get the app
WARNING: You are trying to view
                                    content from Ultimate-Guitar.com
                                    in an unauthorized application,
                                    which is prohibited.

                                    Please use an official Ultimate
                                    Guitar Tabs application for iPhone,
                                    iPad or Android to access legitimate
                                    chords, guitar, bass, and drum tabs
                                    from Ultimate-Guitar.com database.

                                    Type "ultimate guitar tabs" in Apple
                                    App Store's or Android Market's
                                    search to find the application.
------------------------------------------------------------------------
  THE BEATLES - MISERY (McCartney/Lennon) From PLEASE, PLEASE ME album.
                Released 22nd March 1963.
------------------------------------------------------------------------
  Tabbed by:PJVillanueva



The world is treating me bad... Misery.

I'm the kind of guy,
Who never used to cry,
The world is treatin' me bad... Misery!

I've lost her now for sure,
I won't see her no more,
It's gonna be a drag... Misery!

I'll remember all the little things we've done
Can't she see she'll always be the only one, only one.

Send hewr back to me,
'Cause everyone can see
Without her I will be in misery

I'll remember all the little things we've done.
She'll remember and she'll miss her only one, lonely one.

Send her back to me,
'Cause everyone can see,
Without her I will be in misery (oh oh oh)
In misery (ooh ee ooh ooh)
My misery (la la la la la la)


                                  F
e|------- ------- ------- -------|1------ ------- ------- -------|
B|-------------------------------|1------------------------------|
G|-------------------------------|2------------------------------|
D|-------------------------------|3------------------------------|
A|-------------------------------|3------------------------------|
E|-------------------------------|1------------------------------|
The
e|------- ------- ------- -------|----1-- ------- ------- -------|
B|-------------------------------|---1---------------------------|
G|-------------------------------|--2----------------------------|
D|-------------------------------|-3-----------------------------|
A|-------------------------------|-------------------------------|
E|-------------------------------|1------------------------------|
                                                              

                                  G
e|------- ------- ------- -------|3------ ------- ------- -------|
B|-------------------------------|3------------------------------|
G|-------------------------------|4------------------------------|
D|-------------------------------|5------------------------------|
A|-------------------------------|5------------------------------|
E|-------------------------------|3------------------------------|
  world       is  treating    me  bad
e|------- ------- ------- -------|------- ------- ------- -------|
B|-------------------------------|-------------------------------|
G|-------------------------------|-------------------------------|
D|-------------------------------|-------------------------------|
A|-------------------------------|-------------------------------|
E|----------------0-----1-----2--|3------------------------------|
  


  C                               Am              G
e|0------ ------- ------- -------|0------ ----0-- 3---3-- 3------|
B|1------------------------------|1-----------1---3---3---3------|
G|0------------------------------|2-----------2---0---0---0------|
D|2------------------------------|2-----------2---0---0---0------|
A|3------------------------------|0-----------0---2---2---2------|
E|3------------------------------|----------------3---3---3------|
  Misery
e|0------ ------- ------- -------|------- ------- ------- -------|
B|1------------------------------|-------------------------------|
G|0------------------------------|-------------------------------|
D|2------------------------------|-------------------------------|
A|3-----------------------------/|7------/7---7---5---5----------|
E|3-----------------------------/|5------/5---5---3---3---5---5--|



  C                               F
e|0------ 0---0-- ----0-- 0------|1------ 1---1-- ------- 1---1--|
B|1-------1---1-------1---1------|1-------1---1-----------1---1--|
G|0-------0---0-------0---0------|2-------2---2-----------2---2--|
D|2-------2---2-------2---2------|3-------3---3-----------3---3--|
A|3-------3---3-------3---3------|3-------3---3-----------3---3--|
E|3-------3---3-------3---3------|1-------1---1-----------1---1--|
  I'm         the kind        of  guy                         who
e|------- ------- ------- -------|------- ------- ------- -------|
B|1-------1-------1-------1---1--|1-------3-------1-------3------|
G|0-------2-------0-------2---0--|2-------2-------2-------2------|
D|2-------2-------2-------2---2--|3-------3-------3-------3------|
A|-------------------------------|-------------------------------|
E|-------------------------------|-------------------------------|


  C                               F
e|0------ 0---0-- ----0-- 0------|1------ 1---1-- ------- 1---1--|
B|1-------1---1-------1---1------|1-------1---1-----------1---1--|
G|0-------0---0-------0---0------|2-------2---2-----------2---2--|
D|2-------2---2-------2---2------|3-------3---3-----------3---3--|
A|3-------3---3-------3---3------|3-------3---3-----------3---3--|
E|3-------3---3-------3---3------|1-------1---1-----------1---1--|
  never          used         to  cry                         the
e|------- ------- ------- -------|------- ------- ------- -------|
B|--------1-------1-------1---1--|--------3---1-----------3---1--|
G|--------2-------0-------2---0--|--------2---2-----------2---2--|
D|--------2-------2-------2---2--|--------3---3-----------3---3--|
A|-------------------------------|-------------------------------|
E|-------------------------------|-------------------------------|


                                  G
e|1------ 1---1-- ----1-- 1------|3------ 3---3-- ------- 3---3--|
B|1-------1---1-------1---1------|3-------3---3-----------3---3--|
G|2-------2---2-------2---2------|4-------4---4-----------4---4--|
D|3-------3---3-------3---3------|5-------5---5-----------5---5--|
A|3-------3---3-------3---3------|5-------5---5-----------5---5--|
E|1-------1---1-------1---1------|3-------3---3-----------3---3--|
  world       is  treating    me  bad
e|------- ------- ------- -------|------- ------- ------- -------|
B|1-------3---1---1-------3---1--|3-------5---3---3-------5---3--|
G|2-------2---2---2-------2---2--|4-------4---4---4-------4---4--|
D|3-------3---3---3-------3---3--|5-------5---5---5-------5---5--|
A|-------------------------------|-------------------------------|
E|-------------------------------|-------------------------------|


  C                                       Am
e|0------ 0---0-- 0---0-- 0------|------- 0---0-- 0------ 0------|
B|1-------1---1---1---1---1------|--------1---1---1-------1------|
G|0-------0---0---0---0---0------|--------2---2---2-------2------|
D|2-------2---2---2---2---2------|--------2---2---2-------2------|
A|3-------3---3---3---3---3------|--------0---0---0-------0------|
E|3-------3---3---3---3---3------|-------------------------------|
  Misery                                                      I've
e|------- ------- ------- -------|------- ------- ------- -------|
B|1-------1-------1-------1---1--|--------1---1---1-------1------|
G|0-------2-------0-------2---0--|--------2---2---2-------2------|
D|2-------2-------2-------2---2--|--------2---2---2-------2------|
A|-------------------------------|-------------------------------|
E|-------------------------------|-------------------------------|


  C                               F
e|0------ 0---0-- 0------ 0------|1------ 1---1-- 1------ 1------|
B|1-------1---1---1-------1------|1-------1---1---1-------1------|
G|0-------0---0---0-------0------|2-------2---2---2-------2------|
D|2-------2---2---2-------2------|3-------3---3---3-------3------|
A|3-------3---3---3-------3------|3-------3---3---3-------3------|
E|3-------3---3---3-------3------|1-------1---1---1-------1------|
  lost        her now         for sure                        I    
e|------- ------- ------- -------|------- ------- ------- -------|
B|--------1-------1-------1---1--|--------3-------1-------3---1--|
G|--------2-------0-------2---0--|--------2-------2-------2---2--|
D|--------2-------2-------2---2--|--------3-------3-------3---3--|
A|-------------------------------|-------------------------------|
E|-------------------------------|-------------------------------|


  C                               F
e|0------ 0---0-- 0------ 0------|1------ 1---1-- ------- 1---1--|
B|1-------1---1---1-------1------|1-------1---1-----------1---1--|
G|0-------0---0---0-------0------|2-------2---2-----------2---2--|
D|2-------2---2---2-------2------|3-------3---3-----------3---3--|
A|3-------3---3---3-------3------|3-------3---3-----------3---3--|
E|3-------3---3---3-------3------|1-------1---1-----------1---1--|
  won't       see her         no  more                        It's
e|------- ------- ------- -------|------- ------- ------- -------|
B|--------1-------1---1---1------|--------3---1---1---1---3---1--|
G|--------2-------0---0---2------|--------2---2---2---2---2---2--|
D|--------2-------2---2---2------|--------3---3---3---3---3---3--|
A|-------------------------------|-------------------------------|
E|-------------------------------|-------------------------------|


                                  G
e|1------ 1---1-- 1------ 1---1--|3------ 3---3-- 3------ 3---3--|
B|1-------1---1---1-------1---1--|3-------3---3---3-------3---3--|
G|2-------2---2---2-------2---2--|4-------4---4---4-------4---4--|
D|3-------3---3---3-------3---3--|5-------5---5---5-------5---5--|
A|3-------3---3---3-------3---3--|5-------5---5---5-------5---5--|
E|1-------1---1---1-------1---1--|3-------3---3---3-------3---3--|
  gonna           be          a   drag           
e|------- ------- ------- -------|------- ------- ------- -------|
B|1-------3---1---1-------3---1--|3---3---5-------3-------5---3--|
G|2-------2---2---2-------2---2--|4---4---4-------4-------4---4--|
D|3-------3---3---3-------3---3--|5---5---5-------5-------5---5--|
A|-------------------------------|-------------------------------|
E|-------------------------------|-------------------------------|


  C                             
e|0------ 0------ 0------ 0---0--|0------ 0---0-- 0---0-- 0------|
B|1-------1-------1-------1---1--|1-------1---1---1---1---1------|
G|0-------0-------0-------0---0--|0-------0---0---0---0---0------| 
D|2-------2-------2-------2---2--|2-------2---2---2---2---2------|
A|3-------3-------3-------3---3--|3-------3---3---3---3---3------|
E|3-------3-------3-------3---3--|3-------3---3---3---3---3------|
  Misery
e|------- ------- ------- -------|------- ------- ------- -------|
B|--------1-------1-------1---1--|--------1-------1-------1---1--|
G|--------2-------0-------2---0--|--------2-------2-------2---0--|
D|--------2-------2-------2---2--|--------2-------2-------2---2--|
A|-------------------------------|-------------------------------|
E|-------------------------------|-------------------------------|



  Am
e|0------ 0---0-- 0------ 0------|0------ 0---0-- 0------ 0---0--|
B|1-------1---1---1-------1------|1-------1---1---1-------1---1--|
G|2-------2---2---2-------2------|2-------2---2---2-------2---2--|
D|2-------2---2---2-------2------|2-------2---2---2-------2---2--|
A|0-------0---0---0-------0------|0-------0---0---0-------0---0--|
E|-------------------------------|-------------------------------|
  I'll        remember            all         the little
e|------- ------- ------- -------|------- ------- ------- -------|
B|--------1---1-----------1---1--|--------1---1-----------1---1--|
G|--------2---2-----------2---2--|--------2---2-----------2---2--|
D|--------2---2-----------2---2--|--------2---2-----------2---2--|
A|--------0---0-----------0---0--|--------0---0-----------0---0--|
E|-------------------------------|-------------------------------|



  C
e|0------ 0------ 0------ 0---0--|0------ 0------ 0------ 0---0--|
B|1-------1-------1-------1---1--|1-------1-------1-------1---1--|
G|0-------0-------0-------0---0--|0-------0-------0-------0---0--|
D|2-------2-------2-------2---2--|2-------2-------2-------2---2--|
A|3-------3-------3-------3---3--|3-------3-------3-------3---3--|
E|3-------3-------3-------3---3--|3-------3-------3-------3---3--|
  things      we've done
e|------- ------- ------- -------|------- ------- ------- -------|
B|--------1---1-----------1---1--|--------1---1-----------1---1--|
G|--------0---0-----------0---0--|--------0---0-----------0---0--|
D|--------2---2-----------2---2--|--------2---2-----------2---2--|
A|-------------------------------|-------------------------------|
E|-------------------------------|-------------------------------|

e|------- ------- ------- -------|------- ------- ------- -------|
B|-------------------------------|8----10-9----------------------|
G|-------------------------------|-------------------------------|
D|-------------------------------|5-----8-7----12-10----9-7---5--|
A|-------------------------------|-------------------------------|
E|-------------------------------|-------------10--8----7-5---3--|



  Am
e|0------ 0---0-- 0------ 0---0--|0------ 0---0-- 0------ 0------|
B|1-------1---1---1-------1---1--|1-------1---1---1-------1------|
G|2-------2---2---2-------2---2--|2-------2---2---2-------2------|
D|2-------2---2---2-------2---2--|2-------2---2---2-------2------|
A|0-------0---0---0-------0---0--|0-------0---0---0-------0------|
E|-------------------------------|-------------------------------|
  Can't       she see        she'll always        be          the
e|------- ------- ------- -------|------- ------- ------- -------|
B|--------1---1-----------1---1--|--------1---1-----------1---1--|
G|--------2---2-----------2---2--|--------2---2-----------2---2--|
D|--------2---2-----------2---2--|--------2---2-----------2---2--|
A|--------0---0-----------0---0--|--------0---0-----------0---0--|
E|-------------------------------|-------------------------------|

e|------- ------- ------- -------|------- ------- ------- -------|
B|-------------------------------|-------------------------------|
G|-------------------------------|-------------------------------|
D|7------------------------------|-------------------------------|
A|-------------------------------|-------------------------------|
E|5------------------------------|-------------------------------|



  G
e|3------ 3---3-- ------- 3------|3------ 3---3-- ------- 3---3--|
B|3-------3---3-----------3------|3-------3---3-----------3---3--|
G|4-------4---4-----------4------|4-------4---4-----------4---4--|
D|5-------5---5-----------5------|5-------5---5-----------5---5--|
A|5-------5---5-----------5------|5-------5---5-----------5---5--|
E|3-------3---3-----------3------|3-------3---3-----------3---3--|
  only            one             only             one
e|------- ------- ------- -------|------- ------- ------- -------|
B|-------------------------------|-------------------------------|
G|-------------------------------|-------------------------------|
D|--------5---5-----------5---5--|--------5---5-----------5---5--|
A|--------5---5-----------5---5--|--------5---5-----------5---5--|
E|--------3---3-----------3---3--|--------3---3-----------3---3--|

e|------- ------- ------- -------|------- ------- ------- -------|
B|------------------------8------|------------------------8------|
G|-------------------------------|-------------------------------|
D|------------------------5------|------------------------5------|
A|-------------------------------|-------------------------------|
E|-------------------------------|-------------------------------| 


  C                               F
e|0------ 0---0-- 0------ 0------|1------ 1---1-- 1------ 1------|
B|1-------1---1---1-------1------|1-------1---1---1-------1------|
G|0-------0---0---0-------0------|2-------2---2---2-------2------|
D|2-------2---2---2-------2------|3-------3---3---3-------3------|
A|3-------3---3---3-------3------|3-------3---3---3-------3------|
E|3-------3---3---3-------3------|1-------1---1---1-------1------|
  Send        her back        to  me                          'cause
e|------- ------- ------- -------|------- ------- ------- -------|
B|--------1-------1-------1---1--|----1---3---1---1---1---3---1--|
G|--------2-------0-------2---0--|----2---2---2---2---2---2---2--|
D|--------2-------2-------2---2--|----3---3---3---3---3---3---3--|
A|-------------------------------|-------------------------------|
E|-------------------------------|-------------------------------|


  C                               F
e|0------ 0---0-- 0---0-- 0------|1------ 1---1-- 1---1-- 1---1--|
B|1-------1---1---1---1---1------|1-------1---1---1---1---1---1--|
G|0-------0---0---0---0---0------|2-------2---2---2---2---2---2--|
D|2-------2---2---2---2---2------|3-------3---3---3---3---3---3--|
A|3-------3---3---3---3---3------|3-------3---3---3---3---3---3--|
E|3-------3---3---3---3---3------|1-------1---1---1---1---1---1--|
  everyone                    can see                         with..
e|------- ------- ------- -------|------- ------- ------- -------|
B|--------1-------1-------1---1--|--------3---1---1---1---3---1--|
G|--------2-------0-------2---0--|--------2---2---2---2---2---2--|
D|--------2-------2-------2---2--|--------3---3---3---3---3---3--|
A|-------------------------------|-------------------------------|
E|-------------------------------|-------------------------------|


                                  G
e|1------ 1---1-- 1---1-- 1------|3------ 3---3-- 3------ 3------|
B|1-------1---1---1---1---1------|3-------3---3---3-------3------|
G|2-------2---2---2---2---2------|4-------4---4---4-------4------|
D|3-------3---3---3---3---3------|5-------5---5---5-------5------|
A|3-------3---3---3---3---3------|5-------5---5---5-------5------|
E|1-------1---1---1---1---1------|3-------3---3---3-------3------|
  out         her I       will    be                      in
e|------- ------- ------- -------|------- ------- ------- -------|
B|--------3-------1-------3---1--|----3---5-------3-------5------|
G|--------2-------2-------2---2--|----4---4-------4-------4------|
D|--------3-------3-------3---3--|----5---5-------5-------5------|
A|-------------------------------|-------------------------------|
E|-------------------------------|-------------------------------|


  C
e|0------ 0---0-- 0------ 0---0--|0------ 0---0-- 0------ 0------|
B|1-------1---1---1-------1---1--|1-------1---1---1-------1------|
G|0-------0---0---0-------0---0--|0-------0---0---0-------0------|
D|2-------2---2---2-------2---2--|2-------2---2---2-------2------|
A|3-------3---3---3-------3---3--|3-------3---3---3-------3------|
E|3-------3---3---3-------3---3--|3-------3---3---3-------3------|
  Misery                                                    
e|------- ------- ------- -------|------- ------- ------- -------|
B|----1---1-------1-------1---1--|----1---1-------1-------1---1--|
G|----0---2-------0-------2---0--|----0---2-------0-------2---0--|
D|----2---2-------2-------2---2--|----2---2-------2-------2---2--|
A|-------------------------------|-------------------------------|
E|-------------------------------|-------------------------------|



  Am
e|0------ 0------ 0---0-- 0------|0------ 0---0-- 0---0-- 0---0--|
B|1-------1-------1---1---1------|1-------1---1---1---1---1---1--|
G|2-------2-------2---2---2------|2-------2---2---2---2---2---2--|
D|2-------2-------2---2---2------|2-------2---2---2---2---2---2--|
A|0-------0-------0---0---0------|0-------0---0---0---0---0---0--|
E|-------------------------------|-------------------------------|
  I'll        remember            all         the little
e|------- ------- ------- -------|------- ------- ------- -------|
B|-------------------------------|-------------------------------|
G|-------------------------------|-------------------------------|
D|--------7---7-----------7---7--|--------7---7-----------7---7--|
A|--------7---7-----------7---7--|--------7---7-----------7---7--|
E|--------5---5-----------5---5--|--------5---5-----------5---5--|



  C
e|0------ 0------ 0------ 0---0--|0------ 0---0-- 0------ 0---0--|
B|1-------1-------1-------1---1--|1-------1---1---1-------1---1--|
G|0-------0-------0-------0---0--|0-------0---0---0-------0---0--|
D|2-------2-------2-------2---2--|2-------2---2---2-------2---2--|
A|3-------3-------3-------3---3--|3-------3---3---3-------3---3--|
E|3-------3-------3-------3---3--|3-------3---3---3-------3---3--|
  things      we've done
e|------- ------- ------- -------|------- ------- ------- -------|
B|-------------------------------|-------------------------------|
G|--------5---5-----------5---5--|--------5---5-----------5---5--|
D|--------5---5-----------5---5--|--------5---5-----------5---5--|
A|--------3---3-----------3---3--|--------3---3-----------3---3--|
E|-------------------------------|-------------------------------|

e|------- ------- ------- -------|------- ------- ------- -------|
B|-------------------------------|8----10-9----------------------|
G|-------------------------------|-------------------------------|
D|-------------------------------|5-----8-7----12-10----9-7---5--|
A|-------------------------------|-------------------------------|
E|-------------------------------|-------------10--8----7-5---3--|



  Am
e|0------ 0---0-- 0------ 0---0--|0------ 0------ ------- -------|
B|1-------1---1---1-------1---1--|1-------1----------------------|
G|2-------2---2---2-------2---2--|2-------2----------------------|
D|2-------2---2---2-------2---2--|2-------2----------------------|
A|0-------0---0---0-------0---0--|0-------0----------------------|
E|-------------------------------|-------------------------------|
  She'll      remember            and         she'll miss     her
e|------- ------- ------- -------|------- ------- ------- -------|
B|-------------------------------|-------------------------------|
G|-------------------------------|-------------------------------|
D|--------7---7-----------7---7--|--------7---7-------7---7---7--|
A|--------7---7-----------7---7--|--------7---7-------7---7---7--|
E|--------5---5-----------5---5--|--------5---5-------5---5---5--|

e|------- ------- ------- -------|------- ------- ------- -------|
B|-------------------------------|-------------------------------|
G|-------------------------------|-------------------------------|
D|7------------------------------|-------------------------------|
A|-------------------------------|-------------------------------|
E|5------------------------------|-------------------------------|



          G
e|------- 3---3-- ------- 3------|------- 3---3-- ------- 3---3--|
B|--------3---3-----------3------|--------3---3-----------3---3--|
G|--------4---4-----------4------|--------4---4-----------4---4--|
D|--------5---5-----------5------|--------5---5-----------5---5--|
A|--------5---5-----------5------|--------5---5-----------5---5--|
E|--------3---3-----------3------|--------3---3-----------3---3--|
  only            one             lonely           one
e|------- ------- ------- -------|------- ------- ------- -------|
B|-------------------------------|-------------------------------|
G|-------------------------------|-------------------------------|
D|--------5---5-----------5---5--|--------5---5-------5---5---5--|
A|--------5---5-----------5---5--|--------5---5-------5---5---5--|
E|--------3---3-----------3---3--|--------3---3-------3---3---3--|

e|------- ------- ------- -------|------- ------- ------- -------|
B|------------------------8------|------------------------8------|
G|-------------------------------|-------------------------------|
D|------------------------5------|------------------------5------|
A|-------------------------------|-------------------------------|
E|-------------------------------|-------------------------------| 


  C                               F
e|0------ 0------ 0---0-- 0------|1------ 1---1-- 1---1-- 1------|
B|1-------1-------1---1---1------|1-------1---1---1---1---1------|
G|0-------0-------0---0---0------|2-------2---2---2---2---2------|
D|2-------2-------2---2---2------|3-------3---3---3---3---3------|
A|3-------3-------3---3---3------|3-------3---3---3---3---3------|
E|3-------3-------3---3---3------|1-------1---1---1---1---1------|
  Send        her back        to  me                          'cause
e|------- ------- ------- -------|------- ------- ------- -------|
B|--------1-------1---1---1------|-------------------------------|
G|--------2-------0---0---2------|-------------------------------|
D|--------2-------2---2---2------|-------------------------------|
A|-------------------------------|-------------------------------|
E|-------------------------------|-------------------------------|


  C                               F
e|0------ 0------ 0---0-- 0------|1------ 1---1-- 1---1-- 1---1--|
B|1-------1-------1---1---1------|1-------1---1---1---1---1---1--|
G|0-------0-------0---0---0------|2-------2---2---2---2---2---2--|
D|2-------2-------2---2---2------|3-------3---3---3---3---3---3--|
A|3-------3-------3---3---3------|3-------3---3---3---3---3---3--|
E|3-------3-------3---3---3------|1-------1---1---1---1---1---1--|
  everyone                    can see                         with..
e|------- ------- ------- -------|------- ------- ------- -------|
B|----1---1-------1-------1---1--|-------------------------------|
G|----0---2-------0-------2---0--|-------------------------------|
D|----2---2-------2-------2---2--|-------------------------------|
A|-------------------------------|-------------------------------|
E|-------------------------------|-------------------------------|



                                  G
e|1---1-- 1------ 1------ 1---1--|3---3-- 3------ 3------ 3---3--|
B|1---1---1-------1-------1---1--|3---3---3-------3-------3---3--|
G|2---2---2-------2-------2---2--|4---4---4-------4-------4---4--|
D|3---3---3-------3-------3---3--|5---5---5-------5-------5---5--|
A|3---3---3-------3-------3---3--|5---5---5-------5-------5---5--|
E|1---1---1-------1-------1---1--|3---3---3-------3-------3---3--|
  out         her I       will    be                      in
e|------- ------- ------- -------|------- ------- ------- -------|
B|-------------------------------|-------------------------------|
G|-------------------------------|-------------------------------|
D|----3---3-------3-------3---3--|----5---5-------5-------5---5--|
A|----3---3-------3-------3---3--|----5---5-------5-------5---5--|
E|----1---1-------1-------1---1--|----3---3-------3-------3---3--|



  C                               Am
e|0------ 0------ 0------ 0------|0------ 0------ 0---0-- 0------|
B|1-------1-------1-------1------|1-------1-------1---1---1------|
G|0-------0-------0-------0------|2-------2-------2---2---2------|
D|2-------2-------2-------2------|2-------2-------2---2---2------|
A|3-------3-------3-------3------|0-------0-------0---0---0------|
E|3-------3-------3-------3------|-------------------------------|
  Misery                          Oh,                     in
e|------- ------- ------- -------|------- ------- ------- -------|
B|--------1-------1-------1---1--|-------------------------------|
G|--------2-------0-------2---0--|------------2-----------2---2--|
D|--------2-------2-------2---2--|------------2-----------2---2--| 
A|-------------------------------|------------0-----------0---0--|
E|-------------------------------|-------------------------------|



  C                               Am
e|0------ 0------ 0------ 0------|0------ 0---0-- ------- 0---0--|
B|1-------1-------1-------1------|1-------1---1-----------1---1--|
G|0-------0-------0-------0------|2-------2---2-----------2---2--|
D|2-------2-------2-------2------|2-------2---3-----------2---2--|
A|3-------3-------3-------3------|0-------0---0-----------0---0--|
E|3-------3-------3-------3------|-------------------------------|
  Misery                          Oooooooooooohhhhhhhhhh  my
e|------- ------- ------- -------|------- ------- ------- -------|
B|----1---1-------1-------1---1--|-------------------------------|
G|----0---2-------0-------2---0--|--------2---2-----------2---2--|
D|----2---2-------2-------2---2--|--------2---2-----------2---2--| 
A|-------------------------------|--------0---0-----------0---0--|
E|-------------------------------|-------------------------------|



  C                               Am
e|0------ 0------ 0------ 0------|0------ 0---0-- 0---0-- 0------|
B|1-------1-------1-------1------|1-------1---1---1---1---1------|
G|0-------0-------0-------0------|2-------2---2---2---2---2------|
D|2-------2-------2-------2------|2-------2---2---2---2---2------|
A|3-------3-------3-------3------|0-------0---0---0---0---0------|
E|3-------3-------3-------3------|-------------------------------|
  Misery                          La   la   la    la    la    la
e|------- ------- ------- -------|------- ------- ------- -------|
B|----1---1-------1-------1---1--|-------------------------------|
G|----0---2-------0-------2---0--|--------2---2-----------2---2--|
D|----2---2-------2-------2---2--|--------2---2-----------2---2--| 
A|-------------------------------|--------0---0-----------0---0--|
E|-------------------------------|-------------------------------|
  .............................Fade..............................


  C                               Am
e|0------ 0------ 0------ 0------|0------ 0------ 0---0-- 0------|
B|1-------1-------1-------1------|1-------1-------1---1---1------|
G|0-------0-------0-------0------|2-------2-------2---2---2------|
D|2-------2-------2-------2------|2-------2-------2---2---2------|
A|3-------3-------3-------3------|0-------0-------0---0---0------|
E|3-------3-------3-------3------|-------------------------------|
  Misery                                                  
e|------- ------- ------- -------|------- ------- ------- -------|
B|----1---1-------1-------1---1--|-------------------------------|
G|----0---2-------0-------2---0--|--------2---2-----------2---2--|
D|----2---2-------2-------2---2--|--------2---2-----------2---2--| 
A|-------------------------------|--------0---0-----------0---0--|
E|-------------------------------|-------------------------------|
  .......................


        B  Bend
        R  Release
        /  slide up
        \  slide down
        H  hammer-on
        P  pull-off
        ~  vibrato
        +  harmonic
        x  Mute note
        . - play note like a dot in standard notation
        ^ - ties two notes together
        (.  Pause
comments
We did not receive enough feedback on this tab! Please rate:
print report bad tab
1 2 3 4 5
4 comments total. Showing first comments.
0 reply
Blade55 wrote on May 6 2014, 11:43 am

Percect tab. I think more people should rate and play this :)

0 reply
PJVILL wrote on May 6 2014, 02:35 pm

Thanks, man! ;-)

0 reply
Blade55 wrote on May 9 2014, 12:47 pm

No problem. You know this tab is great cause its for rythm + lead with correct fingerings and took much effort. Many cheaper tabs are created with simple chords that dont even match. :) so thx

I want to post or [tab]
guest
You may want to rate the tab now too:
select rating
Please do not post tabs as comments. Select "correction" instead!