Oops, an error
Loading. Please wait.

Norwegian Wood Chords

ver5
ver5

Interactive

Video

More versions @911Tabs.com
31,677 views 222 this week
5 commentsread comments
1 2 3 4 5
excellent!
x 32
add to favorites launch autoscroll
font size
0
reset
transpose
0
reset
highlight chords
display chords
Autoscroll
+/-
esc
set tempo
stop
Contributor
Difficulty
intermediate
WARNING: You are trying to view
                                    content from Ultimate-Guitar.com
                                    in an unauthorized application,
                                    which is prohibited.

                                    Please use an official Ultimate
                                    Guitar Tabs application for iPhone,
                                    iPad or Android to access legitimate
                                    chords, guitar, bass, and drum tabs
                                    from Ultimate-Guitar.com database.

                                    Type "ultimate guitar tabs" in Apple
                                    App Store's or Android Market's
                                    search to find the application.
#-------------------------------PLEASE NOTE-------------------------------------#
# This file is the author's own work and represents their interpretation of the #
# song. You may only use this file for private study, scholarship, or research. #
#-------------------------------------------------------------------------------#
Norwegian Wood (This Bird Has Flown) chords  
The Beatles

Capo II

D C G D then

Individual notes for Sitar effect:

e|--------------------------|from capo
B|--------------------------|
G|-2-4-2-0-----0------0-----|
D|---------4-2---4-0--------|
A|------------------3--2-0--|
E|--------------------------| 

D                                   C        G   D
I once had a girl, or should I say, she once had me
D                                      C    G    D
She showed me her room, isn't it good, Norwegian wood

    Dm                                         G
She asked me to stay and she told me to sit anywhere
   Dm                                           Em   A
So I looked around and I noticed there wasn't a chair
 
D                               C        G   D
I sat on a rug, biding my time, drinking her wine
D                                       C         G   D
We talked until two, and then she said, it's time for bed

e|--------------------------|
B|--------------------------|
G|-2-4-2-0-----0------0-----|
D|---------4-2---4-0--------|
A|------------------3--2-0--|
E|--------------------------| 2x

    Dm                                               G
She told me she worked in the morning and started to laugh
  Dm                                                Em   A
I told her I didn't and crawled off to sleep in the bath

D                              C         G   D
And when I awoke, I was alone, this bird had flown
D                                C    G    D
So, I lit a fire, isn't it good, Norwegian wood

e|--------------------------|
B|--------------------------|
G|-2-4-2-0-----0------0-----|
D|---------4-2---4-0--------|
A|------------------3--2-0--|
E|--------------------------| 

Set8

http://sites.google.com/site/guitarmusicchordsandlyrics/
comments
print report bad tab
5 comments total. Showing first comments.
+1 reply
ssvanguard wrote on December 24 2012, 08:38 pm

I believe the sitar part is a bit off. I think this is correct...

e|----------------------------------|
B|----------------------------------|
G|-2--4-2-0------0--------0---------|
D|----------4--2---4-0--------------|
A|----------------------3---2-0-----|
E|----------------------------------|

Otherwise, sounds great. Thanks!

+1 reply
ssvanguard wrote on December 24 2012, 08:40 pm

Whoops...forgot to block font the last comment so it'll line up...

e|----------------------------------|
B|----------------------------------|
G|-2--4-2-0------0--------0---------|
D|----------4--2---4-0--------------|
A|----------------------3---2-0-----|
E|----------------------------------|

0 reply
Pencom wrote on December 25 2012, 03:44 pm

Thank you! Right you are..I missed three notes on the sitar effect..I've made the changes you have suggested and resubmitted to UG....
Thanks again...
Pencom
Set8

I want to post or [tab]
guest
You may want to rate the tab now too:
select rating
Please do not post tabs as comments. Select "correction" instead!