Oops, an error
Loading. Please wait.

One After 909 Tab

ver1
ver1

Whole song

Interactive

More versions @911Tabs.com
25,371 views 63 this week
no commentswrite comment
1 2 3 4 5
excellent!
x 5
Autoscroll
+/-
esc
set tempo
stop
Contributor
Hey! There's an official Ultimate Guitar app which is ideal
for learning songs when you're away from computer. Get the app
WARNING: You are trying to view
                                    content from Ultimate-Guitar.com
                                    in an unauthorized application,
                                    which is prohibited.

                                    Please use an official Ultimate
                                    Guitar Tabs application for iPhone,
                                    iPad or Android to access legitimate
                                    chords, guitar, bass, and drum tabs
                                    from Ultimate-Guitar.com database.

                                    Type "ultimate guitar tabs" in Apple
                                    App Store's or Android Market's
                                    search to find the application.
  ---------------------------------------------------------------

  THE BEATLES - ONE AFTER 909 (Lennon & McCartney) From LET IT BE 
                NAKED Album. Released on18th November 2003.

  ---------------------------------------------------------------

  Tabbed by:PJVillanueva






  My baby says she's trav'ling on the one after 909
  I said move over honey I'm travelling on that line
  I said move over once, move over twice
  Come on baby don't be cold as ice.
  I said I'm trav'ling on the one after 909
 
  I begged her not to go and I begged her on my bended knee,
  You're only fooling around, you're fooling around with me.
  I said move over once, move over twice
  Come on baby don't be cold as ice.
  I said I'm trav'ling on the one after 909

  I got my bag, run to the station
  Railman says you've got the the wrong location
  I got my bag, run right home
  Then I find I've got the number wrong

  Well I said she's trav'ling on the one after 909
  I said move over honey I'm travelling on that line
  I said move over once, move over twice
  Come on baby don't be cold as ice.
  I said she's trav'ling on the one after 909

  Solo

  Pick up my bag, run to the station
  Railman says you've got the the wrong location
  Pick up my bag, run right home
  Then I find I've got the number wrong

  Well Said she's trav'ling on the one after 909
  I said move over honey I'm travelling on that line
  I said move over once, move over twice
  Come on baby don't be cold as ice.

  I said she's trav'ling on the one after 9 0,
  I said she's trav'ling on the one after 9 0,
  I said she's trav'ling on the one after 909.

  ["Danny Boy..."]




( 1      2      3      4 )                                   
  
e|------ ------ ------ ------|------ ------ ------ ------|  (John)
B|---------------------------|-------7--7------7---7--0--|
G|---------------------------|-------7--7-B-8--8---8-----|
D|---------------------------|---------------------------|
A|---------------------------|---------------------------|
E|---------------------------|---------------------------|
  
e|------ ------ ------ ------|------ ------ ------ ------|  (George)
B|---------------------------|-------7--7---7--7---------|
G|---------------------------|-------7--7-B-8--8---------|
D|---------------------------|---------------------------|
A|---------------------------|---------------------------|
E|---------------------------|---------------------------|



  B7
e|------ ------ ------ ------|------ ------ ------ ------|
B|-------0-------------0-----|0------7--7------7---7-----|
G|-------2-------------2-----|2------7--7-B-8--8---8-----|
D|-------1-------------1-----|1--------------------------|
A|2------2-------------2-----|2--------------------------|
E|---------------------------|---------------------------|
  
e|------ ------ ------ ------|------ ------ ------ ------|
B|-------0-------------------|0--------------------------|
G|-----------------2---------|---------------------------|
D|---------------------------|---------------------------|
A|---------------------------|---------------------------|
E|---------------------------|---------------------------|




e|------ ------ ------ ------|------ ------ ------ ------|
B|-------0-------------0-----|0------7--7------7---7-----|
G|-------2-------------2-----|2------7--7-B-8--8---8-----|
D|-------1-------------1-----|1--------------------------|
A|2------2-------------2-----|2--------------------------|
E|---------------------------|---------------------------|
  
e|------ ------ ------ ------|------ ------ ------ ------|
B|-----------------0---------|---------------------------|
G|-------2-------------------|2--------------------------|
D|---------------------------|---------------------------|
A|---------------------------|---------------------------|
E|---------------------------|---------------------------|


 

e|------ ------ ------ ------|------ ------ ------ ------|
B|-------0------x------0-----|0---------0------0---------|
G|-------2------x------2-----|2---------2------2---------|
D|-------1------x------1-----|1---------1------1---------|
A|2------2------x------2-----|2---------2------2---------|
E|---------------------------|---------------------------|
                                                      My
e|------ 2----- ------ ------|------ ------ ------ ------|
B|-------0---------0---------|----------7------7--\------|
G|-----------------2---------|----------7--B---8--\------|
D|---------------------------|---------------------------|
A|---------------------------|---------------------------|
E|---------------------------|---------------------------|



  
e|------ ------ ------ ------|------ ------ ------ ------|
B|-------0--0------0---------|-------0---------0------0--|
G|-------2--2------2---------|-------2---------2------2--|
D|-------1--1------1---------|-------1---------1------1--|
A|-------2--2------2---------|-------2---------2------2--|
E|---------------------------|---------------------------|
  baby says she's trav'ling on the one after 9     0  9
e|------ 2----- ------ ------|------ ------ ------ ------|
B|-------0---------0---------|-------0---------0---------|
G|-----------------2---------|-------2---------2---------|
D|---------------------------|-------1---------1---------|
A|---------------------------|---------------------------|
E|---------------------------|---------------------------|





e|------ ------ ------ ------|------ ------ ------ ------|    
B|--------------0------------|---------------------------|    
G|2-------------2------------|----------2------2---------|
D|1-------------1------------|----------1------1---------|
A|2-------------2------------|----------2------2---------|
E|---------------------------|---------------------------|
                                               I   said
e|------ ------ ------ ------|------ ------ ------ ------|
B|-------7---------7---------|----------0----------------|
G|-------7-B-8-----8---------|----------2----------------|
D|---------------------------|----------1----------------|
A|---------------------------|2--------------------------|
E|---------------------------|---------------------------|




  
e|------ ------ ------ ------|------ ------ ------ ------|   
B|---------------------------|---------------------------|
G|-------x--2------2------2--|-------2---------2------2--|
D|-------x--1------1------1--|-------1---------1------1--|
A|-------x--2------2------2--|-------2---------2------2--|
E|---------------------------|---------------------------|
  move over     honey     I'm travelling on    that   line
e|------ ------ ------ ------|------ ------ ------ ------|
B|----------0------0---------|0---------0------0---------|
G|----------2------2---------|2---------2------2---------|
D|----------1------1---------|1---------1------1---------|
A|----------2------2---------|2---------2------2---------|
E|---------------------------|---------------------------|




  
e|------ ------ ------ ------|------ ------ ------ ------| 
B|---------------------------|0--0-------------0---------|
G|-------2-------------2-----|2--2------2------2---------|
D|-------1-------------1-----|1--1------1------1---------|
A|-------2-------------2-----|2--2------2------2---------|
E|---------------------------|---------------------------|
                                               I   said
e|------ ------ ------ ------|------ ------ ------ ------|
B|-------0---------0---------|0--0------0------0---------|
G|-------2---------2---------|2--2------2------2---------|
D|-------1---------1---------|1--1------1------1---------|
A|---------------------------|---------------------------|
E|---------------------------|---------------------------|




  
e|------ ------ ------ ------|------ ------ ------ ------|
B|0----------------0---------|0--------------------------|
G|2----------------2---------|2--------------------------|
D|1----------------1---------|1--------------------------|
A|2----------------2---------|2--------------------------|
E|---------------------------|---------------------------|
  move over once,             move over twice
e|------ ------ ---2-- ------|2----- ------ ---0-- ------|
B|0----------------0---------|0----------------0---------|
G|2----------------2---------|1----------------1---------|
D|1----------------1---------|1----------------2---0--2--|
A|2--------------------------|---------------------------|
E|---------------------------|---------------------------|




  E
e|------ ------ ------ ------|------ ------ ------ ------|
B|---------------------------|------------------------0--|
G|-------1---------1------1--|----------1------1------2--|
D|-------2---------2------2--|----------2------2------1--|
A|-------2---------2------2--|----------2------2------2--|
E|---------------------------|---------------------------|
     Come on    baby   don't be cold as ice.
e|------ ------ ------ ------|------ ------ ------ ------|  
B|---------------------------|---------------------------|
G|-------1--1------1------1--|2-------------2------2-----|
D|-------2--2------2------2--|2-------------2------2-----|
A|-------2--2------2------2--|2-------------2------2-----|
E|0--------------------------|---------------------------|




  B7                          F#7
e|------ ------ ------ ------|------ ------ ------ ------|
B|-------0---------0------0--|-------5---------5---------|
G|-------2---------2------2--|-------3---------3---------|
D|-------1---------1------1--|-------2---------2---------|
A|-------2---------2------2--|-------4---------4---------|
E|---------------------------|-------2---------2---------|
     I said I'm trav'ling on the one after  9      0  9 
e|------ 2----- ------ ------|------ ------ ------ ------|
B|-------0---------0---------|5--------------------------|
G|-------2---------2---------|3--------------------------|
D|-----------------1---------|4--------------------------|
A|---------------------------|4--------------------------|
E|---------------------------|---------------------------|




  B7
e|------ ------ ------ ------|------ ------ ------ ------|
B|-------0---------0---0-----|-------0--0------0---------|
G|-------2---------2---2-----|-------2--2------2---------|
D|-------1---------1---1-----|-------1--1------1---------|
A|-------2---------2---2-----|-------2--2------2---------|
E|---------------------------|---------------------------|
                                                      I
e|------ 10-B-12--12-R-10----|7----- ---7-- ------ ------|
B|---------------------------|--10-B-11--------10B12-R-10|
G|---------------------------|---------------------------|
D|---------------------------|---------------------------|
A|---------------------------|---------------------------|
E|---------------------------|---------------------------|




  
e|------ ------ ------ ------|------ ------ ------ ------|   
B|---------------------------|---------------------------|
G|-------2---------2------2--|-------2---------2---------|
D|-------1---------1------1--|-------1---------1---------|
A|-------2---------2------2--|-------2---------2---------|
E|---------------------------|---------------------------|
  begged her not to go and I begged her on my bended knee,
e|------ ------ ------ ------|------ ------ ------ ------|
B|--------------7------------|-------7---------7---------|
G|--------------8------------|-------8---------8---------|
D|--------------7------------|-------7---------7---------|
A|--------------9------------|-------9---------9---------|
E|--------------7------------|-------7---------7---------|





e|------ ------ ------ ------|------ ------ ------ ------|  
B|-------0----------------0--|---------------------------|
G|-------2---------2------2--|-------2---------2------2--|
D|-------1---------1------1--|-------1---------1------1--|
A|-------2---------2------2--|-------2---------2------2--|
E|---------------------------|---------------------------|
                Yes I did                             You're
e|------ ------ ------ 7-----|------ ------ ------ 7-----|
B|---------10--B--11---------|---------10--B--11---------|
G|---------------------------|---------------------------|
D|---------------------------|---------------------------|
A|---------------------------|---------------------------|
E|---------------------------|---------------------------|




  
e|------ ------ ------ ------|------ ------ ------ ------|  
B|------------------------0--|---------------------------|
G|-------2---------2------2--|-------2---------2------2--|
D|-------1---------1------1--|-------1---------1------1--|
A|-------2---------2------2--|-------2---------2------2--|
E|---------------------------|---------------------------|
  only fooling 'round,    only      fooling 'round with me.
e|------ ------ ------ ------|------ ------ ---7-- ------|
B|---------------------------|-------10--B--11-----------|
G|-------8----------------8--|---------------------------|
D|-------7----------------7--|---------------------------|
A|-------9----------------9--|---------------------------|
E|-------7----------------7--|---------------------------|


 

 
e|------ ------ ------ ------|------ ------ ------ ------|  
B|---------------------------|-------0-------------------|
G|-------2-------------2-----|-------2--2------2---------|
D|-------1-------------1-----|-------1--1------1---------|
A|-------2-------------2-----|-------2--2------2---------|
E|---------------------------|---------------------------|
                                               I   said
e|------ ------ ------ ------|7----- ------ ------ ------|
B|-----------------10--B--11-|----------10---------7-----|
G|-------8-------------------|---------------------------|
D|-------7-------------------|---------------------------|
A|-------9-------------------|---------------------------|
E|-------7-------------------|---------------------------|




  
e|------ ------ ------ ------|------ ------ ------ ------|
B|0--------------------------|0--------------------------|
G|2--------------------------|2--------------------------|
D|1--------------------------|1--------------------------|
A|2--------------------------|2--------------------------|
E|---------------------------|---------------------------|
  move over once,             move over twice
e|------ ------ ------ ------|------ ------ ------ ------|
B|---------------------------|---------------------------|
G|---------------------------|---------------------------|
D|---------------------------|---------------------------|
A|9-------------9--9---------|9--------------------------|
E|7-------------7--7---------|7----------------14---\----|



  E7
e|------ ------ ------ ------|------ ------ ------ ------|
B|-------3---------3------3--|-------3--3------3------0--|
G|-------1---------1------1--|-------1--1------1------1--|
D|-------2---------2------2--|-------2--2------2------2--|
A|-------2---------2------2--|-------2--2------2------2--|
E|0--------------------------|---------------------------|
     Come on    baby  don't be  cold as ice.
e|------ ------ ------ ------|------ ------ ------ ------|
B|-------0-------------------|----------0----------------|
G|-------1-------------------|----------1----------------|
D|-------0-------------------|----------0----------------|
A|-------2-------------------|----------2----------------|
E|0--------------------------|---------------------------|




  B7                          F#7
e|------ ------ ------ ------|------ ------ ------ ------|
B|-------0---------0---------|-------5---------5---------|
G|-------2---------2---------|-------3---------3---------|
D|-------1---------1---------|-------2---------2---------|
A|-------2---------2---------|-------4---------4---------|
E|---------------------------|-------2---------2---------|
       said I'm trav'ling on the one after  9      0  9

e|------ ---2-- ------ ------|------ ------ ------ ------|
B|0---------0----------------|---------------------------|
G|2---------2----------------|3---------3----------------|
D|1---------1----------------|2---------2----------------|
A|2---------2----------------|4---------4----------------|
E|---------------------------|2---------2----------------|



 
  B7                                                  E
e|------ ------ ------ ------|------ ------ ------ ---0--|  
B|---------------------------|0--0-------------0------0--|
G|-------2-------------2-----|2--2------2------2------1--|
D|-------1-------------1-----|1--1------1------1------2--|
A|-------2-------------2-----|2--2------2------2------2--|
E|---------------------------|---------------------------|
  
e|---7-- ------ ---7-- ------|------ ------ ------ ------|
B|---------10-B-11-----10--7\|6--------------------------|
G|---------------------------|---9---7------7------------|
D|---------------------------|----------9----------9-----|
A|---------------------------|---------------------------|
E|---------------------------|---------------------------|


 

  E7
e|------ 0----- ------ 0-----|------ 0--0-- ---0-- 0-----|
B|-------3-------------3-----|-------3--3------3---3-----|
G|-------1-------------1-----|-------1--1------1---1-----|
D|-------2-------------2-----|-------2--2------2---2-----|
A|-------2-------------2-----|-------2--2------2---2-----|
E|---------------------------|---------------------------|
     I   got my bag, 
e|------ ------ ------ ------|------ ------ ------ ------|
B|---------------------------|---------------------------|
G|------------------------9--|---9----------9------9-----|
D|------------------------9--|---9----------9------9-----|
A|7------------------9/11----|----------11---------------|
E|---------------------------|---------------------------|




  B7
e|------ 2----- ------ ------|------ 2----- 2----- ------|
B|-------0-------------0-----|---0---0--0---0--0---------|
G|-------2-------------2-----|---2---2--2---2--2---------|
D|-------1-------------1-----|---1---1--1---1--1---------|
A|-------2-------------2-----|---2---2--2---2--2---------|
E|---------------------------|---------------------------|
         run    to     the station
e|------ ------ ------ ------|---7-- ------ ---7-- ------|  
B|---------------------------|---7-------------7---------|
G|---------------------------|---------------------------|
D|---------------------------|----------9-------------9--|
A|---------------------------|---------------------------|
E|7--------------------7-----|---------------------------|



  C#7
e|------ ------ ------ ------|------ ------ ------ ------|
B|-------2---------2---2-----|2------2---------2---2-----|
G|-------4---------4---4-----|4------4---------4---4-----|
D|-------3---------3---3-----|3------3---------3---3-----|
A|-------4---------4---4-----|4------4---------4---4-----|
E|---------------------------|---------------------------|
  Railman       says                           you've got the
e|------ ------ ------ ------|------ ------ ------ ------|
B|---------------------------|---9-----------------------|
G|---------------------------|--10----------x------------|
D|---------------------------|---9----------x------------|
A|---------------------------|--11----------x------------|
E|---------------------------|---9-----------------------|



  F#7
e|------ ------ ------ ------|------ ------ ------ ------|
B|-------5---------5---5-----|---5---5--5------5---5--5--|
G|-------3---------3---3-----|---3---3--3------3---3--3--|
D|-------2---------2---2-----|---2---2--2------2---2--2--|
A|-------4---------4---4-----|---4---4--4------4---4--4--|
E|-------2---------2---2-----|---2---2--2------2---2--2--|
  wrong  location
e|------ ------ ------ ------|------ ------ ------ ------|
B|---------------------------|---------------------------|
G|---------------------11----|11--------11---------------|
D|---------------------11----|11--------11---------------|
A|-----------------13--------|-------13--------13-----13-|
E|---------------------------|---------------------------|



  E7
e|0----- 0----- ------ 0-----|------ 0--0-- ---0-- 0-----|
B|3------3-------------3-----|-------3--3------3---3-----|
G|1------1-------------1-----|-------1--1------1---1-----|
D|2------2-------------2-----|-------2--2------2---2-----|
A|2------2-------------2-----|-------2--2------2---2-----|
E|---------------------------|---------------------------|
     I   got my bag, 
e|------ ------ ------ ------|------ ------ ------ ------|
B|---------------------------|---------------------------|
G|9------9-------------------|11P9------9----------9-----|
D|9------9-------------------|11P9------9----------9-----|
A|---------------------------|-------11--------11--------|
E|---------------------------|---------------------------|



  B7
e|------ 2----- ------ 2-----|------ 2--2-- ---2-- 2--2--|
B|-------0-------------0-----|-------0--0------0---0--0--|
G|-------2-------------2-----|-------2--2------2---2--2--|
D|-------1-------------1-----|-------1--1------1---1--1--|
A|-------2-------------2-----|-------2--2------2---2--2--|
E|---------------------------|---------------------------|
  run    right  home
e|------ ------ ------ ---7--|------ ---7-- ------ ------|
B|---------------------------|--10-B-11------------7-----|
G|---------------------------|---------------------------|
D|---------------------------|------------------------9--|
A|---------------------------|---------------------------|
E|---------------------------|---------------------------|



  C#7
e|------ ------ ------ ------|------ ------ ------ ------|
B|-------2---------2---2-----|-------2--2----------2-----|
G|-------4---------4---4-----|-------4--4----------4-----|
D|3------3---------3---3-----|3------3--3----------3-----|
A|-------4---------4---4-----|-------4--4----------4-----|
E|---------------------------|---------------------------|
  Then I    find                               I've got the 

e|------ ------ ------ ------|---9-- ------ ------ ------|
B|-----------------------12-B|13-----12------------------|
G|---------------------------|----------10---------------|
D|---------------------------|---------------------------|
A|---------------------------|---------------------------|
E|---------------------------|---------------------------|



  F#7
e|------ ------ ------ ------|------ ------ ------ ------|
B|-------5--5------5---5-----|-------5--5---5--5---5--5--|
G|-------3--3------3---3-----|-------3--3---3--3---3--3--|
D|-------2--2------2---2-----|-------2--2---2--2---2--2--|
A|-------4--4------4---4-----|-------4--4---4--4---4--4--|
E|-------2--2------2---2-----|-------2--2---2--2---2--2--|
  number wrong                       Well
e|------ ------ ------ ------|------ ------ ------ ------|
B|---------------------------|---------------------------|
G|---------11----------11----|-------11-----11-----------|
D|---------11----------11----|-------11-----11-----------|
A|---------------------------|---13----------------13----|
E|---------------------------|---------------------------|



  B7
e|------ ------ ------ ------|------ ------ ------ ------| 
B|0------0---------0------0--|----------0------0---------|
G|2------2---------2------2--|2---------2------2---------|
D|1------1---------1------1--|1---------1------1---------|
A|2------2---------2------2--|2---------2------2---------|
E|---------------------------|---------------------------|
    I said she's trav'ling on the one after 9      0  9
e|------ ------ ------ ------|------ ------ ------ ------|  
B|0--------------------------|---------------------------|
G|2--------------------------|---------------------------|
D|1--------------------------|---------------------------|
A|2--------------------------|---------------------------|
E|---------------------------|---------------------------|




e|------ ------ ------ ------|------ ------ ------ ------| 
B|-------0-------------0-----|-------0--0-------------0--|
G|-------2-------------2-----|-------2--2------2------2--|
D|-------1------1------1-----|-------1--1------1------1--|
A|-------2-------------2-----|-------2--2------2------2--|
E|---------------------------|---------------------------|
                                               I said
e|10B11- 10P9-- 12-10- B--11-|------ ------ ------ ------|
B|-----------9---------------|12-----10-12---------------|
G|---------------------------|---------------------8-----|
D|---------------------------|---------------------9-----|
A|---------------------------|---------------------9-----|
E|---------------------------|---------------------7-----|




e|------ ------ ------ ------|------ ------ ------ ------| 
B|-------0---------0---------|-------0--0------0---------|
G|-------2---------2---------|-------2--2------2---------|
D|-------1---------1---------|-------1--1------1---------|
A|-------2---------2---------|-------2--2------2---------|
E|---------------------------|---------------------------|
  move over honey         I'm travelling on    that   line
e|------ ------ ------ ------|------ ------ ------ ------|
B|---------------------------|---------------------------|
G|---8-------8------------8--|----------8----------------|
D|---9-------9------------9--|----------9----------------|
A|---9-------9------------9--|----------9----------------|
E|---7-------7------------7--|----------7----------------|




e|------ ------ ------ ------|------ ------ ------ ------|   
B|-------0-------------0-----|----------0------0---0-----|
G|-------2-------------2-----|-------2--2------2---2-----|
D|-------1-------------1-----|-------1--1------1---1-----|
A|-------2-------------2-----|-------2--2------2---2-----|
E|---------------------------|---------------------------|
                                               I said
e|------ ------ ------ ------|------ 7----- ------ ------|
B|--10-B-7------10-B-7---10-B|11-------------------------|
G|----------7----------7-----|--------------9B10R9-7-----|
D|---------------------------|------------------------9--|
A|---------------------------|---------------------------|
E|---------------------------|---------------------------|




e|------ ------ ------ ------|------ ------ ------ ------|
B|0--------------------------|0--------------------------|
G|2--------------------------|2--------------------------|
D|1--------------------------|1--------------------------|
A|2--------------------------|2--------------------------|
E|---------------------------|---------------------------|
  move over once,             move over twice
e|------ ------ ------ ------|------ ------ ------ ------|
B|---------------------------|---------------------------|
G|---------------------------|---------------------------|
D|-----------------9---------|---------------------------|
A|-----------------9---------|-----------------9---------|
E|---------------------------|---------------------------|



  E7
e|0----- 0----- ---0-- 0-----|0----- 0----- 0----- ------|
B|3------3---------3---3-----|3------3------3------------|
G|1------1---------1---1-----|1------1------1------------|
D|2------2---------2---2-----|2------2------2------------|
A|2------2---------2---2-----|2------2------2------------|
E|---------------------------|---------------------------|
     Come on    baby  don't be  cold as ice.
e|------ ------ ------ ------|------ ------ ------ ------|
B|---------------------------|---------------------------|
G|------------------------9--|---9----------9------------|
D|------------------------9--|---9----------9---------11-|
A|7------------------9/11----|----------11---------------|
E|---------------------------|---------------------------|



  B7                          F#7
e|------ ------ ------ ------|------ ------ ------ ------|   
B|0------0---------0---------|---------------------------|
G|2------2---------2---------|-------3--3------3---------|
D|1------1---------1---------|-------2--2------2---------|
A|2------2---------2---------|-------4--4------4---------|
E|---------------------------|-------2--2------2---------|
      said she's trav'ling on the one after 9      0  9
e|------ ------ ------ ------|------ ------ ------ ------|
B|---------------------------|---9----------7------------|
G|-----------------8---------|---9----------9------------|
D|-----------------7---------|---8----------8------------|
A|-----------------9---------|---9----------9------------|
E|-----------------7---------|---------------------------|


                                               Solo
  B7
e|------ ------ ------ ------|------ ------ ------ ------|  
B|-------0---------0------0--|-------0---------0---------|
G|-------2---------2------2--|-------2---------2---------|
D|-------1---------1------1--|-------1---------1---------|
A|-------2---------2------2--|-------2---------2---------|
E|---------------------------|---------------------------|
  
e|------ 7----- ------ ------|7----- ------ ---7-- ---7--|
B|-------7---------7---------|7--------------------------|
G|-----------------8---------|---------------------------|
D|---------------------------|---------------------------|
A|---------------------------|---------------------------|
E|---------------------------|---------------------------|





e|------ ------ ------ ------|------ ------ ------ ------|
B|-------0-------------0-----|0------0---------0---0-----|
G|-------2-------------2-----|2------2---------2---2-----|
D|-------1-------------1-----|1------1---------1---1-----|
A|-------2-------------2-----|2------2---------2---2-----|
E|---------------------------|---------------------------|

e|10-B-12---7-- ------ ------|------ ------ ------ ------|
B|----------7------10--7-----|---------------------------|
G|---------------------------|9-B-11-------------------11R
D|---------------------------|---------------------------|
A|---------------------------|---------------------------|
E|---------------------------|---------------------------|
  




e|------ ------ ------ ------|------ ------ ------ ------|
B|-------0-------------0-----|-------0--0------0---0-----|
G|-------2-------------2-----|-------2--2------2---2-----|
D|-------1-------------1-----|1------1--1------1---1-----|
A|-------2-------------2-----|-------2--2------2---2-----|
E|---------------------------|---------------------------|

e|------ ------ ------ ------|------ ------ ------ ------|
B|---------------------------|---------------------------|
G|9------7-------------------|---------------------7--9-9B
D|-----------------9------x--|-----------------9---------|
A|---------------------------|---------------------------|
E|---------------------------|---------------------------|





e|------ ------ ------ ------|------ ------ ------ ------|
B|-------0---------0---------|0------0---------0---------|
G|-------2---------2---------|2------2---------2---------|
D|1------1---------2---------|1------1---------1---------|
A|-------2---------2---------|2------2---------2---------|
E|---------------------------|---------------------------|
  
e|---9-- ------ ------ ---7--|------ ------ ------ ------|
B|----------9-----10-B-12----|10--7----------------------|
G|11-------------------------|------10\9-7---------------|
D|---------------------------|--------------9--7---------|
A|---------------------------|---------------------9--7--|
E|---------------------------|---------------------------|





e|------ ------ ------ ------|------ ------ ------ ------|
B|-------0---------0---------|0---------0------0---------|
G|-------2---------2---------|2---------2------2---------|
D|-------1---------1---------|1---------1------1---------|
A|-------2---------2---------|2---------2------2---------|
E|---------------------------|---------------------------|
  
e|------ ------ ------ ------|------ ------ ------ ------|
B|---------------------------|---------------------------|
G|---------------------------|---------------------------|
D|------------------------7--|---7----------7------------|
A|6------------------7/9-----|----------9----------9-----|
E|-------7------5------------|---------------------------|





e|2----- ------ ------ ------|2----- ------ ------ ------|
B|0--------------------------|0--------------------------|
G|2--------------------------|2--------------------------|
D|1--------------------------|1--------------------------|
A|2--------------------------|2--------------------------|
E|---------------------------|---------------------------|
  
e|------ ------ ------ ------|------ ------ ------ ------|
B|---9-P-7------9------------|---9-B-10------------------|
G|---9-P-7------9B8----------|---9-B-11-----7-B-8--------|
D|----------9----------9-----|---------------------9-----|
A|---------------------------|---------------------------|
E|---------------------------|---------------------------|




  E7
e|------ ------ ------ ------|------ ---0-- ------ ------|
B|-------3---------3------3--|----------3-------------0--|
G|-------1---------1------1--|----------1-------------2--|
D|-------2---------2------2--|----------2-------------1--|
A|-------2---------2------2--|----------2-------------2--|
E|---------------------------|---------------------------|
  
e|------ ------ 10-12-B-14-14|14-14- 14-14-R-12-10 ------|
B|----------12---------------|---------------------12----|
G|---------------------------|---------------------------|
D|---------------------------|---------------------------|
A|---------------------------|---------------------------|
E|---------------------------|---------------------------|





  B7                          F#7
e|------ ------ ------ ------|------ ------ ------ ------|
B|-------0---------0---------|---------------------------|
G|-------2---------2---------|-------3---------3---------|
D|-------1---------1---------|-------2---------2---------|
A|-------2---------2---------|-------4---------4---------|
E|---------------------------|-------2---------2---------|
  
e|10---- 7\5-7- ------ ------|------ ------ ------ ------|
B|-----------7---------------|---------------------------|
G|-----------------9---7-----|---7---9B11---11-----9-P-7-|
D|---------------------------|9--------------------------|
A|---------------------------|---------------------------|
E|---------------------------|---------------------------|




  B7
e|------ ------ ------ ------|------ ------ ------ ------|
B|------------------------0--|-----------------0---------|
G|-------2---------2------2--|-------2---------2---------|
D|-------1---------1------1--|-------1---------1---------|
A|-------2---------2------2--|-------2---------2---------|
E|---------------------------|---------------------------|
  
e|------ ------ ------ ------|------ ------ ------ ------|
B|---------------------------|---------------------------|
G|---------------------------|---------------------------|
D|9--9---9------9---------9--|-------7------7--9---------|
A|---------------------------|------------------------9-/|
E|---------------------------|---------------------------|




  E7
e|------ 0----- ------ 0-----|------ 0----- ---0-- 0--0--|
B|-------3-------------3-----|-------3---------3---3--3--|
G|-------1-------------1-----|-------1---------1---1--1--|
D|-------2-------------2-----|-------2---------2---2--2--|
A|-------2-------------2-----|-------2---------2---2--2--|
E|---------------------------|---------------------------|
     Pick up my bag,                                                         
e|------ ------ ------ ------|------ ------ ------ ------|
B|---------------------------|---------------------------|
G|---9--------------------9--|---9----------9------9-\---|
D|---9--------------------9--|---9----------9------9-\---|
A|11-----------------9/11----|----------11---------------|
E|---------------------------|---------------------------|



  B7
e|------ 2----- ------ ------|2----- ------ ------ ------|
B|-------0---------0---------|0------0--0------0---------|
G|-------2---------2---------|2------2--2------2---------|
D|-------1---------1---------|1------1--1------1---------|
A|-------2---------2---------|2------2--2------2---------|
E|---------------------------|---------------------------|
         run    to     the station  
e|------ ------ ------ ------|------ ------ ------ ------|
B|-------7---------7---------|10--------10-----7---------|
G|-------8---------8---------|---------------------7B8---|
D|-------7---------7---------|---------------------------|
A|---------------------------|---------------------------|
E|---------------------------|---------------------------|   




  C#7
e|------ ------ ------ ------|------ ------ ------ ------|
B|-------2-------------2-----|-------2---------2---------|
G|-------4-------------4-----|-------4---------4---------|
D|3------3-------------3-----|-------3---------3---------|
A|-------4-------------4-----|-------4---------4---------|
E|---------------------------|---------------------------|
  Railman says                                you've got the 
e|------ ------ ------ ------|9----- ------ ------ 9-----|
B|-----------------12--B--14-|9---------12--B--14--9-----|
G|---------------------------|---------------------------|
D|---------------------------|---------------------------|
A|---------------------------|---------------------------|
E|---------------------------|---------------------------|




  F#7                                                 E7
e|------ ------ ------ ------|------ ------ ------ ------|
B|-------5-------------5-----|5------5---------5------3--|
G|-------3-------------3-----|3------3---------3------1--|
D|-------2-------------2-----|2------2---------2------2--|
A|-------4-------------4-----|4------4---------4------2--|
E|-------2-------------2-----|2------2---------2---------|
  wrong  location
e|------ ------ ------ ------|------ ------ ------ ------|
B|---9-------------9---------|---9-----------------------|
G|---9------9------9------9--|---9------9----------------|
D|----------8-------------8--|----------8----------------|
A|---------------------------|---------------------------|
E|---------------------------|---------------------------|





e|------ 0----- ------ 0-----|------ 0----- ---0-- 0-----|
B|-------3-------------3-----|-------3---------3---3-----|
G|-------1-------------1-----|-------1---------1---1-----|
D|-------2-------------2-----|-------2---------2---2-----|
A|-------2-------------2-----|-------2---------2---2-----|
E|---------------------------|---------------------------|
    Pick up my  bag, 
e|------ ------ ------ ------|------ ------ ------ ------|
B|---------------------------|---------------------------|
G|7------7----------------7--|-------7-------------7-----|
D|6------6----------------6--|-------6-------------6-----|
A|7------7----------------7--|-------7-------------7-----|
E|---------------------------|---------------------------|





  B7
e|------ 2----- ------ ------|------ ------ ------ ------|
B|-------0-------------0-----|-----------------0---------|
G|-------2-------------2-----|-------2--2---2--2------4--|
D|-------1-------------1-----|-------1--1---1--1------3--|
A|-------2-------------2-----|-------2--2---2--2------4--|
E|---------------------------|---------------------------|
  run    right  home
e|------ ------ ------ ------|------ ------ ------ ------|
B|-------7---------7---------|----------7------7---------|
G|-------8---------8---------|----------8------9---------|
D|-------7---------7---------|----------7------7---------|
A|-------9---------9---------|----------9------9---------|
E|---------------------------|---------------------------|





  F#7
e|------ ------ ------ ------|------ ------ ------ ------|
B|-------2---------2---------|2------2---------2---2-----|
G|-------4---------4---------|4------4---------4---4-----|
D|-------3---------3---------|3------3---------3---3-----|
A|-------4---------4---------|4------4---------4---4-----|
E|---------------------------|---------------------------|
  Then I    find                               I've got the 
e|------ ------ ------ ------|------ ------ ------ ---2--|
B|-------2---------2---------|2--2---2--2------2------2--|
G|-------4---------4---------|4--4---4--4------4------3--|
D|-------3---------3---------|3--3---3--3------3------2--|
A|-------4---------4---------|4--4---4--4------4------4--|
E|---------------------------|---------------------------|




  F#
e|------ ------ ------ ------|------ ------ ------ ------|
B|-------5---------5---------|5---------5------5---------|
G|-------3---------3---------|3---------3------3---------|
D|-------2---------2---------|2---------2------2---------|
A|-------4---------4---------|4---------4------4---------|
E|-------2---------2---------|2---------2------2---------|
  number wrong              Well
e|---2-- ---2-- ---2-- ------|------ ------ ---2-- ------|
B|---2------2------2---------|2------2------2--2---------|
G|---3------3------3---------|3------3------3--3---------|
D|---2------2------2---------|2------2------2--2---------|
A|---4------4------4---------|4------4------4--4---------|
E|---2------2------2---------|2------2------2--2---------|     




  B7
e|------ ------ ------ ------|------ ------ ------ ------|
B|-----------------0---------|-----------------0---------|
G|-------2---------2---------|-------2---------2---------|
D|-------1---------1---------|-------1---------1---------|
A|-------2---------2---------|-------2---------2---------|
E|---------------------------|---------------------------|
      Said she's trav'ling on the one after 9      0  9
e|------ ------ ------ ------|------ ------ ------ ------|
B|-------0---------0------0--|-------0---------0---------|
G|-------2---------2------2--|-------2---------2---------|
D|-------1---------1------1--|-------1---------1---------|
A|-------2---------2------2--|-------2---------2---------|
E|---------------------------|---------------------------|





e|------ ------ ------ ------|------ ------ ------ ------|
B|-------0-------------0-----|-------0--0------0---0-----|
G|-------2-------------2-----|-------2--2------2---2-----|
D|1------1------1------1-----|1------1--1------1---1-----|
A|-------2-------------2-----|-------2--2------2---2-----|
E|---------------------------|---------------------------|
                                                      Said
e|------ ------ ------ ------|------ ------ ------ ------|
B|-------7--7------7---7-----|0------0------0--0---------|
G|-------7--7-B-8--8---8-----|2------2------2--2---------|
D|---------------------------|1------1------1--1---------|
A|---------------------------|-------2------2--2---------|
E|---------------------------|---------------------------|     





e|------ ------ ------ ------|------ ------ ------ ------|
B|-------0-------------0-----|-------0-------------0-----|
G|-------2-------------2-----|-------2-------------2-----|
D|-------1-------------1-----|-------1-------------1-----|
A|-------2-------------2-----|-------2-------------2-----|
E|---------------------------|---------------------------|
  Move over honey         I'm travelling on    that   line
e|------ ------ ------ ------|------ ------ ------ ------|
B|-------0---------0------0--|-------0--0------0---------|
G|-------2---------2------2--|-------2--2------2---------|
D|-------1---------1------1--|-------1--1------1---------|
A|-------2---------2------2--|-------2--2------2---------|
E|---------------------------|---------------------------|





e|------ ------ ------ ------|------ ------ ------ ------|
B|-------0-------------0-----|-------0--0------0---------|
G|-------2-------------2-----|-------2--2------2---------|
D|-------1-------------1-----|1------1--1------1---------|
A|-------2-------------2-----|-------2--2------2---------|
E|---------------------------|---------------------------|
                                               I   said
e|------ ------ ------ ------|------ ------ ------ ------|
B|-------7--7------7------0--|-------0--0------0------0--|
G|-------7--7-B-8--8------2--|-------2--2------2------2--|
D|------------------------1--|-------1--1------1------1--|
A|------------------------2--|-------2--2------2------0--|
E|---------------------------|---------------------------|   





e|------ ------ ------ ------|------ ------ ------ ------|
B|0--------------------------|0--------------------------|
G|2--------------------------|2--------------------------|
D|1--------------------------|1--------------------------|
A|2--------------------------|2--------------------------|
E|---------------------------|---------------------------|
  Move over once,             Move over twice
e|------ ------ ------ ------|------ ------ ------ ------|
B|0--------------------------|---------------------------|
G|2-----------------------2--|------------------------2--|
D|1-----------------------1--|------------------------1--|
A|2-----------------------2--|------------------------2--|
E|---------------------------|---------------------------|



  E7
e|0----- 0----- ------ 0-----|------ 0--0-- ---0-- ------|
B|3------3-------------3-----|-------3--3------3------0--|
G|1------1-------------1-----|-------1--1------1------2--|
D|2------2-------------2-----|-------2--2------2------1--|
A|2------2-------------2-----|-------2--2------2------2--|
E|---------------------------|---------------------------|
    Come on,    baby   don't be cold as ice
e|------ 7----- ------ ------|------ ------ ------ ------|
B|-------0---------0------7--|------------------------0--|
G|-------7----------------7--|------------------------2--|
D|------------------------6--|------------------------1--|
A|-------7----------------7--|------------------------2--|
E|---------------------------|---------------------------|




  B7                          F#7                     B7
e|------ ------ ------ ------|------ ------ ------ ------|
B|0------0---------0---------|----------5---5---------0--|
G|2------2---------2---------|----------3---3---------2--|
D|1------1---------1---------|----------2---2---------1--|
A|2------2---------2---------|----------4---4---------2--|
E|---------------------------|----------2---2------------|
      Said she's trav'ling on the one after 9      0,
e|------ 2----- ------ ------|------ ------ ------ ------|
B|-------0--0----------------|----------2----------------|
G|-------2-------------------|----------3----------------|
D|-------1-------------------|----------2----------------|
A|-------2-------------------|---------------------------|
E|---------------------------|----------2----------------|



                              F#7
e|------ ------ ------ ------|------ ------ ------ ------|
B|0------0---------0---------|-------5---------5---------|
G|2------2---------2---------|-------3---------3---------|
D|1------1---------1---------|-------2---------2---------|
A|2------2---------2---------|-------4---------4---------|
E|---------------------------|-------2---------2---------|
      Said she's trav'ling on the one after 9      0,
e|------ 2----- ------ ------|------ ------ ------ ------|
B|-------0---------0---------|----------2----------------|
G|-------2-------------------|----------3----------------|
D|-------1-------------------|----------2----------------|
A|-------2-------------------|---------------------------|
E|---------------------------|----------2----------------|




  B7                          F#7
e|------ ------ ------ ------|------ ------ ------ ------|
B|-------0---------0---------|5---------5---5------------|
G|-------2---------2---------|3---------3---3------------|
D|-------1---------1---------|2---------2---2------------|
A|-------2---------2---------|4---------4---4------------|
E|---------------------------|2---------2---2------------|
      Said she's trav'ling on the one after 9      0  9
e|------ 2----- ------ ------|------ ------ ------ ------|
B|-------0---------0---------|---------------------------|
G|-------2-------------------|---------------------------|
D|-------1-------------------|---------------------------|
A|-------2-------------------|---------------------------|
E|---------------------------|---------------------------|



                                                  (.
  B7                                               B13
e|------ ------ ------ ------|------ ---2-- ------ 4-----|
B|-------0---------0---------|0---------0----------0-----|
G|-------2---------2---------|2---------2----------2-----|
D|-------1---------1---------|1---------1----------1-----|
A|-------2---------2---------|2---------2----------2-----|
E|---------------------------|---------------------------|
  
e|------ ------ ------ ------|------ ------ ------ ------|
B|---9-B-10--10R9-P-7--------|---------------------------|
G|---------------------------|---------------------------|
D|---------------------9P7---|---7---9--9----------9-----|
A|-------------------------9-|9--------------------------|
E|---------------------------|---------------------------|






        B  Bend
        R  Release
        /  slide up
        \  slide down
        H  hammer-on
        P  pull-off
        ~  vibrato
        +  harmonic
        x  Mute note
        . - play note like a dot in standard notation
        ^ - ties two notes together
        (. Pause


comments
print report bad tab
I want to post or [tab]
guest
You may want to rate the tab now too:
select rating
Please do not post tabs as comments. Select "correction" instead!