Oops, an error
Loading. Please wait.

Past Masters Vol 1 Tab

40,902 views 51 this week
no commentswrite comment
1 2 3 4 5
excellent!
x 3
Autoscroll
+/-
esc
set tempo
stop
Contributor
Hey! There's an official Ultimate Guitar app which is ideal
for learning songs when you're away from computer. Get the app
WARNING: You are trying to view
                                    content from Ultimate-Guitar.com
                                    in an unauthorized application,
                                    which is prohibited.

                                    Please use an official Ultimate
                                    Guitar Tabs application for iPhone,
                                    iPad or Android to access legitimate
                                    chords, guitar, bass, and drum tabs
                                    from Ultimate-Guitar.com database.

                                    Type "ultimate guitar tabs" in Apple
                                    App Store's or Android Market's
                                    search to find the application.
Past Masters Vol. One
Album


1. Love Me Do
2. From Me To You
3. Thank You Girl
4. She Loves You
5. I'll Get You
6. I Want To Hold Your Hand
7. This Boy
8. Komm, Gib Mir Deine Hand
9. Sie Liebt Dich
10. Long Tall Sally
11. I Call Your Name
12. Slow Down
13. Matchbox
14. I Feel Fine
15. She's A Woman
16. Bad Boy
17. Yes It Is
18. I'm Down


==========================================================================


Love me do


intro: (played on harmonica)


E--12h13--11h12--9h10-----------------------|
B----------------------8-8---8-8-8----------|
G-------------------------------------------|
D-------------------------------------------|
A-------------------------------------------|
E-------------------------------------------|


E---12h13--13--13--11h12--12--12--9h10---------------|
B---------------------------------------8-8---8-8-8--|
G----------------------------------------------------|
D----------------------------------------------------|
A----------------------------------------------------|
E----------------------------------------------------|


E--12h13--11h12--9h10---------8-7----------------8-7/3--|
B----------------------8-8--8-----8-8-8--8-8-8-8--------|
G-------------------------------------------------------|
D-------------------------------------------------------|
A-------------------------------------------------------|
E-------------------------------------------------------|


G             C
Love love me do
    G             C
You know I love you
     G            C
I'll always be true
            NC
So pleeeease  love me do


figure 1:
E--12h13--11h12--9h10-----------------------|
B----------------------8-8---8-8-8----------|
G-------------------------------------------|
D-------------------------------------------|
A-------------------------------------------|
E-------------------------------------------|


E---12h13--13--13--11h12--12--12--9h10---------------|
B---------------------------------------8-8---8-8-8--|
G----------------------------------------------------|
D----------------------------------------------------|
A----------------------------------------------------|
E----------------------------------------------------|


G             C
Love love me do
    G             C
You know I love you
     G            C
I'll always be true
            NC
So pleeeease  love me do


 (play figure 1 again)


   D                  C        G
   Someone to love    Somebody new
E--5---5---3--2-------3---1-0-----------|
B------------------------------3--------|
G---------------------------------------|
D---------------------------------------|
A---------------------------------------|
E---------------------------------------|

   D                  C            G
   Someone to love    Someone like you
E--5---5---3--2-------3---1---0---------|
B----------------------------------3----|
G---------------------------------------|
D---------------------------------------|
A---------------------------------------|
E---------------------------------------|


G             C
Love love me do
    G             C
You know I love you
     G            C
I'll always be true
            NC
So pleeeease  love me do

  (play figure 1 again)


E--5---5---3--2-------3---1-0-----------|
B------------------------------3--------|
G---------------------------------------|
D---------------------------------------|
A---------------------------------------|
E---------------------------------------|


E--5---5---3--2-------3---1---0---------|
B----------------------------------3----|
G---------------------------------------|
D---------------------------------------|
A---------------------------------------|
E---------------------------------------|


E---3--3--3---3-3-3-3--8-7/3---8-8-8---8--|
B-----------------------------------------|
G-----------------------------------------|
D-----------------------------------------|
A-----------------------------------------|
E-----------------------------------------|


G             C
Love love me do
    G             C
You know I love you
     G            C
I'll always be true
            NC
So pleeeease  love me do


(Fade out by playing intro a few times)


Chords used:

C  x32010
D  xx0232
G  320033
NC = no chord

Now that you have mastered that, try this if you have nothing else to do

E----8--10--12--10--8--10--10-----------|
B------------------------------10-------|
G---------------------------------------|
D---------------------------------------|
A---------------------------------------|
E---------------------------------------|


 ==========================================================================

 From Me To You


Intro
      C                Am
Da da da da da dum dum da
      C                Am
Da da da da da dum dum da

Verse 1
           C                  Am
If there's anything that you want,
           C                G7
If there's anyhting I can do,
      F7                  Am                 C        G7     C
Just call on me and I'll send it along with love from me to you

Verse 2 (Same Chords as Verse 1)
If there's anything that you want,
Like a heart that's oh, so true,
Just call on me and I'll send it along with love from me to you

Bridge
       Gm                 C7
I got arms that long to hold you
     F
and keep you by my side.
       D7
I got lips that long to kiss you
     G             G+
And keep you satisfied

(Repeat Verse 1)

Harmonica/Guitar Solo
C                 Am
                      From me
C
                      To you.
      F                   Am                  C         G G7     C C7
Just call on me and I'll send it along with love, from me  to you.
(Bridge, Verse 1)

Chords as used in this song.
     EADGBE
C-   X32010
Am-  X02210
G7-  320001
F7-  131231
C7-  x32310
Gm-  355333
F-   133211
D7-  xx0212
G-   355433
G+-  3X5443

guitar solo

------0-------------|
-1--3---3--1--3-3---|
------------------2-|
--------------------|
--------------------|
--------------------|


------0------5-5-3-|
-1--3---3--1-------|
-------------------|
-------------------|
-------------------|
-------------------|

==========================================================================
Thank You Girl

I find that the E and A right after the Amaj7 come out closer if you omit
the E string from each. No special tunings

D   D7
D   D7
Oh, oh,

A      E       A
you be good to me
E           Amaj7     E        A
You make me glad when I was blue
A     E     A
And eternally
E           Amaj7 E          A
I'll always be in love with you.
      D         A7
And all I gotta do
   D               E
Is thank you girl, thank you girl.


A     E        A
I can tell the world
E        Amaj7 E         A
A thing or two about our love
A    E         A
And, oh little girl,
E      Amaj7      E        A
Only a fool would doubt our love.
      D         A7
And all I gotta do
   D               E
Is thank you girl, thank you girl.

D
Thank you girl for
A
Loving me the
E
Way that you do
E
Way that you do
E7
That's the kind of
D7
Love that seems too
A7
Good to be true.
      D         A7
And all I gotta do
   D               E
Is thank you girl, thank you girl.


D     D7

D   D7
Oh, oh,

A      E       A
you be good to me
E           Amaj7     E        A
You make me glad when I was blue
A     E     A
And eternally
E           Amaj7 E          A
I'll always be in love with you.
      D         A7
And all I gotta do
   D               E
Is thank you girl, thank you girl.

D   D7

D   D7  A  D  A  D
Oh, oh, oh.
D   D7  A  D  A  D
Oh, oh, oh.
D   D7  A  D  A  D  A
Oh, oh, oh.


==========================================================================

SHE LOVES YOU


Note: The "yeah, yeah, yeah" phrase is a simple G-> F#-> E (these are notes,
      not chords).  It gets interesting at the end of each chorus when
      the run goes G-> F#-> E-> D and the E AND the D notes get held out.
      This creates that cool dissonance.  The dissonace is all in the
      vocals, but I'm writing it here as a G6 chord for the guitar (see
      below for fingering).  I just want you to be aware that the
      Beatles are not playing this chord on their instruments (they are
      playing a regular G chord).

      Em                                         riff 1:
She loves you, yeah, yeah, yeah.              |--------------------------|
      A                                       |--------------------------|
She loves you, yeah, yeah, yeah.              |-3-----3--5b(6)5--3-----3-|
      C                         *G6* [riff 1] |-3--5--3--5b(6)5--3--5--3-|
She loves you, yeah, yeah, yeah, yeah.        |----5----------------5----|
                                              |--------------------------|
      G                     E
You think you've lost your love,
       Bm             D
Well I saw her yesterday.
      G                 Em
It's you she's thinking of
         Bm              D
And she told me what to say.

              G                               riff 2:
She said she loves you                     |--3---2---0--|
                            Em  [riff 2]   |--0---0---0--|
And you know that can't be bad.            |--0---0---0--|
         Cm                                |--2---2---2--|
Yes she loves you                          |-------------|
                            D    [riff 1]  |-------------|
And you know you should be glad.

     G                Em
She said you hurt her so,
     Bm              D
She almost lost her mind.
     G                Em
But now she said she knows
       Bm                D
You're not the hurting kind.


              G
She said she loves you
                            Em  [riff 2]
And you know that can't be bad.
         Cm
Yes she loves you
                            D
And you know you should be glad.  Oooh.

      Em
She loves you, yeah, yeah, yeah.
      A
She loves you, yeah, yeah, yeah.
        Cm
With a love like that,
     D                   G   [riff 1]
You know you should be glad.

     G             Em
You know its up to you,
   Bm              D
I think it's only fair.
   G               Em
Pride can hurt you too,
  Bm          D
Apologize to her.

              G
Because she loves you
                            Em   [riff 2]
And you know that can't be bad.
     Cm
She loves you
                            D
And you know you should be glad. Oooh.

      Em
She loves you, yeah, yeah, yeah.
      A
She loves you, yeah, yeah, yeah.
        Cm
With a love like that,                         |------------------|
      D                  G    Em  [riff 3]     |------------------|
You know you should be glad                    |------------------|
        Cm                                     |-----0------------|
With a love like that,                         |------------------|
     D                   G   Em   [riff 3]     |--3------2-----0--|
You know you should be glad.
        Cm
With a love like that,
     D7                     G  [riff 2]
You know you should--  be glad!
 Em
      Yeah, yeah, yeah.
  C                      G6
      Yeah, yeah, yeah, yeah.

"G6"
  -0-
  -3-
  -0-
  -0-
  -2-
  -3-


==========================================================================
                       I"LL GET YOU


        Db         Ab      Db       Ab
    Oh yeah,  oh yeah, oh yeah, oh yeah.
      Db                              Gb            Ab7
    Imagine I'm in love with you it's easy 'cause I know;
           Db             Bm
    I've imagined I'm in love with you
     Gb                      Ab
    many, many, many times before.
              Db           Abm            Db
    I'ts not like me to pretend, but I'll get you.
                         Bbm
    I'll get you in the end;
            Gb                        Ab7
    Yes, I will, I'll get you in the end.


    (same as first verse)

        Db         Ab      Db       Ab
    Oh yeah,  oh yeah, oh yeah, oh yeah.
    I think about you night and day.
    I need you and it's true;
    When I think about you I can say
    I'm never, never, never never blue.
    So I'm telling you, my friend,
    That I'll get you, I'll get you in the end;
    Yes, I will, I'll get you in the end.


    (break):

                     Gb
     Well, there's gonna be a time
                Db
     When I'm gonna change your mind.
             Eb7                             Ab7
     So you might as well resign yourself to me. Oh yeah.

     (back to first verse)


     For the ending of this song , the Fab four go from Db To Ab
     over and over played against the Oh yeah, Oh yeah's.


==========================================================================
                         I Want To Hold Your Hand


Intro  *Guitar 1 plays Chords above Tab, Guitar 2 plays Tab.
    C*        D*          C*         D*       C*
E|------------|-------------------|----------------------|
B|------------|---3---------------|--3-------------------|
G|------0-----|---2---2------0----|--2----2--------0-----|
D|---2-----0--|---0---0---2-----0-|--0----0----2-------0-|
A|------------|-------------------|----------------------|
E|------------|-------------------|----------------------|
  D5 D6 D5  D6 D5   D6 D5 D6
E|------------|-------------------|
B|------------|-------------------|
G|------------|---5b--------------|
D|------------|-------------------|
A|------------|-------------------|
E|------------|-------------------|
                        Oh Yeah

Verse 1 *You can play the Power Chords,
when noted or play the Normal Chords.

G5   G6 G5       D5      D6 D5   Gtr Riff 1(Bottom)
I'll    tell you something
E5                   B7
I think you'll understand.
   G5 G6 G5      D5  D6  D5   Gtr Fill 1
When I  say that something.
E5                    B7
I wanna hold your hand

Chorus
C        D         G      Em
I wanna hold your hand.
C        D         G
I wanna hold your hand.

Verse 2
Oh please say to me you'll let me be your man.
And please say to me you'll let me hold your hand.

(Repeat Chorus)

Bridge
Dm           G                 C       Am
And when I touch you I feel happy inside.
Dm            G               C
It's such a feeling that my love,
         D*    C*       D*   C*       D*  D5 D6 D5 D6 D5
I can't hide,  I can't hide, I can't hide.

Verse 3
Yeah you got that somethin', I think you'll understand.
When I say that something.  I wanna hold your hand.

(Repeat Chorus)
(Repeat Bridge)

Verse 4
Yeah you got that somethin', I think you'll understand.
When I feel that something.  I wanna hold your hand.

Outro Chorus
C        D         G      Em
I wanna hold your hand.
C        D         B7
I wanna hold your hand.

C        D         C     (Gtr Outro Riff 2)   G
I wanna hold your hand.

Guitar Riff 1
E|----------------------------|
B|---------------5b-----------|
G|----------------------------|
D|----------------------------|
A|---5----4----5----6----7----|
E|----------------------------|


Guitar Outro Riff 2
E|-------------------------3---------|
B|-------------------------0---------|
G|-------------------------0---------|
D|----2--0-------2---0-----0---------|
A|-3----------3------------2---------|
E|-------------------------3---------|

Chords as used in this song.
    EADGBE
C*- X3555X
D*- X5777X
D5- X57XXX
D6- X58XXX
G5- 35XXXX
G6- 36XXXX
E5- 022XXX
B7- X21202
C-  X32010
D-  XX0232
G-  320001
Em- 022000

==========================================================================


This Boy

No special tunings
Chords:
D    x00232
Bm   x24432
A7   X02020
G    355433
A6   X02222

A6 A6 A6
D Bm G A
D Bm G A

D       Bm  G       A7     D  Bm
That boy    took my love away.
G               A7         D  Bm
Though he'll regret it someday,
G        A6             D  Bm G A
This boy wants you back again.


D       Bm  G     A7       D  Bm
That boy    isn't good for you.
G             A7        D  Bm
Though he may want you, too,
G        A6             D  Bm D7=20
This boy wants you back again.

D7      G                 F#m
Oh, and this boy would be happy
Bm                       D
Just to love you, but oh my-y-y-y
G                 F#m
That boy won't be happy=20
A7                 A6
'Til he's seen you cry-y-y-oh

D    Bm G         A7       D  Bm
This boy wouldn't mind the pain,
G            A7       D  Bm
Would always feel the same,
     G        A6            D  Bm G A
'Til this boy gets you back again.

D
This boy  =20
D
This boy
D
This boy...


----------------------------------------------------------

No special tunings
Chords:
D    x00232
Bm   x24432
A7   X02020
G    355433
A6   X02222

A6 A6 A6
D Bm G A
D Bm G A

D       Bm  G       A7     D  Bm
That boy    took my love away.
G               A7         D  Bm
Though he'll regret it someday,
G        A6             D  Bm G A
This boy wants you back again.


D       Bm  G     A7       D  Bm
That boy    isn't good for you.
G             A7        D  Bm
Though he may want you, too,
G        A6             D  Bm D7
This boy wants you back again.

D7      G                 F#m
Oh, and this boy would be happy
Bm                       D
Just to love you, but oh my-y-y-y
G                 F#m
That boy won't be happy
A7                 A6
'Til he's seen you cry-y-y-oh

D    Bm G         A7       D  Bm
This boy wouldn't mind the pain,
G            A7       D  Bm
Would always feel the same,
     G        A6            D  Bm G A
'Til this boy gets you back again.

D
This boy
D
This boy
D
This boy...


==========================================================================
Komm Gib Mir Deine Hand


[F]   [F#]   [G]      [F]   [F#]   [G]      [F]   [F#]   [G]    [G7]
Oh [C]komm doch, komm zu [G]mir
\[Am]Du nimmst mir den Ver[Em]stand
Oh [C]komm doch, komm zu [G]mir
\[Am]Komm, gib mir deine [Em]Hand!
\[F]Komm, gib mir [G]deine [C]Hand,[Am]
\[F]Komm, gib mir [G]deine [C]Hand.

Oh du bist so schön
schön wie ein Diamant
Ich will mit dir gehen
Komm, gib mir deine Hand!
Komm, gib mir deine Hand,
Komm, gib mir deine Hand.

{soc}
\[Gm7]In deinen [C7]Armen bin ich [F]glücklich und [Dm]froh
\[Gm7]Das war noch [C7]nie bei einen [F]Ander'n
einmal [G]so, [F]einmal [G]so, [F]einmal [G]so![G7]
{eoc}

Oh komm doch, komm zu mir
Du nimmst mir den Verstand
Oh komm doch, komm zu mir
Komm, gib mir deine Hand!
Komm, gib mir deine Hand,
Komm, gib mir deine Hand.

{soc}
In deinen Armen bin ich glücklich und froh
Das war noch nie bei einen Ander'n
einmal so, einmal so, einmal so!
{eoc}

Oh du bist so schön
schön wie ein Diamant
Ich will mit dir gehen
Komm, gib mir deine Hand!
\[F]Komm, gib mir [G]deine [E]Hand,
\[F]Komm, gib mir [G]deine [F]Hand.[C]

==========================================================================
SIE LIEBT DICH (SHE LOVES YOU)


Note: The "yea, yea, yea" phrase is a simple G-> F#-> E (these are notes,
      not chords).  It gets interesting at the end of each chorus when
      the run goes G-> F#-> E-> D and the E AND the D notes get held out.
      This creates that cool dissonance.  The dissonace is all in the
      vocals, but I'm writing it here as a G6 chord for the guitar (see
      below for fingering).  I just want you to be aware that the
      Beatles are not playing this chord on their instruments (they are
      playing a regular G chord).

     Em                                           riff 1:
Sie liebt dich, yeah, yeah, yeah              |--------------------------|
      A                                       |--------------------------|
Sie liebt dich, yeah, yeah, yeah              |-3-----3--5b(6)5--3-----3-|
      C                           G6 [riff 1] |-3--5--3--5b(6)5--3--5--3-|
Sie liebt dich, yeah, yeah, yeah, yeah        |----5----------------5----|
                                              |--------------------------|
      G                   Em
Du glaubst sie liebt nur mich
        Bm             D
Gestern hab' ich sie gesehen
      G              Em
Sie denkt ja nur an dich
         Bm              D
Und du solltest zu ihr gehen

                 G                            riff 2:
O ja, sie liebt dich,                      |--3---2---0--|
                            Em  [riff 2]   |--0---0---0--|
Schoner kann es gar nicht sein             |--0---0---0--|
         Cm                                |--2---2---2--|
Ja, sie liebt dich,                        |-------------|
                            D    [riff 1]  |-------------|
Und da solltest du dich freuen

     G           Em
Du hast ihr weh getan
    Bm                 D
Und sie wuBte nicht warum
     G                Em
Du warst nicht schuld daran
       Bm                D
Und drehtest Dich nicht um

              G
O ja, sie liebt Dich,
                            Em  [riff 2]
Schoner kann es gar nicht sein.
         Cm
Ja, sie liebt dich,
                            D
Und da solltest du dich freuen.  Oooh!


      Em
Sie liebt dich, yeah, yeah, yeah.
      A
Sie liebt dich, yeah, yeah, yeah.
         Cm
Denn mit dir allein
          D             G   [riff 1]
Kann sie nur glucklich sein.

    G                 Em
Du muBt jetzt zu ihr gehn
   Bm                  D
Entschuldig' dich bei ihr.
        G          Em
Ja das wird sie verstehen
     Bm                D
Und dann verzeiht sie dir.

              G
O ja, sie liebt Dich,
                            Em  [riff 2]
Schoner kann es gar nicht sein.
         Cm
Ja, sie liebt dich,
                            D
Und da solltest du dich freuen.  Oooh!

      Em
Sie liebt dich, yeah, yeah, yeah.
      A
Sie liebt dich, yeah, yeah, yeah.
         Cm
Denn mit dir allein                            |------------------|
      D                  G    Em  [riff 3]     |------------------|
Kann sie nur glucklich sein.                   |------------------|
         Cm                                    |-----0------------|
Denn mit dir allein                            |------------------|
     D                   G   Em   [riff 3]     |--3------2-----0--|
Kann sie nur glucklich sein
         Cm
Denn mit dir allein
          D7             G  [riff 2]
Kann sie nur glucklich sein!
 Em
      Yeah, yeah, yeah.
  C                      G6
      Yeah, yeah, yeah, yeah.
--------------------------------------------------------

  "G6"
  -0-
  -3-
  -0-
  -0-
  -2-
  -3-


==========================================================================
LONG TALL SALLY


(later covered by the Beatles in the key of G - so capo 2nd fret)_

          F
I'm gonna tell Aunt Mary 'bout Uncle John
He claims he has the misery but he has a lot of fun

CHORUS:
   Bb         F        C              Bb                F
Oh baby, yeah baby, wo baby, we'll be havin' some fun tonight

Verse 2:
Well, long tall Sally, she's built for speed
She's got everything that Uncle John needs

(chorus)

Verse 3:
I saw Uncle John with bald-headed Sally
He saw Aunt Mary comin' and he ducked back in the alley

(chorus)

(instrumental, pattern of verse-chorus-verse-chorus)

(repeat verse 2)

(chorus)

(repeat verse 3)

(chorus)

F
We're gonna have some fun tonight
Have some fun tonight
Bb
Have some fun tonight
F
Everything's all right
C              Bb               F
Have some fun, yeah, some fun tonight


====================================================================


I call your name

             F#7			E7      B7 (hold)

|------------0--0-0--0------------------0--0-0--2-|
|------------2--2-2--2------------------3--3-3--0-|
|------------3--3-3--3---0---0----------1--1-1--2-|
|----0-2--4--4--4-4--4-4---2---2-0---2--2--2-2--1-|
|-2----------4--4-4--4-------------2----2--2-2--2-|
|---------------------------------------0--0-0--x-|

	     E7                   C#7
I call your name but you're not there
	  F#7                B7
Was I to blame for being unfair
             E7                               C#7
Oh I can't sleep at night since you've been gone
	 F#7           A
I never weep at night, I can't go on

                        A
Don't you know I can't take it
		  C#m
I don't know who can
		  F#
I'm not going to make it
		     C B7
I'm not that kind of man.

Oh I can't sleep at night but just the same
I ever weep at night I call your name.


C#7  x43404  (B7 moved up to frets)

==========================================================================

Slow Down


C
WELL COME ON PRETTY BABY WON'T YOU WALK WITH ME
COME ON PRETTY BABY WON'T YOU TALK WITH ME
COME ON PRETTY BABY GIVE ME ONE MORE CHANCE
TO TRY TO SAVE OUR ROMANCE
         F
SLOW DOWN
                                C
BABY NOW YOUR MOVING WAY TO FAST
G
YOU GOT TO GIVE ME A LITTLE LOVING
F
GIVE ME A LITTLE LOVING
C
IF YOU WANT OUR LOVE TO LAST

WELL I USED TO WALK YOU HOME BABY AFTER SCHOOL
CARRY YOUR BOOKS HOME TOO
BUT NOW YOU GOT A BOYFRIEND DOWN THE STREET
BABY WHAT ARE YOUR TRYING TO DO
YOU BETTER SLOW DOWN
BABY NOW YOUR MOVING WAY TO FAST
YOU GOT TO GIVE ME A LITTLE LOVING
GIVE ME A LITTLE LOVING
IF YOU WANT OUR LOVE TO LAST

WELL YOU KNOW THAT I LOVE YOU TELL THE WORLD I DO
COME ON PRETTY BABY WHY CAN'T YOU BE TRUE
I NEED YOUR LOVING BABY OH SO BAD
THE BEST LITTLE WOMAN THAT I EVER HAD
YOU BETTER SLOW DOWN
BABY NOW YOUR MOVING WAY TO FAST
YOU GOT TO GIVE ME A LITTLE LOVING
GIVE ME A LITTLE LOVING
IF YOU WANT OUR LOVE TO LAST

RHYTHM ON THE C CHORD
E----------------8--------------------------------------|
B----------------8--------------------------------------|
G-------------------------------------------------------|
D-------------------------------------------------------|                 =
A---(9)slide10-------10--10--12--10--10-----------------|
E---(7)------8-------12---8---8---8--12--repeat---------|

THE RHYTHM ON THE F CHORD
E-------------------------------------------------------|
B-------------------------------------------------------|
G-------------------------------------------------------|
D---(9)slide10-------10--10--12--10--10-----------------|
A---(7)------8-------12---8---8---8--12-----------------|
E-------------------------------------------------------|

THE RHYTHM ON THE G CHORD
E-------------------------------------------------------|
B-------------------------------------------------------|
G-------------------------------------------------------|
D---(11)slide12------12--12--14--12--12-----------------|
A----(9)-----10------14--10--10--10--14-----------------|
E-------------------------------------------------------|

ROCK N' ROLL IS THE UNIVERSAL TRUTH.  ENJOY

----------------------------------
Slow Down

Intro:

The following two measures will be refered to from now on as Lick1.
This lick is repeated many times throughout the song.

   C
E|---------------------------------|--------------------------------|
B|---------------------------------|---------8--10---10p8----10p8---|
G|---------------------------------|-7/9----------------------------|
D|---------------------------------|--------------------------------|
A|---------------------------------|--------------------------------|
E|---------------------------------|--------------------------------|
   ^       ^       ^       ^         ^       ^       ^       ^

(Repeat Lick1 3 more times)

   F                                (This is Lick2)
E|---------------------------------|--------------------------------|
B|---------------------------------|---------13--15--15p13---15-12--|
G|---------------------------------|-12/14----------------------13--|
D|---------------------------------|--------------------------------|
A|---------------------------------|--------------------------------|
E|---------------------------------|--------------------------------|
   ^       ^       ^       ^         ^       ^       ^       ^

E|---------------------------------|--------------------------------|
B|-/13-----------------------------|---------13--15--15p13---15-7---|
G|-/14-----------------------------|-12/14----------------------8---|
D|---------------------------------|--------------------------------|
A|---------------------------------|--------------------------------|
E|---------------------------------|--------------------------------|
   ^       ^       ^       ^         ^       ^       ^       ^
  C
E|---------------------------------|--------------------------------|
B|-/8------------------------------|---------8--10---10p8----10-7---|
G|-/9------------------------------|-7/9------------------------8---|
D|---------------------------------|--------------------------------|
A|---------------------------------|--------------------------------|
E|---------------------------------|--------------------------------|
   ^       ^       ^       ^         ^       ^       ^       ^

E|---------------------------------|--------------------------------|
B|-/8------------------------------|---------8--10---10p8----10p8---|
G|-/9------------------------------|-7/9----------------------------|
D|---------------------------------|--------------------------------|
A|---------------------------------|--------------------------------|
E|---------------------------------|--------------------------------|
   ^       ^       ^       ^         ^       ^       ^       ^
   G                                (This is Lick3)
E|---------------------------------|--------------------------------|
B|---------------------------------|---------15--17--17p15---17-12--|
G|---------------------------------|-14/16----------------------13--|
D|---------------------------------|--------------------------------|
A|---------------------------------|--------------------------------|
E|---------------------------------|--------------------------------|
   ^       ^       ^       ^         ^       ^       ^       ^
   F
E|---------------------------------|--------------------------------|
B|-/13-----------------------------|--------------------------------|
G|-/14-----------------------------|--------------------------------|
D|---------------------------------|--------------------------------|
A|---------------------------------|--------------------------------|
E|---------------------------------|--------------------------------|
   ^       ^       ^       ^         ^       ^       ^       ^
  C
E|---------------------------------|--------------------------------|
B|-7/8-----------------------------|---------8--10---10p8----10-7---|
G|-8/9-----------------------------|-7/9------------------------8---|
D|---------------------------------|--------------------------------|
A|---------------------------------|--------------------------------|
E|---------------------------------|--------------------------------|
   ^       ^       ^       ^         ^       ^       ^       ^

E|---------------------------------|--------------------------------|
B|-/8------------------------------|---------8--10---10p8----10-----|
G|-/9------------------------------|-7/9----------------------------|
D|---------------------------------|--------------------------------|
A|---------------------------------|--------------------------------|
E|---------------------------------|--------------------------------|
   ^       ^       ^       ^         ^       ^       ^       ^


Verse 1:

           C
Well come on, pretty baby, won't you walk with me?

Come on, pretty baby, won't you talk with me?

Come on, pretty baby, give me one more chance
                                      F
Try and save our romance!  Slow down!

(Play Lick2)


Bridge:

F                                   C
Baby now you're movin' way too fast

(Play Lick1 twice)
           G                   F                  C
You gotta gimme little lovin' gimme little lovin'   Ow!

if you want our love to last

(Play Lick1 twice)


Verse 2:

           C
Well I used to walk you home, baby, after school

carry your books home too

But now you got a boyfriend down the street
                                                        F
Baby what you tryin' to do a-do?  You better slow down!

(Play Lick2)


Bridge:

F                                   C
Baby now you're movin' way too fast

(Play Lick1 twice)
           G                   F                  C
You gotta gimme little lovin' gimme little lovin'   Brr!

if you want our love to last

(Play Lick1 once)


Solo:

   C
E|---------------------------------|--------------------------------|
B|---------------------------------|--------------------------------|
G|---------------------------------|--------------------------------|
D|----------------------1----------|-----------------1---3----------|
A|-----------------1h3-------------|-3-------3----------------------|
E|---------3---3-------------------|--------------------------------|
   ^       ^       ^       ^         ^       ^       ^       ^

E|---------------------------------|--------------------------------|
B|---------------------------------|--------------------------------|
G|---------------------------------|--------------------------------|
D|-3/5-----5-------5\3--1----------|-----------------1---3----------|
A|-----------------------------3---|-1h3-----3------------------3---|
E|---------------------------------|--------------------------------|
   ^       ^       ^       ^         ^       ^       ^       ^

E|---------------------------------|--------------------------------|
B|---------------------------------|--------------------------------|
G|------3--------------------------|--------------------------------|
D|-/5----------5\3-----1-----------|-------------------------1--3---|
A|-----------------------------3---|-1/3-----3----------------------|
E|---------------------------------|--------------------------------|
   ^       ^       ^       ^         ^       ^       ^       ^

E|---------------------------------|--------------------------------|
B|---------------------------------|--------------------------------|
G|---------3-----------------------|-----3---------------3----------|
D|-3/5-------------5\3--1----------|-3/5---------3/5---------3/5----|
A|---------------------------------|--------------------------------|
E|---------------------------------|--------------------------------|
   ^       ^       ^       ^         ^       ^       ^       ^
   C                                 F
E|---------------------------------|--------------------------------|
B|---------------------------------|--------------------------------|
G|---------3-----------------------|--------------------------------|
D|-3/5-------------5\3--1------3---|---------3----------------------|
A|---------------------------------|--------------------------------|
E|---------------------------------|-1------------------------------|
   ^       ^       ^       ^         ^       ^       ^       ^

E|---------------------------------|-----------------------------------|
B|---------------------------------|-----------------------------------|
G|---------------------------------|----------------------8-----10b(12-|
D|-3b(4)-------3b(4)-------1-------|-----------------8h10--------------|
A|---------------------------------|---------10------------------------|
E|---------------------------------|-----------------------------------|
   ^       ^       ^       ^         ^       ^       ^       ^
                                     C
E|---------------------------------|--------------------------------|
B|---------------------------------|--------------------------------|
G|---------10b(12)-10------8-------|-----------------8---10---------|
D|-----------------------------10--|---------10---------------------|
A|---------------------------------|--------------------------------|
E|---------------------------------|--------------------------------|
   ^       ^       ^       ^         ^       ^       ^       ^

E|-----8---------------------------|------------------------------------|
B|-8-------8-----------------------|-8-------8-----------8-------8------|
G|-10b(12)-10b(12)-10b(12)p8-------|-10b(12)-10b(12)-----10b(12)-10b(12-|
D|---------------------------------|------------------------------------|
A|---------------------------------|------------------------------------|
E|---------------------------------|------------------------------------|
   ^       ^       ^       ^         ^       ^       ^       ^
                                     G
E|---------------------------------|--------------------------------|
B|-8-------8-----------------------|---------8----------------------|
G|-10b(12)-10b(12)-(12)r10-8-------|----------------10/12-12--10/12-|
D|---------------------------------|--------------------------------|
A|---------------------------------|--------------------------------|
E|---------------------------------|--------------------------------|
   ^       ^       ^       ^         ^       ^       ^       ^
                                     F
E|---------------------------------|---------8-----------8----------|
B|-8-----------8-------------------|---------7-----------6----------|
G|-----10/12-------10---8/12-------|--------------------------------|
D|---------------------------------|--------------------------------|
A|---------------------------------|--------------------------------|
E|---------------------------------|--------------------------------|
   ^       ^       ^       ^         ^       ^       ^       ^
                                     C
E|-8-------8---8-------8-----------|---------8---------------8------|
B|-7-------7---6-------7-----------|---------8---------------8------|
G|---------------------------------|-----------------(12)r10--------|
D|---------------------------------|--------------------------------|
A|---------------------------------|--------------------------------|
E|---------------------------------|--------------------------------|
   ^       ^       ^       ^         ^       ^       ^       ^

E|---------8------------8----------|--------------------------------|
B|---------8------------8----------|--------------------------------|
G|-10b(12)---10 10b(12)------------|---------(12)r10-10p8-----------|
D|---------------------------------|---------------------10--8--10--|
A|---------------------------------|--------------------------------|
E|---------------------------------|--------------------------------|
   ^       ^       ^       ^         ^       ^       ^       ^

                          Well, you
E|--------------8------------------|
B|-8h9-----8-----------------------|
G|-----------------8---8-----------|
D|---------------------------------|
A|---------------------------------|
E|---------------------------------|
   ^       ^       ^       ^

Verse 2:

C
know that I love you, tell the world I do

Come on, pretty baby, why can't you be true?

I need you badly, baby, oh so bad
                                               F
The best little woman I ever had    Slow down!

(Play Lick2)


Bridge:

F                                   C
Baby now you're movin' way too fast

(Play Lick1 twice)
           G                   F                  C
You gotta gimme little lovin' gimme little lovin'   Brr!

if you want our love to last

(Play Lick1 once)


Coda:

   C
E|---------------------------------|-------------------------3------|
B|---------------------------------|-------------------------3------|
G|---------------------------------|-------------------------3------|
D|-3---3---1-----------------------|-------------------------2------|
A|---------------------------------|-----1---2---3-----------3------|
E|-----------------3-------1-------|-3------------------------------|
   ^       ^       ^       ^         ^       ^       ^       ^

==========================================================================

Matchbox

          A
Well, I'm sitting here wondering would a matchbox hold my clothes?
          D
Yeah, I'm sitting here wondering would a matchbox hold my clothes?
  E                                           A
I ain't got n matches but I got a long way to go.

Well, I'm an old poor boy and I'm a long, long way from home
I'm an old poor boy and I'm a long, long way from home
Guess I'll never be happy; everything I do is wrong.

Let me be your little dog 'til your big dog come.
Let me be your little dog 'til your big dog come.
When your big dog gets here, show him what this little puppy done

[Repeat Verse 1]


T. Lindsey (TPLBA@AOL)

==========================================================================
           I Feel Fine

The song begins with a single plucked "A" note, sounds like a bass
guitar to me, which builds in feedback until the string is vibrating
hard enough to cause a buzz.

The "I Feel Fine" riff (repeat as needed):
    D                                   C
-|----------------------------------------------------------------------|
-|----------------------------------------------------------------------|
-|----------------------12--11------11--------------------10--9------9--|
-|------12--12--10--------------14---------10--10--8-------------12-----|
-|----------12------12-------------------------10-----10----------------|
-|--10----------------------------------8-------------------------------|

    G
-|----------------------------------------------------------------------|
-|----------------------------------------------------------------------|
-|-----------------5--4-----4-----------------5--4-----4----------------|
-|-----5--5--3-----------7--------5--5--3-----------7-------------------|
-|--------5-----5--------------------5-----5----------------------------|
-|--3--------------------------3----------------------------------------|


Verse 1:
 G
Baby's good to me   you know she's happy as can be
              D
You know she said so
                  C              G
I'm in love with her and I feel fine


Verse 2:
 G
Baby says she's mine   you know she tells me all the time
              D
You know she said so
                  C              G
I'm in love with her and I feel fine


Middle:
 G      Bm          C               D7
I'm so glad   that she's my little girl
 G        Bm             Am             D7
She's so glad    she's telling all the world


Verse 3:
          G
That her baby buys her things   you know he buys her diamond rings
              D7
You know she said so
                  C              G
I'm in love with her and I feel fine


Solo:

-|-------------------------------------------------|
-|-------6-------8-------6-------------------------|
-|--5/7-----7/9-----5/7-----7\5--3-----------------|
-|----------------------------------5--------------|
-|-------------------------------------------------|
-|-------------------------------------------------|

Then play magic "I Feel Fine" riff as band comes back in.

Then repeat from verse 2 to the end of verse 3, except instead
of the very last line of verse 3, substitute:

 D7                C              G
She's in love with me and I feel fine

 D7                C              G
She's in love with me and I feel fine


                   ------------------------------------------------
 I Feel Fine


I'm pretty sure the song is in G - but if I'm wrong then adjust the
tab accordingly moving up or down a fret or two

INTRO:
----------

E--------------------------------------------------------------------|
B--------------------------------------------------------------------|
G-------------------12--11------11------------------10--9------9-----|
D-------12-12-10----10--10--14--10-------10-10-8----8---8--12--8-----|
A-------12-12----12---------12-----------10-10---10--------10--------|
E----10--------------------------------8-----------------------------|


E----------------------------------------------------------|
B----------------------------------------------------------|
G-------------5--4-----4-------------5--4-----4------------|
D-----5-5-3---3--3--7--3-----5-5-3---3--3--7--3------------|
A-----5-----5-------5--------5-----5-------5---------------|
E---3----------------------3-------------------------------|


This is obviously just the same riff moved down to different positions.
This is the main riff of the song.

In fact most of the song is just this riff played at the three different
positions (G,C,D)

The only different bit is  :

G            Bm          C               D7
I'm   so    glad  that  she's my little girl

G            Bm          C                D7
She's  so   glad  she's telling all the world

The solo is over the G/C/D riff.


==========================================================================


She's A Woman

Intro:

 E7 / / / /   D7 / / / /   A7 / / / / / / / /

 E|-12-       E|-10-       E|-5-|
 B|-15-       B|-13-       B|-8-|
 G|-13-       G|-11-       G|-6-|
 D|-12-       D|-10-       D|-5-|
 A|-14-       A|-12-       A|-7-|
 E|-12-       E|-10-       E|-5-|

Verse 1:

A7             D7              A7
My love don't give me presents

A7           D7              A7
I know that she's no peasant

D7
Only ever has to give me


Love forever and forever

A7             D7              A7
My love don't give me presents

E7
Turn me on when I get lonely

D7
People tell me that's she's only

A7         D7            A7
foolin' I know she isn't


Verse 2:

A7         D7               A7
She don't give boys the eye

A7            D7        A7
She hates to see me cry

D7
She is happy just to hear me


Say that I will never leave her

A7         D7               A7
She don't give boys the eye

E7
She will never make me jealous

D7
Gives me all her time as well as

A7            D7         A7
lovin', Don't ask me why


Chorus:

C#m                F#
She's a woman who understands

C#m                    D       E
She's a woman who loves her man


Verse 3:

A7             D7              A7
My love don't give me presents

A7           D7              A7
I know that she's no peasant

D7
Only ever has to give me


Love forever and forever

A7             D7              A7
My love don't give me presents

E7
Turn me on when I get lonely

D7
People tell me that's she's only

A7         D7            A7
foolin' I know she isn't


Chorus:

C#m                F#
She's a woman who understands

C#m                    D       E
She's a woman who loves her man

A7      E7          A7
        Woo oo  oo  woo

Solo:

   A7
E|---------8-----------5-----------|--------------------------------|
B|---------------------------------|--------------------------------|
G|---------------------------------|-7b9r7-------7b9r7-------5------|
D|-7-------------------------------|--------------------------------|
A|---------------------------------|--------------------------------|
E|---------------------------------|--------------------------------|
   ^       ^       ^       ^         ^       ^       ^       ^

    A7
E|---------8-----------5-----------|--------------------------------|
B|---------------------------------|--------------------------------|
G|---------------------------------|-7b9r7-------7b9r7-------5------|
D|-7-------------------------------|--------------------------------|
A|---------------------------------|--------------------------------|
E|---------------------------------|--------------------------------|
   ^       ^       ^       ^         ^       ^       ^       ^

   D7
E|---------10------------8---------|-7-----7-----7\--5---------------|
B|---------------------------------|---------------------------------|
G|-/11--------------9---------7----|-7-----7-----7\--5---------------|
D|---------------------------------|---------------------------------|
A|---------------------------------|---------------------------------|
E|---------------------------------|---------------------------------|
   ^       ^       ^       ^         ^       ^       ^       ^

   A7
E|---------5-------------3---------|-2---2-------2---0--------------|
B|---------------------------------|--------------------------------|
G|-/6--------------4----------2----|-2---2-------2---2--------------|
D|---------------------------------|--------------------------------|
A|---------------------------------|--------------------------------|
E|---------------------------------|--------------------------------|
   ^       ^       ^       ^         ^       ^       ^       ^

   E7
E|---------------------7-----------|-----10-----10\--8--------------|
B|---------3-----------------------|--------------------------------|
G|-/4-------------/7-----------7---|-/11--------11\--9--------------|
D|---------------------------------|--------------------------------|
A|---------------------------------|--------------------------------|
E|---------------------------------|--------------------------------|
   ^       ^       ^       ^         ^       ^       ^       ^

    A7
E|---------8-----------5-----------|--------------------------------|
B|---------------------------------|--------------------------------|
G|---------------------------------|-7b9r7-------7b9r7-------5------|
D|---------------------------------|--------------------------------|
A|---------------------------------|--------------------------------|
E|---------------------------------|--------------------------------|
   ^       ^       ^       ^         ^       ^       ^       ^

Chorus:

C#m                F#
She's a woman who understands

C#m                    D       E
She's a woman who loves her man


Verse 4:

A7         D7               A7
She don't give boys the eye

A7            D7        A7
She hates to see me cry

D7
She is happy just to hear me


Say that I will never leave her

A7         D7               A7
She don't give boys the eye

E7
She will never make me jealous

D7
Gives me all her time as well as

A7            D7         A7
lovin', Don't ask me why


Coda:

A7
She's a woman


She's a woman

         D7
She's a woman

         A7
She's a woman

         E7
She's a woman...


==========================================================================


BAD BOY.


Fast tempo. Repeat riffs throughout.

             C
E|--------------------------|
B|--------------------------|
G|---------------------2--2-|
D|---------2--2--5--5-------|
A|---3--3-------------------|
E|--------------------------|

(Verse 1)
A bad little kid moved in-to my neighborhood.
He won't do nothing right just sitting down and looks so good.

(Verse 2)
Buys every rock and roll book on the magazine stand.
Every dime that he get is lost to the jukebox man.

(Verse 3)
Going tell your mama you better do what she said.
Get to the barber shop and get that hair cut off your head.

             F
E|----------------------------|
B|----------------------------|
G|-----------------------7--7-|
D|---------7--7--10--10-------|
A|---8--8---------------------|
E|----------------------------|

(Verse 1)
He don't want to go to school and learn to read and write.

(Verse 2)
Well he worries his teacher till at night she's ready to poop.

(Verse 3)
Threw the canary and you fed it to the neighbors cat.

             C
E|--------------------------|
B|--------------------------|
G|---------------------2--2-|
D|---------2--2--5--5-------|
A|---3--3-------------------|
E|--------------------------|

(Verse 1)
Just sits around the house and plays the rock and roll music all night.

(Verse 2)
From rocking and a-rolling spinning in a hula hoop.

(Verse 3)
You gave the cocker spaniel a bath in mother's laundramat.


         G                  F                C
E|---------------------|---------------|---------------|
B|---------------------|---------------|---------------|
G|---------------------|---------------|---------------|
D|---------------------|---------------|---------------|
A|--10 10 10 10--10-10-|--8-8-8-8--8-8-|--3-3-3-3--3-3-|
E|---------------------|---------------|---------------|

(Verse 1)
Well, he put some tacks on teachers chair
Puts some gum in little girl's hair.
(n/c)
Hey, junior, behave yourself.

(Verse 2)
Well this rock and roll has got to stop.
Junior's head is hard as rock.
(n/c)
Now, junior, behave yourself.

(Verse 3)
Well, mama's head has got to stop.
Junior's head is hard as rock.
(n/c)
Now, junior, behave yourself


CHORDS.

Verse1.

C
A bad little kid moved into my neighborhood
He won't do nothing right just sitting down and looks so good

F
He don't want to go to school and learn to read and write

C
Just sits around the house and plays the rock and roll music all night

G
Well, he put some tacks on teachers chair

F
Puts some gum in little girl's hair

C
Hey, junior, behave yourself


Verse2

C
Buys every rock and roll book on the magazine stand
Every dime that he get is lost to the jukebox man

F
Well he worries his teacher till at night she's ready to poop

C
From rocking and a-rolling spinning in a hula hoop

G
Well this rock and roll has got to stop

F
Junior's head is hard as rock

C
Now, junior, behave yourself


Verse3

C
Going tell your mama you better do what she said
Get to the barber shop and get that hair cut off your head

F
Threw the canary and you fed it to the neighbors cat

C
You gave the cocker spaniel a bath in mother's laundramat

G
Well, mama's head has got to stop

F
Junior's head is hard as rock

C
Now, junior, behave yourself


==========================================================================

YES IT IS

   E              A           F#m7        B7
If you wear red tonight
   E                       A              D6      B7
Remember what I said tonight
        C#m                                 A
For red is the colour that my baby wore
  D                            C#m
And what's more, it's true
 E
Yes it is


Scarlet were the clothes she wore
Everybody knows I'm sure
I would remember all the things we planned
Understand, it's true
  E                 E7
Yes it is, it's true

Yes it is

Bm              E7                 A        F#m
I could be happy with you by my side
Bm               E7            C#m
If I could forget her, but it's my pride

Yes it is, yes it is
             F#7    B7
Oh, yes it is, yeah


Please don't wear red tonight
This is what I said tonight
For red is the colour that will make me blue
         D                  C#m
In spite of you, it's true
   E7                G#
Yes it is, it's true

Yes it is

 Bm               E7                 A          F#m
I could be happy with you by my side
Bm              E7             C#m
If I could forget her, but it's my pride

Yes it is, yes it is
              F#7       B7
Oh, yes it is, yeah

Please don't wear red tonight
This is what I said tonight
For red is the colour that will make me blue
  D                       C#m
In spite of you, it's true
     E                                                   a little riff for a
finish like in the antology 2,
Yes it is, it's true                                            i dont know
in the original:
    A               E
-----0------------------------
Yes it is, it's true
---------0-------2-----------
                                                                       -----
-------1----------------
                                                                       -----
-----------------------------|
-----------------------------|
                                                                       -----
--------------------------


==========================================================================
I'm Down


Verse 1:

 G
You tell lies thinkin' I can't see

You can't cry cause you're laughin' at me


Chorus:

         C
I'm down   (I'm really down)
         G
I'm down   (Down on the ground)
         C
I'm down   (I'm really down)
D7                G
How can you laugh   when you know I'm down?
D7                G
(How can you laugh) when you know I'm down?


Verse 2:

 G
Man buys ring woman throws it away

Same old thing happen every day


Chorus:

         C
I'm down   (I'm really down)
         G
I'm down   (Down on the ground)
         C
I'm down   (I'm really down)
D7                G
How can you laugh   when you know I'm down?
D7                G
(How can you laugh) when you know I'm down?


Solo:

   G
E|---------------------------------|--------------------------------|
B|---------------------------------|--------------------------------|
G|---------------------------------|--------------------------------|
D|-----------------3---------------|--------------------------------|
A|---------3h5---------5-------1---|---------1-------1---3----------|
E|-3-------------------------------|-------------3------------------|
   ^       ^       ^       ^         ^       ^       ^       ^

E|---------------------------------|--------------------------------|
B|---------------------------------|--------------------------------|
G|---------------------------------|--------------------------------|
D|-----------------3-----------3---|-5b(7)---5b(7)---(7)r5--3-------|
A|---------3h5---------5-----------|--------------------------------|
E|-3-------------------------------|--------------------------------|
   ^       ^       ^       ^         ^       ^       ^       ^

   C
E|---------------------------------|--------------------------------|
B|---------------------------------|--------------------------------|
G|-----------------------------3---|-5b(7)---5b(7)---(7)r5--3-------|
D|-----------------3---------------|--------------------------------|
A|---------3h5---------5-----------|--------------------------------|
E|-3-------------------------------|--------------------------------|
   ^       ^       ^       ^         ^       ^       ^       ^
   G
E|---------------------------------|--------------------------------|
B|---------------------------------|-3(vib)----------3(vib)---------|
G|-----------------3---------------|--------------------------------|
D|-5-------5-----------5-----------|--------------------------------|
A|---------------------------------|--------------------------------|
E|---------------------------------|--------------------------------|
   ^       ^       ^       ^         ^       ^       ^       ^
   D7
E|---------------------------------|--------------------------------|
B|-3(vib)----------3(vib)----------|-3(vib)--3(vib)--3(vib)---------|
G|---------------------------------|-------------------------3(vib)-|
D|---------------------------------|--------------------------------|
A|---------------------------------|--------------------------------|
E|---------------------------------|--------------------------------|
   ^       ^       ^       ^         ^       ^       ^       ^
   G
E|---------------------------------|--------------------------------|
B|---------------------------------|--------------------------------|
G|---------------------------------|--------------------------------|
D|-5-------------------------------|---------3----------------------|
A|---------------------1-------3---|-3/5-------------5/3-----1------|
E|-----------------3---------------|--------------------------------|
   ^       ^       ^       ^         ^       ^       ^       ^


Verse 2:

 G
We're all alone and there's nobody else

Still she'll moan "Keep your hands to yourself!"


Chorus:

         C
I'm down   (I'm really down)
         G
I'm down   (Down on the ground)
         C
I'm down   (I'm really down)
D7                G
How can you laugh   when you know I'm down?
D7                G
(How can you laugh) when you know I'm down?   Woo!


Instrumental:

G

C                G

D7      C        G        D7
                             Ah baby you know I'm down


Coda:

G
 (I'm really down)  I guess I'm down
G
 (I'm really down)  I'm down on the ground
C
 (I'm really down)  I'm down
G                                       D7
 (I'm really down)  Ah baby I'm upside down
C              G           D7
 Oh yeah, yeah, yeah, yeah, yeah, I'm down
comments
We did not receive enough feedback on this tab! Please rate:
print report bad tab
1 2 3 4 5
I want to post or [tab]
guest
You may want to rate the tab now too:
select rating
Please do not post tabs as comments. Select "correction" instead!