Oops, an error
Loading. Please wait.

Past Masters Vol 2 Tab

ver1
ver1

Album

More versions @911Tabs.com
27,229 views 27 this week
1 commentread comment
1 2 3 4 5
excellent!
x 1
add to favorites launch autoscroll
font size
0
reset
Autoscroll
+/-
esc
set tempo
stop
Contributor
WARNING: You are trying to view
                                    content from Ultimate-Guitar.com
                                    in an unauthorized application,
                                    which is prohibited.

                                    Please use an official Ultimate
                                    Guitar Tabs application for iPhone,
                                    iPad or Android to access legitimate
                                    chords, guitar, bass, and drum tabs
                                    from Ultimate-Guitar.com database.

                                    Type "ultimate guitar tabs" in Apple
                                    App Store's or Android Market's
                                    search to find the application.
Past Masters Vol. Two
Album

1. Day Tripper
2. We Can Work It Out
3. Paperback Writer
4. Rain
5. Lady Madonna
6. The Inner Light
7. Hey Jude
8. Revolution
9. Get Back
10. Don't Let Me Down
11. The Ballad Of John And Yoko
12. Old Brown Shoe
13. Across The Universe
14. Let It Be
15. You Know My Name (Look Up The Number)


==========================================================================

DAYTRIPPER

 These are the riffs that begin and underline the song:


  E riff                              A riff
----------------------------       ----------------------------|
----------------------------       ----------------------------|
----------------------------       -----------2-0-----4----0-2-|
-----------2---0---4---0-2--       ---------2-------2----2-----|
---------2-------2---2------       -0---3-4--------------------|
-0---3-4--------------------       ----------------------------|

E7
Got a good reason, for taking the easy way out
A7                 E7
Got a good reason, for taking the easy way out
          F#
She was a day   tripper, one way ticket yeah
            A     G#7          C#               B
It took me so    long to find out, and I found out


 E7
She's a big teaser, she took me half the way there
 A7                  E7
She's a big teaser, she took me half the way there
          F#
She was a day   tripper, one way ticket yeah
            A     G#7          C#               B
It took me so    long to find out, and I found out

[solo] B


 E7
Tried to please her, but she only played one night stands
 A7                       E7
Tried to please her, but she only played one night stands
           F#
She was a day tripper, Sunday driver, yeah
           A     G#7          C#               B
It took me so   long to find out, and I found out

Day Tripper

This is that note that seems to appear before every tab found on the
Internet telling you how good the song is ...like you didn't know!

I know that Riff 3 isn't exactly right and probably doesn't strum the
C# and B chords, but if you're playing on your own then it sounds ok!
Alternatively, you could carry the pattern of the first part of the
riff throughout.

Riff 1 (Verse)
E--------------------------------------------|
B--------------------------------------------|
G--------------------------------------------|
D-----------2--0-----4----0-2----------------|
A---------2-------2-----2--------------------|
E--0--3-4------------------------------------|


Riff 2 (Verse)
E--------------------------------------------|
B--------------------------------------------|
G-----------2--0-----4----0-2----------------|
D---------2-------2-----2--------------------|
A--0--3-4------------------------------------|
E--------------------------------------------|


Riff 3 (Chorus)
   F#        A         G#       C#                 B
E----------------------------------9--9-----9--------7-7---7--------------|
A---x8-------x2--------x2----------9--9--9--9--9-----7-7-7-7-7------------|
D-------------------------------10-10-10-10-10-10--8-8-8-8-8-8------------|
G--4---------7---------6--------11-11-11-11-11-11--9-9-9-9-9-9------------|
B--4-4-4-4-/-7-7-7-7-/-6-6-6-6--11-11-11-11-11-11--9-9-9-9-9-9------------|
E--2-2-2-2-/-5-5-5-5-/-4-4-4-4--9--------9-----9---7-----7---7------------|
   <----Light palm mute---------------------------------------------------|


Riff 4 (Bridge)
E--------------------------------------------|
A--------------------------------------------|
D-----------5--------6------5----------------|
G---------5----7--5-----5-7------------------|
B-----5-6------------------------------------|
E--7-----------------------------------------|


Riff 5 (Solo)                                   BU    BD
E------------------------------------------12-14(15)(15)14-12------------|
A---PB-------BU---10--BD----13-13-15-13-15--------------------13---------|
D--(8)7---7-9(11)----(11)9---------------------------------------9-9-9-9-|
G-------9--------------------------------------------------------9-9-9-9-|
A------------------------------------------------------------------------|
E------------------------------------------------------------------------|

Lead Guitar:

Intro  :  Riff 1 (x3)
Verse1 :  Riff 1 (X4), Riff 2, Riff 1
Chorus :  Riff 3
Verse2 :  Riff 1 (X4), Riff 2, Riff 1
Chorus :  Riff 3
Bridge :  Riff 4 (x3), Riff 5  (Solo)
Verse3 :  Riff 1 (X4), Riff 2, Riff 1
Chorus :  Riff 3
Outro  :  Riff 1 (x9 Fade out)


Lyrics \ Rhythm Guitar:


 Verse 1:
E7
Got a good reason

For taking the easy way out
A7
Got a good reason
E7
For taking the easy way out now


 Chorus:
                  F#
She was a day tripper

One way ticket yeah
           A7 G#7
It took me so long
        C#               B
To find out, and I found out


 Verse2:
E7
She's a big teaser

She took me half the way there
A7
She's a big teaser
E7
She took me half the way there now


 Chorus:
                  F#
She was a day tripper

One way ticket yeah
              A7
It took me so long
   G#7          C#
To find out, and I found out


 Bridge:
B
Ahh ahh ahh, ahh ahh, ahh


 Verse3:
E7
Tried to please her

She only played one night stands
A7
Tried to please her
E7
She only played one night stands now


 Chorus:
F#
She was a day tripper

Sunday driver yeah
        A7
It took me so long
           G#7              C#
To find out, and I found out

 Outro:
E7
Day tripper
Day tripper yeah
Day tripper
Day tripper yeah
Day tripper


==========================================================================


We Can Work It Out

D             Dsus4  D
Try to see it  my   way
             Dsus4           Cadd9           D
Do I have to keep on talking till I can't go on?
D                 Dsus4  D
Why do you see it your  way?
D                Dsus4           Cadd9             D
Run the risk of knowing that our love may soon be gone.


G               D
We can work it out
G               A
We can work it out


D                    Dsus4  D
Think of what you're say-  ing
D              Dsus4               Cadd9                D
You can get it wrong and still you think that it's all right
D                 Dsus4 D
Think of what I'm say - ing
D              Dsus4          Cadd9                 D
We can work it out and get it straight or say goodnight


G              D
We can work it out
G              A
We can work it out


Bm                      Bm/A      Bm/G   F#7sus4
Life is very short and there's no time
      F#          Bm         Bm/A      Bm/G     Bm/F#
For fussing and fighting my friend
Bm                         Bm/A   Bm/GG   F#7sus4
I have always thought that it's a crime
  F#7     Bm      Bm/A    Bm/G    Bm/F#
So I will ask you once   again


 D            Dsus4  D
Try to see it  my   way
              Dsus4         Cadd9           D
Only time will tell if I am right or I am wrong
D                 Dsus4  D
Why do you see it your  way?
D                    Dsus4          Cadd9             D
There's a chance that we might fall apart before too long.


G              D
We can work it out
G              A
We can work it out


Bm                      Bm/A      Bm/G   F#7sus4
Life is very short and there's no time
      F#          Bm         Bm/A      Bm/G     Bm/F#
For fussing and fighting my friend
Bm                         Bm/A   Bm/GG   F#7sus4
I have always thought that it's a crime
  F#7     Bm      Bm/A    Bm/G    Bm/F#
So I will ask you once   again


 D            Dsus4  D
Try to see it  my   way
              Dsus4         Cadd9           D
Only time will tell if I am right or I am wrong
D                 Dsus4  D
Why do you see it your  way?
D                   Dsus4           Cadd9             D
There's a chance that we might fall apart before too long.


G              D
We can work it out
G              A      D
We can work it out

Dsus4   Cadd9    Bm/A   Bm/G   Bm/F#   F#7sus4
 -3-     -3-      -2-    -x-    -2-     -2-
 -3-     -3-      -3-    -3-    -3-     -2-
 -2-     -0-      -4-    -4-    -4-     -4-
 -0-     -2-      -4-    -4-    -4-     -2-
 ---     -3-      -0-    -x-    -2-     -2-
 ---     ---      ---    -3-    -2      -2-


==========================================================================


PAPERBACK WRITER


I suggest using barre chords throughout...

 (no guitar)
Paperback writer...

[riff 1]
|---------------------------------------|
|---------------------------------------|
|---------------------------------------|
|------------5------3----------------3--|
|-----3--h5---------------3-----3h5-----|
|--3-------------3-----3-----3----------|


      G
Dear Sir or Madam, will you read my book?

It took me years to write, will you take a look?

It's based on a novel by a man named Lear,
                                               C
And I need a job so I want to be a paperback writer


           G      (riff 1)
Paperback writer


        G
It's a dirty story of a dirty man

And his clinging wife doesn't understand

His son is working for the Daily Mail
                                                   C
It's a steady job but he wants to be a paperback writer,
             G
Paper back writer.


Paperback writer...


          G
It's a thousand pages, give or take a few

I'll be writing more in a week or two

I can make it longer if you like the style
                                                      C
I can change it 'round and I want to be a paperback writer
             G    (riff 1)
Paperback writer


If you really like it you can have the rights

It could make a million for you overnight

If you must return it you can send it here
                                                 C
But I need a break and I want to be a paperback writer
            G
Paperback writer


Paperback writer...


[Riff 1]

    G
Paperback writer
Paperback writer
Paperback writer
Paperback writer (repeat and fade)

==========================================================================

RAIN

This is the first Beatles song to feature `backward vocals' and it's the
first Beatles song that doesn't mention anything about love

Here comes...

       G               C       D          G
If the Rain comes they run and hide their heads
     C        D       G
They might as well be dead
       C
If the Rain comes
       G
If the Rain comes
                         C    D        G
When the sun shines they slip into the shade
    C         D    G
And sip their lemonade
         C
When the sun shines
         G
When the sun shines
      C9
Raaaaaaaain
        G
I don't mind
      C9
Shiiiiiiiine
              G
The weather's fine

I can show you that when it starts to rain
Everything's the same
I can show you
Raaaaaaaain
I don't mind
Shiiiiiiiiiine
The weather's fine

Can you hear me that when it rains and shines?
It's just a state of mind
Can you hear me?
Raaaaaaaain
I don't mind
Shiiiiiiine
The weather's fine

Chords used:

C      x32010
C9     x32030
D      xx0232
G      320033


-----------------------------
RAIN
by
The Beatles

  this is an acoustivc version. if you want the sound of the actual song,
just use power chords and lots of distortion!

G

verse:
G                      C       D        G
when the rain comes we run and hide our heads
   C        D       G
we might as well be dead
         C
when the rain comessss
         G
when the rraainnn comess
                       C      D      G
when the sun shines we slip into the shade
    C       D   G
and sip our lemonade
         C
when the sun shinesss
         G
when the suuunnn shiness

chorus:
G (single strums)C   /     /
rrraaaaaiiiinnnnnn
        G
i don't mind
G   /   /   C  /  /
shhhhiiiiiiiinnnnnnnee
              G
the weather's fine


==========================================================================


				 LADY MADONNA

This works well for the intro:

   A      A/C#     D               A      A/C#      D
|-----------------------------------------------------------------|
|------2-------2-------3-------3-------2-------2-------3-------3--|
|--2---2---2---2---2---2---2---2---2---2---2---2---2---2---2---2--|
|--2---2---2---2---0---0---0---0---2---2---2---2---0---0---0---0--|
|--0---0---4---4-------------------0---0---4---4------------------|
|-----------------------------------------------------------------|


   A      A/C#      D      D/E      F      G       A
|--------------------------------------1-------3------------------|
|------2-------2-------3---------------1-------3---2--------------|
|--2---2---2---2---2---2---2---2---2---2---4---4---2---2---2---2--|
|--2---2---2---2---0---0---2---2---3---3---5---5---2---2---2---2--|
|--0---0---4---4-------------------3-------5-----------0---0---0--|
|----------------------------------1-------3----------------------|

This works the bass line in for the rest of the song:


verses:

   A     A/C# A/E  D     D/F# D/A  A     A/C# A/E  D     D/F# D/A
|-----------------------------------------------------------------|
|------2-------2-------3-------3-------2-------2-------3-------3--|
|--2---2---2---2---2---2---2---2---2---2---2---2---2---2---2---2--|
|--2---2---2---2---0---0---4-------2---2---2---2---0---0---4------|
|--0---0---4-----------------------0---0---4----------------------|
|-----------------------------------------------------------------|
1 Lady          Madonna,          children  at your feet,
2 Lady          Madonna,          baby      a  your breast,
3 Lady          Madonna,          lying     on the  bed,
4 Lady          Madonna,          children  at your feet,

  A      A/C#     D      D/E      F       G       A
|--------------------------------------1-------3------------------|
|------2-------2-------3---------------1-------3---2--------------|
|--2---2---2---2---2---2---2---2---2---2---4---4---2---2---2---2--|
|--2---2---2---2---0---0---2---2---3---3---5---5---2---2---2---2--|
|--0---0---4---4-------------------3-------5-----------0---0---0--|
|----------------------------------1-------3----------------------|
1 Wonder    how you  manage     to     make       ends       meet.
2 Wonder    how you  manage     to     feed       the        rest.
3 Listen    to  the  music    playing  in         your       head.
4 Wonder    how you  manage     to     make       ends       meet.

   A     A/C# A/E  D     D/F# D/A  A     A/C# A/E  D     D/F# D/A
|-----------------------------------------------------------------|
|------2-------2-------3-------3-------2-------2-------3-------3--|
|--2---2---2---2---2---2---2---2---2---2---2---2---2---2---2---2--|
|--2---2---2---2---0---0---4-------2---2---2---2---0---0---4------|
|--0---0---4-----------------------0---0---4----------------------|
|-----------------------------------------------------------------|
1 Who finds the money,             when you pay the rent?
2 (instumental)
3 (instrumental)
4 (go to outro)

  A      A/C#     D      D/E      F       G       A
|--------------------------------------1-------3------------------|
|------2-------2-------3---------------1-------3---2--------------|
|--2---2---2---2---2---2---2---2---2---2---4---4---2---2---2---2--|
|--2---2---2---2---0---0---2---2---3---3---5---5---2---2---2---2--|
|--0---0---4---4-------------------3-------5-----------0---0---0--|
|----------------------------------1-------3----------------------|
1 Did you think that money was   hea  ven       sent?
2 (instrumental)
3 (instrumental)


  Dm     Dm/C    Dm/B     Dm/A     G       G/F       G/E      G/D
|--------------------------------------3-------3-------3-------3--|
|------3-------3-------3-------3-------3-------3-------3-------3--|
|------2-------2-------2-------2---0---0-------0-------0-------0--|
|--0---------------------------------------3-------2-------0------|
|----------3-------2-------0--------------------------------------|
|-----------------------------------------------------------------|
1 Friday night arrives without a suit case.
2 (instrumental)
3 Tuesday after noon is   never    end  ing


  C       C/B     C/A     C/G     Am     Am/B    Am/C    Am/E
|-----------------------------------------------------------------|
|------1-------1-------1-------1-------1-------1-------1-------1--|
|------0-------0-------0-------0-------2-------2-------2-------2--|
|----------------------------------------------------------2------|
|--3-------2-------0---------------0-------2-------3--------------|
|--------------------------3--------------------------------------|
1 Sunday morning creeping like a  nun.
2 (instrumental)
3 Wednesday morning papers didn't come.


  Dm     Dm/C    Dm/B     Dm/A     G       G/F       G/E      G/D
|--------------------------------------3-------3-------3-------3--|
|------3-------3-------3-------3-------3-------3-------3-------3--|
|------2-------2-------2-------2---0---0-------0-------0-------0--|
|--0---------------------------------------3-------2-------0------|
|----------3-------2-------0--------------------------------------|
|-----------------------------------------------------------------|
1 Monday's child has learned to tie his boot lace.
2 (instrumental)
3 Thursday night your stockings needed mending


  C      Bm7     Dsus2   E
|-0-------2--------0------0--|
|-1-------3--------3------0--|
|-0-------2--------2------1--|
|-2-------4--------4------2--|
|-3-------2---------------2--|
|-------------------------0--|
1 See   how they  run!
2 See   how they  run!
3 See   how they  run!


outro:

  A        D/B        F7   D/B  A       A        D/B        F7   D/B  A
|------------------------------------------------------------------------|
|-2--2---2--3--3---3--4-----3---2-------2--2---2--3--3---3--4-----3---2--|
|-2--2---2--2--2---2-----2--2---2-------2--2---2--2--2---2-----2--2---2--|
|-2--2---2--0--0---0--1-----0---2-------2--2---2--0--0---0--1-----0---2--|
|-0--0---0--2--2---2--3-----2---0-------0--0---0--2--2---2--3-----2---0--|
|------------------------------------------------------------------------|


==========================================================================

The Inner Light

E|-------------------------------|
B|---------------1---1-----------|
G|---------1-0-----3---3-1-0-1-0-|
D|-1-1-1-3-----1-----------------|
A|-------------------------------|
E|-------------------------------|

-------|
-------|
-------|
-1-1-1-|
-------|
-------|

^This can go on and on,
George has a bunch of
instruments going on here, if you're just
playing alone it sounds good to just
shorten this.

E|--------------------------------------------|
B|-----1--------------------------------------|
G|-3-3---1-1-3-0-0-1----0-1-1-3-0-0-1-----0---|
D|------------------3-3---------------3-3---1-|
A|--------------------------------------------|
E|--------------------------------------------|

Play this whole thing above twice then play this part once

E|-------------------------------------------------------|
B|-4-4-4-2-2-2-1-1-1-------------------------------------|
G|-------------------3-3-3-1-1-1-0-0-0-------------0-1-3-|
D|-------------------------------------3\1-3\1-3\1-------|
A|-------------------------------------------------------|
E|-------------------------------------------------------|

For the outro you can keep repeating this little bit:

E|--------------------|
B|--------------------|
G|-0-1-3--------------|
D|--------------------|
A|--------------------|
E|--------------------|

==========================================================================

HEY JUDE


		      F                C
		Hey Jude dont make it bad
		     F  C7   C7sus4      C7       F
		take a  sad   song  and make it better
		 Bb                           F
		Remember to let her into your heart
		                   C               F
		and then you can start to make it better

		      F              C
		Hey Jude dont be afraid
		      F   C7   C7sus4      C7      F
		you were made    to  go   out and get her
		     Bb                            F
		The minute you let her under your skin
		           C                F   Fmaj7 F7
		then you begin to make it better


		                          Bb      Bb/A   Gm
		And anytime you feel the pain hey jude refrain
		      Gm7       C/E   C            F    Fmaj7 F7
		dont carry the world upon your shoulders
		                              Bb      Bb/A      Gm
		For well you know that its a fool who plays it cool
		     Gm7       C/E       C      F
		by making his world  a little colder


		      F6 F7      C  Csus4  CaddG       C  F  C7
		Da da da da da   Da   da    da    da


		      F               C
		Hey Jude dont let me down
		     F     C7  C7sus4    C7      F
		You have found  her  now go and get her
		   Bb                         F
		Remember to let her into you heart
		               C                F   Fmaj7  F7
		then you can start to make it better


		                         Bb     Bb/A   Gm
		So let it out and let it in hey Jude begin
		      Gm7         C/E    C     F         Fmaj7  F7
		your waiting for someone to perform with
		                                Bb      Bb/A        Gm
		And dont you know that its just you hey jude you'll do
 		     Gm7         C/E     C         F
		The movement you need is on your shoulders


		      F6 F7      C  Csus4 CaddG    C  F  C7
		Da da da da da   da  da   da    da


		     F                C
		Hey Jude dont make it bad
		     F  C7   C7sus4      C7      F
		take a  sad   song  and make it better
		  Bb                            F
		Remember to let her under your skin
		                  C                F
		and then you'll begin to make it better


		F        Eb
		Na na na na na na na
		Bb
		Na na na na
		     F
		Hey Jude   (Repeat and fade)


  C7    C7sus4   Fmaj7   F7    Bb/A   Gm7   C/E   F6    Csus4   CaddG
  -0-    -1-      -0-    -1-   -x-    -3-   -0-   -1-    -1-     -3-
  -1-    -1-      -1-    -1-   -3-    -3-   -1-   -3-    -1-     -1-
  -3-    -3-      -2-    -2-   -3-    -3-   -0-   -2-    -0-     -0-
  -2-    -2-      -3-    -1-   -3-    -3-   -2-   -3-    -2-     -2-
  -3-    -3-      -3-    -3-   -0-    -5-   -3-   -x-    -3-     -3-
  ---    ---      ---    -1-   ---    -3-   -0-   -1-    ---     ---




==========================================================================

              Revolution

Intro :

-|-5/7-7-7-7-7-7-7-7-7-7-7-7----5/7-7-7-7-7-7-7-7-7-7-7-7----|
-|-5/7-7-7-7-7-7-7-7-7-7-7-7----5/7-7-7-7-7-7-7-7-7-7-7-7----|
-|-----------------------------------------------------------|
-|-----------------------------------------------------------|
-|-----------------------------------------------------------|
-|-----------------------------------------------------------|

-|-5/7-7-7-7-7-7-7-7-7-7-7-7--------------------------12-----|
-|-5/7-7-7-7-7-7-7-7-7-7-7-7----/10------10--12b(14)---------|
-|-----------------------------------11----------------------|
-|-----------------------------------------------------------|
-|-----------------------------------------------------------|
-|-----------------------------------------------------------|

Verse/Chorus Form:

     B                                    E
You say you want a revolution   well you know

                            B
We all want to change the world

     B                                     E
You tell me that it's evolution  well you know

                           F#
We all want to change the world

C#m                        F#
But when you talk about destruction

C#m                           A   B  G#   F#
Don't you know that you can count me out (in?)

                          B       E
Don't you know it's gonna be   Alright

                          B       E
Don't you know it's gonna be   Alright

                          B       E     F#7
Don't you know it's gonna be   Alright


Guitar Details During Verses:
Guitar 1 plays a standard rock & roll shuffle:

       B
-|-----------------------------------------------------------------|
-|-----------------------------------------------------------------|
-|-----------------------------------------------------------------|
-|-----------------------------------------------------------------|
-|-----9----9---9h11--9--9-----9h11--9--9--9h11--9--9--9h11--9--9--|
-|-----7----7---7-----7--7-----7-----7--7--7-----7--7--7-----7--7--|
   You say you want   a  rev   o     lu    ti  on      well     you

       E
-|-----------------------------------------------------------------|
-|-----------------------------------------------------------------|
-|-----------------------------------------------------------------|
-|-----9----9---9h11--9--9-----9h11--9--9--9h11--9--9--9h11--9--9--|
-|-----7----7---7-----7--7-----7-----7--7--7-----7--7--7-----7--7--|
-|-----------------------------------------------------------------|
      know                                 we  all want to change the...

.. and so on, while Guitar 2 plays something along these lines:
       B
-|-------------------------------------------------------|
-|-------------4----4------4----4---4----4---4----4------|
-|-------------4----4------4----4---4----4---4----4------|
-|-------------4h6--4------4h6--4---4h6--4---4h6--4------|
-|-------------------------------------------------------|
-|-------------------------------------------------------|
   You say you want a rev o lu     tion      well you

       E
-|-------------------------------------------------------|
-|-----9-----9---9-----9---9-----9-------9-----9---------|
-|-----9-----9---9-----9---9-----9-------9-----9---------|
-|-----9h11--9---9h11--9---9h11--9-------9h11--9---------|
-|-------------------------------------------------------|
-|-------------------------------------------------------|
   know                  we all want to change the...


Guitar 2 plays this figure during the "chorus":

                 B             E
-|-------------------------------------------------------11--------------|
-|-------------------4----4---------------------------9--12--12-----12---|
-|-------------------4----4------------------9--9h11---------11h13--11---|
-|-------------------4h6--4---------9--9h11------------------------------|
-|-----------------------------------------------------------------------|
-|-----------------------------------------------------------------------|
  ... it's gonna be         alright

.. repeated a few times, and then the following turnaround:

    F#7
-|-----------------------------------------------------------|
-|-----------------------------------------------------------|
-|-----------------------------------------------------------|
-|-------------2----------4----------2-----------------------|
-|--------2h4--------2h4--------2h4-------------2------------|
-|--2--2----------2----------2----------2--2h4---------------|


Now, over the A B G# chords in the last verse, the lead guitar
plays a screaming figure based on this:

-|-----------14----|
-|--14b(16)--------|
-|-----------------|
-|-----------------|
-|-----------------|
-|-----------------|

And over the B & E chords the final time around, the lead guitar
is rapidly picking in rhythm with the words:

-|--9--------------|
-|--12b(14)--------|
-|-----------------|
-|-----------------|
-|-----------------|
-|-----------------|

.. up until the climactic end.

-|-------------10--9---|
-|--b(10)9--7--10--9---|
-|-------------11--10--|
-|-------------12--11--|
-|-------------12--11--|
-|-------------10--9---|

 (keep sliding up to this A chord for awhile)
E------ ....  ------|
B--\9-- ....  --12^-|
G--\10= ....  ------|

my best approximation of how the rhythm goes is something like this... you'll
have to play around hitting those notes on the 4th fret and then letting the
whole chord ring out:
 A                       (ring)        D            A     (ring)
-----------     -------------------------------     -------------------|
-----------     ---------2-----------2-3-3-3---     ---------2-------2-|
----------- ... ---------2-----------2-2-2-2h4- ... ---------2-------2-| ...
-2-2-2h4-2-     -2-2-2h4-2-----2-2h4---0-0-0---     -2-2-2h4-2-2-2h4---|
-0-0-0---0-     -0-0-0---------0-0-------------     -0-0-0-----0-0-----|
-----------     -------------------------------     -------------------|

anyways, it eventually makes it to E with the same kind of pattern... most
of the funny business is stuff with the A where you do the 2(hammer)4 on
other strings [a few right in a row], and a 0h4 on the open string, usually
ending with a strum of the A chord...  so...
    A                                   D
You say you want a Revolution, well you know
                          A
We all want to change the world
                                          D
You tell me that it's evolution, well you know
                          E(7?)
We all want to change the world

Bm                           E
  but when you talk about destruction
Bm                            G     A  F#   E
  don't you know that you can count me out


(much more funny business with the notes on the 4th fret in this part:)
                            A     D         A...
  don't you know it's gonna be... alright...

and...

D---------0---------2-|
A-----0h2-----2-2h4---|  (x2)...
E-0-0-----------------|

You say you got a real solution, well you know
We'd all love to see the plan
You ask me for a contribution, well you know
We're all doing what we can...

But if you want money for minds that hate
All I can tell you is brother you have to wait
Don't you know it's gonna be...

You say you'll change the constitution, well you know
We all want to change your head
You tell me it's the institution, well you know
You better free your mind instead

But if you go carrying pictures of Chairman Mao
You ain't gonna make it with anyone anyhow...
Don't you know it's gonna be...

==========================================================================


              Get Back


Intro:
[the intro shows the flavor of the rhythm guitar
playing throughout the song]

    A
-|----------------------------------------------------|
-|----------------------------------------------------|
-|--X--2--X--2--X--2--X--2--X--2--X--2--X--2--X--2----|
-|--X--2--X--2--X--2--X--2--X--2--X--2--X--2--X--2----|
-|--X--0--X--2--X--2--X--2--X--2--X--2--X--2--X--2----|
-|----------------------------------------------------|

                                 G/A D/A A
-|--------------------------5--5--3---2--0-------------|
-|--------------------------2--2--0---3--2-------------|
-|--X--2--X--2--X--2--X--2--2--2--0---2--2-------------|
-|--X--2--X--2--X--2--X--2--------2---0--2-------------|
-|--X--0--X--2--X--2--X--2--------0---0--0-------------|
-|-----------------------------------------------------|


Verse:
[the remainder of the tab is for the lead guitar]
    A
-|-----------------------------------------------------|
-|-----------------------------------------------------|
-|-----------------------------------------------------|
-|-----------------------------------------------------|
-|--7----9-----7---9----7---------9-----7----9---------|
-|--5----5-----5---5----5---------5-----5----5---------|
   Jojo was a man who thought he was a loner

    D                       A
-|-------------------------------------------12------------------------|
-|------------------------------10--12b(14)------b(14)12--10------10---|
-|-------------------------/11--------------------------------11-------|
-|--7------9-------7---9-----------------------------------------------|
-|--5------5-------5---5-----------------------------------------------|
-|---------------------------------------------------------------------|
   But he knew it couldn't last

    A
-|---------------------------------------------------|
-|---------------------------------------------------|
-|---------------------------------------------------|
-|---------------------------------------------------|
-|--7----9--------7---9----7-----9----7----9---------|
-|--5----5--------5---5----5-----5----5----5---------|
   Jojo left his home in Tucson Ari  zona

    D                       A
-|------------------------------------------12------------------------|
-|-----------------------------10--12b(14)------b(14)12--10------10---|
-|------------------------/11--------------------------------11-------|
-|--7---------9---7---9-----------------------------------------------|
-|--5---------5---5---5-----------------------------------------------|
-|--------------------------------------------------------------------|
   For some Cali fornia grass                                Get back

     A
-|---------------9--9--9--9--9---------------9--9--9--9--9--------|
-|---------------8--8--8--8--8---------------8--8--8--8--8--------|
-|---------------9--9--9--9--9---------------9--9--9--9--9--------|
-|------------7---------------------------7-----------------------|
-|------7--9------------------------7--9--------------------------|
-|--/9--------------------------/9--------------------------------|
                          Get Back                   Get Back

     D7                         A           G/A    D/A   A
-|---------------8--8--8--8--8---------------9--9--9--9--9--------|
-|---------------7--7--7--7--7---------------8--8--8--8--8--------|
-|---------------7--7--7--7--7---------------9--9--9--9--9--------|
-|------------7---------------------------7-----------------------|
-|------7--9------------------------7--9--------------------------|
-|--/9--------------------------/9--------------------------------|
   to where you once   be long                      Get  back

     A
-|---------------9--9--9--9--9---------------9--9--9--9--9--------|
-|---------------8--8--8--8--8---------------8--8--8--8--8--------|
-|---------------9--9--9--9--9---------------9--9--9--9--9--------|
-|------------7---------------------------7-----------------------|
-|------7--9------------------------7--9--------------------------|
-|--/9--------------------------/9--------------------------------|
                          Get Back                   Get Back

     D7                         A
-|---------------8--8--8--8--8---------------9--9--9--9--9--------|
-|---------------7--7--7--7--7---------------8--8--8--8--8--------|
-|---------------7--7--7--7--7---------------9--9--9--9--9--------|
-|------------7---------------------------7-----------------------|
-|------7--9------------------------7--9--------------------------|
-|--/9--------------------------/9--------------------------------|
   to where you once   be long


Guitar Lead:
     A
-|--------------------------------12------------------------------|
-|-------10--10--10--12--12b(14)------b(14)12--10-----------------|
-|--/11--------------------------------------------11-------------|
-|----------------------------------------------------------------|
-|----------------------------------------------------------------|
-|----------------------------------------------------------------|

    D                   A          G   D
-|---------------------------------------------------------------|
-|---------------------------------------------------------------|
-|-----------7---------------------------------------------------|
-|-----7--9-----10--7--10b(11)-----------------------------------|
-|--9------------------------------------------------------------|
-|---------------------------------------------------------------|

     A
-|--------------------------------12------------------------------|
-|-------10--10--10--12--12b(14)------b(14)12--10------10---------|
-|--/11--------------------------------------------11-------------|
-|----------------------------------------------------------------|
-|----------------------------------------------------------------|
-|----------------------------------------------------------------|

    D                   A               G            D
-|----------------------------------------------------------------|
-|--------------------------8--5----------------------------------|
-|------------7----------------------5--7b(9)--5-----5------------|
-|-----7--10-----10--7--10--------7---------------7---------------|
-|--9-------------------------------------------------------------|
-|----------------------------------------------------------------|


Get Back - The Beatles


The intro ,goes with an E5 played in eights, and then we have:

e-----------------|-----------------|-----------------|-----------------|
B---------3-------|-----------------|-----------------|-----------------|
G---------2---2---|-----------------|-----------------|-----------------|
D-2-2-2-2-0---2---|-----------------|-----------------|-2-2-4-4-2-2-4-4-|
A-2-2-2-2-----0---|-2-2-4-4-2-2-4-4-|-2-2-4-4-2-2-4-4-|-0-0-0-0-0-0-0-0-|
E-0-0-0-0---------|-0-0-0-0-0-0-0-0-|-0-0-0-0-0-0-0-0-|-----------------|
                    Here we start singning.........

e-----------------|
B---------3-------|
G---------2---2---|
D---------0---2---|
A-2-2-4-4-----0---|
E-0-0-0-0---------|
          ^ these are only done the 2nd verse I think.. (listen to the record..)

All this goes twice, and then we have:

Chorus:
e-----------------|--same again--|-----------------|-----------------|
B-----2-3---------|--------------|-----------------|---------3-------|
G---4-------------|--------------|-2-2-2-2-2-2-2-2-|---------2---2---|
D-2---------------|--------------|-2-2-2-2-2-2-2-2-|-2-2-2-2-0---2---|
A-----------------|--------------|-0-0-0-0-0-0-0-0-|-2-2-2-2-----0---|
E-----------------|--------------|-----------------|-0-0-0-0---------|
This is the riff for the lead guitar.. If you play it by yourself you'd better
stick to E5 or perhaps an E7-chord for the two first measures..

This is also repeated twice.. And VOILA.. Get Back.. I'm not sure about the
end though, but then again I don't think the Beatles were two sure about that
either...

Jojo was a man who thought he was a loner,
A                  A
But he knew it couldn't last.
D                       A   G D
1      2       3     4  1 2 3 4
Jojo left his home in Tuscon, Arizona
A                     A
For some California grass
D                   A  G D

Get back,  get back
A          A
Back to where you once belonged
D                        A      G D
Get back,  get back
A          A
Back to where you once belonged - Get back Jo!
D                        A

[Electric Piano solo - same chords as verse]

[Chorus]

Sweet Loretta Martin thought she was a woman,
But she was another man.
All the girls around her said she's got it comin',
But she gets it while she can.

[Chorus]

==========================================================================

Don't Let Me Down

CHORUS   4/4 time

E                 F#m       F#m7   Amaj7/B      E
     Don't let me down             Don't let me down             Don't let me
F#m               F#m7  Amaj7/B      Esus4  E
down                    Don't let me down


Verse   5/4 time

E                             F#m7                  F#m/B
Nobody ever loved me like she does   oo she does    yes she
E  Esus4 E                                      F#m
does     And if somebody ever loved me like she do me    oo she
             F#m/B   E  Esus4
do me,       yes she does

CHORUS

And from the first time that she really done me   oo she done me, she done me
good.    I guess nobody ever really done me,  oo she done me, she does me good

CHORUS

BRIDGE   4/4 time

E                                                              B
     I'm in love for the first time  Don't you know it's gonna last.
                          B7                              E
It's a love that lasts forever,   It's a love that had no past

CHORUS


==========================================================================

Ballad Of John And Yoko


----------------------------
Bass riff:

E and E7      A
------------  --------------------------------------|
------------  -------2-4-2--------------------------|
-------2-4-2  -0---4--------------------------------|
0---4-------  --------------------------------------|


E
Standing in the dock at Southampton

Trying to get to Holland Or France
    E7
The Man In the Mac said

You gotta go back

you know they didnt even give us a chance
                 A
you know it aint easy
                         E
you know how hard it can be
                   B7
the way things are going ...
                     E
theyre gonna crucify me.

Finally made the plane into paris
honeymooning down by the seine
peter brown called to say
you can make it ok
you can get married in gibraltar near spain ..

you know it aint easy.... etc

Drove from paris to the amsterdam hilton
talking in our beds for a week
the newspapers said
whatre you doing in bed
i said we're only trying to get us some peace ...

you know it aint easy...etc


A
saving all your money for a rainy day
giving all your clothes to charity

B7
last nite the wife said
oh boy when youre dead
                                     B
You dont take nothing with you but your soul

E
Think!

From: Harlan L Thompson 

[final two verses corrected]

Made a lightning trip to Vienna
Eating chocolate cake in a bag
The newspapers said, "She's gone to his head
They look just like two gurus in drag" ...CHORUS

Caught the early plane back to London
Fifty acorns tied in a sack
The men from the press say "We wish you success
It's good to have the both of you back"...CHORUS

==========================================================================

Old Brown Shoe}

F#o (0 1 2 0 2 0}

[C7]
  I want a [C7]love that's right, but right is only half of what's wrong
  I want a [Dm7]short-haired girl who sometimes wears it twice as long
  Now I'm [F7]stepping out this old brown shoe
[Ab]  Baby I'm in love with you
  I'm [F7]so glad you came here,
  it [E7]won't be the same now I'm [Am]telling you

  You know, you pick me up from where some tried to drag me down
  And when I see your smile replacing every thoughtless frown
  So escaping from this zoo
  Baby I'm in love with you
  I'm so glad you came here
  It won't be the same now when I'm with you

  {soc}
[G]  If I grow up I'll be a singer
  Wearing rings on [F]ev'ry finger
[G]  Not worrying what they or you'll say
  I'll live and love and [F]maybe someday
  [F#o]Who knows baby you may comfort [G7]me...
{eoc}

{ci: instrumental on verse}

{soc}
  I may appear to be imperfect
  My love is something you can't reject
  I'm changing faster than the weather
  If you and me should get together
  Who knows baby you may comfort me...
{eoc}

  I know my love is yours to miss that love is something I'd hate
  I'll make an early start I'm making sure that I'm not late
  For sweet top lip I'm in the queue
  Baby I'm in love with you
  I'm so glad you came here, it won't be the same now when I'm with you
  I'm so glad you came here, it won't be the same now when I'm with you
  I'm so glad you came here, it won't be the same now when I'm with you
[C7]

==========================================================================

		   ACROSS THE UNIVERSE
                           (Lennon/McCartney)
          		      The Beatles
                            Let It Be (1970)


This is Across the universe as I believe John originally played it.
The song was sped up for inclusion on the World Wildlife Fund album
(as heard on Past Masters volume II), and then slowed down again for
the Let It Be album.  When Phil Spector (producer of Let It Be) slowed
the song down, he actually brought the song down a half step; from D
to roughly C#.  You can play along with the album by playing in C#,
tuning your guitar down a half step and playing in D, or using a capo
on the first fret and playing in C. Here it is in original form in D...


Intro :

|-2----/10----9--7--5---------------------------------------------------|
|---------------------7--2--2--2--2--2--2--2--2--------------2----------|
|-2----/11----9--7--6----2--4--2--4--2--4--2--4--2--4--2--4--2--4--2--4-|
|---0------0-------------4--4--4--4--4--4--4--4--2--2--2--2--2--2--2--2-|
|------------------------x--x--x--x--x--x--x--x--0-----0-----0-----0----|
|------------------------2-----2-----2-----2----------------------------|


     D                 Bm               F#m
   Words are flowing out like endless rain into a paper cup
    Em7                                    A                 A7
   They slither while they pass they slip away across the Universe.
     D               Bm               F#m
   Pools of sorrow, waves of joy are drifting through my opened mind
    Em7              Gm
   Possessing and caressing me.


    D             A7
   Jai Guru Deva Om
    A7
   Nothing's gonna change my world
    G			        D
   Nothing's gonna change my world
    A7
   Nothing's gonna change my world
    G			        D
   Nothing's gonna change my world


     D         Bm	           F#m	                         Em7
   Images of broken light which dance before me like a million eyes
                               A          A7
   They call me on and on across the Universe.
     D               Bm	      F#m
   Thoughts meander like a restless wind inside a letterbox
         Em7			             A                A7
   They tumble blindly as they make their way across the Universe.


    D              A7
   Jai Guru De Va  Om
    A7
   Nothing's gonna change my world
    G                          D
   Nothing's gonna change my world
    A7
   Nothing's gonna change my world
    G                          D
   Nothing's gonna change my world


    D                   Bm	               F#m
   Sounds of laughter, shades of earth are ringing through my opened ears
    Em7	    Gm
   Inciting and inviting me.
    D	           Bm		    F#m			           Em7
   Limitless, undying love which shines around me like a million suns
                             A          A7
   And calls me on and on across the Universe.


    D              A7
   Jai Guru De Va  Om
    A7
   Nothing's gonna change my world
    G                          D
   Nothing's gonna change my world
    A7
   Nothing's gonna change my world
    G                          D
   Nothing's gonna change my world


    D
   Jai Guru Deva.  (Repeat and fade)


==========================================================================

LET IT BE

intro:
C   G   Am   F (Dm/F) <--Paul plays this chord on the piano,
C   G    F  C G C        but most guitarists will just hold out F


         C             G
When I find myself in times of trouble,
  Am         F
Mother Mary comes to me,
   C                G            F  C  G  C
Speaking words of wisdom, let it be.
    C                G
And in my hour of darkness,
         Am                F
She is standing right in front of me,
   C                 G            F  C  G  C
Speaking words of wisdom, let it be.


            Am         G           F         C
     Let it be, let it be, let it be, let it be.
       C                 G            F  C  G  C
     Whisper words of wisdom, let it be.


     C                G
And when the broken hearted people
  Am            F
Living in the world agree,
   C               G            F  C  G  C
There will be an answer, let it be.
      C                   G
For though they may be parted,
           Am                  F
There is still a chance that they will see,
  C                G            F  C  G  C
There will be an answer, let it be.


            Am         G           F         C
     Let it be, let it be, let it be, let it be.
           C                 G            F  C  G  C
     Yea, there will be an answer, let it be.
            Am         G           F         C
     Let it be, let it be, let it be, let it be.
       C                 G           F  C  G  C
     Whisper words of wisdom, let it be.

F  C G C   Bb F G  F  C
F  C G C   Bb F G  F  C

[solo] (see below)


           Am         G           F         C
     Let it be, let it be, let it be, let it be.
       C                 G           F  C  G  C
     Whisper words of wisdom, let it be.


     C                  G
And when the night is cloudy,
           Am                 F
There is still a light that shines on me,
  C            G              F  C  G  C
Shine until tomorrow, let it be.
   C               G
I wake up to the sound of music,
  Am          F
Mother Mary comes to me,
   C                G           F  C  G  C
speaking words of wisdom, let it be.


            Am         G           F         C
     Let it be, let it be, let it be, let it be.
       C                 G            F  C  G  C
     There will be an answer, let it be.
            Am         G           F             C
     Let it be, let it be, let it be, yea let it be.
       C                 G           F  C  G  C
     There will be an answer, let it be.
            Am         G           F             C
     Let it be, let it be, let it be, yea let it be.
       C                 G           F  C  G  C
     Whisper words of wisdom, let it be.


F  C G C   Bb F G  F  C


solo:

|-------------------------------------------------------------------|
|-------------------------------------------------------------------|
|---5----5-------------------------------------5---7b(9)---(9)b7--5-|
|---5h7--5-------------------5--5-----5---5h7-----------------------|
|------------7\5---3---5/7---------7--------------------------------|
|-------------------------------------------------------------------|

|------8-------------------5----------------------------------------|
|--------------------------5----------------------------------------|
|--7/9---9\7---5h7---7b(9)----(9)b7--5------------------------------|
|--------------------------------------7h5---7h5--------------------|
|-------------------------------------------------7\5--3h5--3-------|
|-------------------------------------------------------------------|

|--------------------------------------------------------8--10b(12)-|
|---------------------------8-------8-------8--10--8h10-------------|
|--------5--5------5---7/9-----7/9-----7/9--------------------------|
|---5/7---------7---------------------------------------------------|
|-------------------------------------------------------------------|
|-------------------------------------------------------------------|

|-(12)b10--8--10--8----(17)b15--------------------------------------|
|-------------------------------(17)b15--13--15--(17)b15---13h15----|
|-------------------------------------------------------------------|
|-------------------------------------------------------------------|
|-------------------------------------------------------------------|
|-------------------------------------------------------------------|


==========================================================================

You know my name (Look up my number)

This is a "classic" Beatles tune


When I was a kid I had the 45 for Let it Be
this is the b-side
I think I got more of a kick out of this
Enjoy!


Intro

G/D    A    D  F#m
G    A  D  F#m  G  A

G            Bb+
You know my name,

Bm            E7
Look up the number

G           D    Em
You know my name

            A7
Look up the number

D    F#m        G           A7
You, you know, you know my name,

D    F#m        G           A7
You, you know, you know my name,


Tacet (bongoes w/ Latin feel)

Spoken
"Good evening and welcome to Slaggers
featuring Denis O'Bell"

D           A7
           Ah Ringo

D
Let's hear it for Denis

A7
Good evening
(w/Lounge feel)

G            F#+
You know my name

Bm                E7
Better look up my number

G            D
You know my name

Em                         A7
That's right, Look up my number

D
You,

You know,

G            A
You know my name

D
You,

You know,

G            A
You know my name

G              F#+
You know my name
                           Bm
Ba Ba Ba Ba Ba Ba Ba Ba Ba Ba

            E7
Look up my number

G           D
You know my name

Em                         A7
That's right, Look up the number

D
Oh, you know, you know

Em           A7
You know my name

D             Em               A7
You know, you know you know my name,

            G
Huh huh huh huh

             F#+
You know my name

F#       Bm
Ba ba ba pum

             E7
Look up the number

G             D     Em
You know my name

             A7
Look up the number

D                Em
You-a, you know, you know my name

A7    D               Em7          A13     D
Baby you-a, you know, you know my name

         Em7          A13
You know you know my name

D                     Em7    A13
You know you know my name

Spoken:
"Go on Denis, Let's hear it for Denis O'bell"

D                    G           A7
You know, you know, you know my name

D                    G           A7
You know, you know, you know my name

G
Prrr you know my name

D/f#
Look up the number


Bm
You know my name

Em          G
Look up the number

D
You know,

Em
You know my name

A7
Look up the number

(at this point the song gets weird)

    D
You know my number three

     G             A7
You know my number two

     D
You know my number three

      G             A7
You know my number four

D
You know my name

  G                G#dim7
You know my number too

     A7
You know my name, you know my number


What's up with you?

D6
    You know my name


That's right yeah.

End lyrics

I'll include the final Jazzy chords for completness,
You'll probably have to listen to the record
it's played on a piano, so it's not 100%

Includ various background noises (Vomitting?)

(one line per measure 4/4 time)

D
G  A7sus
D
Gmaj9
G
F#+ Bm

E9
G D
Em
A7
D
G A7
D
G A7
G
F#+
Bm
E9
G D
Em7
A7
D
G A7
D
G A7
D
A
G#dim7
D A7sus
D13

end


      E A D G B E
G/D   X X 0 0 0 3
A     X 0 2 2 2 0
D     X X 0 2 3 2
F#m   2 4 4 2 2 2
G     3 2 0 0 0 3
Bb+   X X 0 3 3 2
Bm    x 2 4 4 3 2
e7    0 2 0 1 0 0
Em    0 2 2 0 0 0
A7    X 0 2 0 2 0
F#+   X X 4 3 3 2
F#    2 4 4 3 2 2
Em7   0 2 0 0 0 0
A13   X 0 2 0 2 2
D/F#  2 X 0 2 3 X
G#dim7
      X X 3 4 3 4
D6    X X 0 2 0 2
A7sus X X 2 2 3 3
Gmaj9 X X 2 1 4 2 (4th Fret)
E9    0 2 0 1 0 2
D13   X 2 1 2 2 4 (4th Fret)
comments
We did not receive enough feedback on this tab! Please rate:
print report bad tab
1 2 3 4 5
1 comment total.
0 reply
Matt Montoya wrote on April 26 2006, 05:27 pm

Perfect

I want to post or [tab]
guest
You may want to rate the tab now too:
select rating
Please do not post tabs as comments. Select "correction" instead!