Oops, an error
Loading. Please wait.

Past Masters Vol 2 Tab

ver2
ver2

Album

More versions @911Tabs.com
4,897 views 6 this week
no commentswrite comment
1 2 3 4 5
excellent!
x 1
add to favorites launch autoscroll
font size
0
reset
Autoscroll
+/-
esc
set tempo
stop
Contributor
WARNING: You are trying to view
                                    content from Ultimate-Guitar.com
                                    in an unauthorized application,
                                    which is prohibited.

                                    Please use an official Ultimate
                                    Guitar Tabs application for iPhone,
                                    iPad or Android to access legitimate
                                    chords, guitar, bass, and drum tabs
                                    from Ultimate-Guitar.com database.

                                    Type "ultimate guitar tabs" in Apple
                                    App Store's or Android Market's
                                    search to find the application.
                   THE BEATLES - PAST MASTERS VOL. 2

                1  DAY TRIPPER
                2  WE CAN WORK I OUT
                3  PAPERBACK WRITER
                4  RAIN
                5  LADY MADONNA
                6  THE INNER LIGHT
                7  HEY JUDE
                8  REVOLUTION
                9  GET BACK
               10  DON'T LET ME DOWN
               11  THE BALLAD OF JOHN AND YOKO
               12  OLD BROWN SHOE
               13  ACROSS THE UNIVERSE
               14  LET IT BE
               15  YOU KNOW MY NAME (LOOK UP THE NUMBER)

  ------------------------------------------------------------

  THE BEATLES - DAY TRIPPER (Lennon & McCartney) Released as a
                double A-side single w WE CAN WORK IT OUT on
                December 3rd 1965.

  ------------------------------------------------------------

  Tabbed by:PJVillanueva


  Got a good reason for taking the easy way out
  Got a good reason for taking the easy way out now

  She was a day tripper, a one way ticket yea
  It took me so long to find out, and I found out

  She's a big teaser, she took me half the way there
  She's a big teaser, she took me half the way there now

  Tried to please her, she only played one night stands
  Tried to please her, she only played one night stands now

  She was a day tripper, a Sunday driver, yeah
  Took me so long to find out, and I found out

  Day tripper
  Day tripper yeah

e|------- ------- ------- -------|------- ------- ------- -------|
B|-------------------------------|-------------------------------|
G|-------------------------------|-------------------------------|
D|------------------------2---0--|------------4-----------0---2--|
A|--------------------2----------|--------2-----------2----------|
E|0----------3----4--------------|-------------------------------|


e|------- ------- ------- -------|------- ------- ------- -------|
B|-------------------------------|-------------------------------|
G|-------------------------------|-------------------------------|
D|------------------------2---0--|------------4-----------0---2--|
A|--------------------2----------|--------2-----------2----------|
E|0----------3----4--------------|-------------------------------|
                                                              E
e|------- ------- ------- -------|------- ------- ------- ----0--|
B|-------------------------------|----------------------------0--|
G|-------------------------------|----------------------------1--|
D|-------------------------------|----------------------------2--|
A|-------------------------------|----------------------------2--|
E|-------------------------------|----------------------------0--|


e|------- ------- ------- -------|------- ------- ------- -------|
B|-------------------------------|-------------------------------|
G|-------------------------------|-------------------------------|
D|------------------------2---0--|------------4-----------0---2--|
A|--------------------2----------|--------2-----------2----------|
E|0----------3----4--------------|-------------------------------|

e|------- 0------ 0---0-- ----0--|----0-- 0------ 0------ 0---0--|
B|--------0-------0---0-------0--|----0---0-------0-------0---0--|
G|--------1-------1---1-------1--|----1---1-------1-------1---1--|
D|--------2-------2---2-------2--|----2---2-------2-------2---2--|
A|--------2-------2---2-------2--|----2---2-------2-------2---2--|
E|--------0-------0---0-------0--|----0---0-------0-------0---0--|


e|------- ------- ------- -------|------- ------- ------- -------|
B|-------------------------------|-------------------------------|
G|-------------------------------|-------------------------------|
D|------------------------2---0--|------------4-----------0---2--|
A|--------------------2----------|--------2-----------2----------|
E|0----------3----4--------------|-------------------------------|

e|0------ 0------ 0---0-- 0---0--|----0-- 0------ 0---0-- 0---0--|
B|0-------0-------0---0---0---0--|----0---0-------0---0---0---0--|
G|1-------1-------1---1---1---1--|----1---1-------1---1---1---1--|
D|2-------2-------2---2---2---2--|----2---2-------2---2---2---2--|
A|2-------2-------2---2---2---2--|----2---2-------2---2---2---2--|
E|0-------0-------0---0---0---0--|----0---0-------0---0---0---0--|


e|------- ------- ------- -------|------- ------- ------- -------|
B|-------------------------------|-------------------------------|
G|-------------------------------|-------------------------------|
D|------------------------2---0--|------------4-----------0---2--|
A|--------------------2----------|--------2-----------2----------|
E|0----------3----4--------------|-------------------------------|

e|0------ 0------ 0---0-- 0---0--|----0-- 0---0-- ----0-- 0---0--|
B|0-------0-------0---0---0---0--|----0---0---0-------0---0---0--|
G|1-------1-------1---1---1---1--|----1---1---1-------1---1---1--|
D|2-------2-------2---2---2---2--|----2---2---2-------2---2---2--|
A|2-------2-------2---2---2---2--|----2---2---2-------2---2---2--|
E|0-------0-------0---0---0---0--|----0---0---0-------0---0---0--|


e|------- ------- ------- -------|------- ------- ------- -------|
B|-------------------------------|-------------------------------|
G|-------------------------------|-------------------------------|
D|------------------------2---0--|------------4-----------0---2--|
A|--------------------2----------|--------2-----------2----------|
E|0----------3----4--------------|-------------------------------|

e|------- 0------ 0---0-- ----0--|----0-- 0---0-- ----0-- 0---0--|
B|--------0-------0---0-------0--|----0---0---0-------0---0---0--|
G|--------1-------1---1-------1--|----1---1---1-------1---1---1--|
D|--------2-------2---2-------2--|----2---2---2-------2---2---2--|
A|--------2-------2---2-------2--|----2---2---2-------2---2---2--|
E|--------0-------0---0-------0--|----0---0---0-------0---0---0--|
  Got a   good                                                for
              reason


e|------- ------- ------- -------|------- ------- ------- -------|
B|-------------------------------|-------------------------------|
G|-------------------------------|-------------------------------|
D|------------------------2---0--|------------4-----------0---2--|
A|--------------------2----------|--------2-----------2----------|
E|0----------3----4--------------|-------------------------------|

e|------- 0------ 0---0-- 0---0--|----0-- 0---0-- ----0-- 0---0--|
B|--------0-------0---0---0---0--|----0---0---0-------0---0---0--|
G|--------1-------1---1---1---1--|----1---1---1-------1---1---1--|
D|--------2-------2---2---2---2--|----2---2---2-------2---2---2--|
A|--------2-------2---2---2---2--|----2---2---2-------2---2---2--|
E|--------0-------0---0---0---0--|----0---0---0-------0---0---0--|
  taking  the easy        way out

e|------- ------- ------- -------|------- ------- ------- -------|
B|-------------------------------|-------------------------------|
G|------------------------2---0--|------------4-----------0---2--|
D|--------------------2----------|--------2-----------2----------|
A|0-----------3---4--------------|-------------------------------|
E|-------------------------------|-------------------------------|
  A
e|0------ 0------ 0---0-- 0---0--|------- 0---0-- 0---0-- 0---0--|
B|2-------2-------2---2---2---2--|--------2---2---2---2---2---2--|
G|2-------2-------2---2---2---2--|--------2---2---2---2---2---2--|
D|2-------2-------2---2---2---2--|--------2---2---2---2---2---2--|
A|0-------0-------0---0---0---0--|--------0---0---0---0---0---0--|
E|-------------------------------|-------------------------------|
  Got a   good                                                for
              reason


e|------- ------- ------- -------|------- ------- ------- -------|
B|-------------------------------|-------------------------------|
G|-------------------------------|-------------------------------|
D|------------------------2---0--|------------4-----------0---2--|
A|--------------------2----------|--------2-----------2----------|
E|0----------3----4--------------|-------------------------------|
          E
e|------- 0------ 0---0-- 0---0--|----0-- 0---0-- ----0-- 0---0--|
B|--------0-------0---0---0---0--|----0---0---0-------0---0---0--|
G|--------1-------1---1---1---1--|----1---1---1-------1---1---1--|
D|--------2-------2---2---2---2--|----2---2---2-------2---2---2--|
A|--------2-------2---2---2---2--|----2---2---2-------2---2---2--|
E|-------------------------------|-------------------------------|
  taking  the             way out     now             She was a
              easy


e|------- ------- ------- -------|------- ------- ------- -------|
B|-------------------------------|-------------------------------|
G|-------------------------------|-------------------------------|
D|-------------------------------|--------4---4---4-------4---4--|
A|-------------------------------|--------4---4---4-------4---4--|
E|-------------------------------|0-H-2---2---2---2-------2---2--|
          F#7
e|------- 2------ 2---2-- 2---2--|------- 2------ 2---2-- 2---2--|
B|--------5-------5---5---5---5--|--------5-------5---5---5---5--|
G|--------3-------3---3---3---3--|--------3-------3---3---3---3--|
D|--------2-------2---2---2---2--|--------2-------2---2---2---2--|
A|--------4-------4---4---4---4--|--------4-------4---4---4---4--|
E|--------2-------2---2---2---2--|--------2-------2---2---2---2--|
  daaaaaaaaaaaaaaaaaaaaaaaaaaaaay tripper


e|------- ------- ------- -------|------- ------- ------- -------|
B|-------------------------------|-------------------------------|
G|-------------------------------|-------------------------------|
D|-------------------------------|4-------4---4---4-------4---4-/|
A|-------------------------------|4-------4---4---4-------4---4-/|
E|-------------------------------|2-------2---2---2-------2---2-/|

e|------- 2------ 2---2-- 2---2--|2------ 2------ 2---2-- 2---2--|
B|--------5-------5---5---5---5--|5-------5-------5---5---5---5--|
G|--------3-------3---3---3---3--|3-------3-------3---3---3---3--|
D|--------2-------2---2---2---2--|2-------2-------2---2---2---2--|
A|--------4-------4---4---4---4--|4-------4-------4---4---4---4--|
E|--------2-------2---2---2---2--|2-------2-------2---2---2---2--|
  One way     ticket,         yeah                    It  took
                                                              me


e|------- ------- ------- -------|------- ------- ------- -------|
B|-------------------------------|-------------------------------|
G|-------------------------------|-------------------------------|
D|7---7---7---7---7---7---7---7--|6---6---6---6---6---6---6---6-/|
A|7---7---7---7---7---7---7---7--|6---6---6---6---6---6---6---6-/|
E|5---5---5---5---5---5---5---5--|4---4---4---4---4---4---4---4-/|
  A7                              G#7
e|5------ 5---5-- ----5-- ----5--|4------ 4---4-- ----4-- 4------|
B|8-------8---8-------8-------8--|7-------7---7-------7---7------|
G|6-------6---6-------6-------6--|5-------5---5-------5---5------|
D|5-------5---5-------5-------5--|4-------4---4-------4---4------|
A|7-------7---7-------7-------7--|6-------6---6-------6---6------|
E|5-------5---5-------5-------5--|4-------4---4-------4---4------|
  sooooooooooooooooooooooooooooo  long                to  find
                                                              out


e|------- ------- ------- -------|------- ------- ------- -------|
B|-------------------------------|-------------------------------|
G|-------------------------------|-------------------------------|
D|11------11------11--11--11--11-|9-------9-------9---9---9------|
A|11------11------11--11--11--11-|9-------9-------9---9---9------|
E|-9-------9-------9---9---9---9-|7-------7-------7---7---7------|
  C#7                             B7
e|-9----- -9----- -9----- -9-----|-7----- -7----- -7----- -------|
B|12------12------12------12-----|10------10------10-------------|
G|10------10------10------10-----|-8-------8-------8-------------|
D|-9-------9-------9-------9-----|-7-------7-------7-------------|
A|11------11------11------11-----|-9-------9-------9-------------|
E|-9-------9-------9-------9-----|-7-------7-------7-------------|
                      and     found
                        I         out


e|------- ------- ------- -------|------- ------- ------- -------|
B|-------------------------------|-------------------------------|
G|-------------------------------|-------------------------------|
D|------------------------2---0--|------------4-----------0---2--|
A|--------------------2----------|--------2-----------2----------|
E|0----------3----4--------------|-------------------------------|
                                                              E
e|------- ------- ------- -------|------- ------- ------- ----0--|
B|-------------------------------|----------------------------0--|
G|-------------------------------|----------------------------1--|
D|-------------------------------|----------------------------2--|
A|-------------------------------|----------------------------2--|
E|-------------------------------|----------------------------0--|


e|------- ------- ------- -------|------- ------- ------- -------|
B|-------------------------------|-------------------------------|
G|-------------------------------|-------------------------------|
D|------------------------2---0--|------------4-----------0---2--|
A|--------------------2----------|--------2-----------2----------|
E|0----------3----4--------------|-------------------------------|

e|------- 0------ ----0-- ----0--|------- 0------ 0------ 0---0--|
B|--------0-----------0-------0--|--------0-------0-------0---0--|
G|--------1-----------1-------1--|--------1-------1-------1---1--|
D|--------2-----------2-------2--|--------2-------2-------2---2--|
A|--------2-----------2-------2--|--------2-------2-------2---2--|
E|--------0-----------0-------0--|--------0-------0-------0---0--|


e|------- ------- ------- -------|------- ------- ------- -------|
B|-------------------------------|-------------------------------|
G|-------------------------------|-------------------------------|
D|------------------------2---0--|------------4-----------0---2--|
A|--------------------2----------|--------2-----------2----------|
E|0----------3----4--------------|-------------------------------|

e|------- 0------ ----0-- ----0--|----0-- 0------ ----0-- 0---0--|
B|--------0-----------0-------0--|----0---0-----------0---0---0--|
G|--------1-----------1-------1--|----1---1-----------1---1---1--|
D|--------2-----------2-------2--|----2---2-----------2---2---2--|
A|--------2-----------2-------2--|----2---2-----------2---2---2--|
E|--------0-----------0-------0--|----0---0-----------0---0---0--|
  She's   big teaser
      a


e|------- ------- ------- -------|------- ------- ------- -------|
B|-------------------------------|-------------------------------|
G|-------------------------------|-------------------------------|
D|------------------------2---0--|------------4-----------0---2--|
A|--------------------2----------|--------2-----------2----------|
E|0----------3----4--------------|-------------------------------|

e|0------ 0------ ----0-- ----0--|----0-- 0------ 0---0-- 0---0--|
B|0-------0-----------0-------0--|----0---0-------0---0---0---0--|
G|1-------1-----------1-------1--|----1---1-------1---1---1---1--|
D|2-------2-----------2-------2--|----2---2-------2---2---2---2--|
A|2-------2-----------2-------2--|----2---2-------2---2---2---2--|
E|0-------0-----------0-------0--|----0---0-------0---0---0---0--|
  She took    half    the way there
          me


e|------- ------- ------- -------|------- ------- ------- -------|
B|-------------------------------|-------------------------------|
G|------------------------2---0--|------------4-----------0---2--|
D|--------------------2----------|--------2-----------2----------|
A|0-----------3---4--------------|-------------------------------|
E|-------------------------------|-------------------------------|
  A
e|0------ 0------ 0---0-- 0---0--|----0-- 0------ 0------ 0---0--|
B|2-------2-------2---2---2---2--|----2---2-------2-------2---2--|
G|2-------2-------2---2---2---2--|----2---2-------2-------2---2--|
D|2-------2-------2---2---2---2--|----2---2-------2-------2---2--|
A|0-------0-------0---0---0---0--|----0---0-------0-------0---0--|
E|-------------------------------|-------------------------------|
  She's   big teaser
      a


e|------- ------- ------- -------|------- ------- ------- -------|
B|-------------------------------|-------------------------------|
G|-------------------------------|-------------------------------|
D|------------------------2---0--|------------4-----------0---2--|
A|--------------------2----------|--------2-----------2----------|
E|0----------3----4--------------|-------------------------------|
          E
e|------- 0------ 0---0-- 0---0--|----0-- 0------ ----0-- 0---0--|
B|--------0-------0---0---0---0--|----0---0-----------0---0---0--|
G|--------1-------1---1---1---1--|----1---1-----------1---1---1--|
D|--------2-------2---2---2---2--|----2---2-----------2---2---2--|
A|--------2-------2---2---2---2--|----2---2-----------2---2---2--|
E|-------------------------------|-------------------------------|
  She took me half    the way there   now             She was a


e|------- ------- ------- -------|------- ------- ------- -------|
B|-------------------------------|-------------------------------|
G|-------------------------------|-------------------------------|
D|-------------------------------|--------4---4---4-------4---4--|
A|-------------------------------|--------4---4---4-------4---4--|
E|-------------------------------|0-H-2---2---2---2-------2---2--|
          F#7
e|------- 2------ ----2-- ----2--|------- 2------ ----2-- ----2--|
B|--------5-----------5-------5--|--------5-----------5-------5--|
G|--------3-----------3-------3--|--------3-----------3-------3--|
D|--------2-----------2-------2--|--------2-----------2-------2--|
A|--------4-----------4-------4--|--------4-----------4-------4--|
E|--------2-----------2-------2--|--------2-----------2-------2--|
  daaaaaaaaaaaaaaaaaaaaaaaaaaaaay tripper


e|------- ------- ------- -------|------- ------- ------- -------|
B|-------------------------------|-------------------------------|
G|-------------------------------|-------------------------------|
D|-------------------------------|4-------4---4---4-------4---4-/|
A|-------------------------------|4-------4---4---4-------4---4-/|
E|-------------------------------|2-------2---2---2-------2---2-/|

e|------- 2------ ----2-- ----2--|------- 2------ ----222 222222-|
B|--------5-----------5-------5--|--------5-----------555-555555-|
G|--------3-----------3-------3--|--------3-----------333-333333-|
D|--------2-----------2-------2--|--------2-----------222-222222-|
A|--------4-----------4-------4--|--------4-----------444-444444-|
E|--------2-----------2-------2--|--------2-----------222-222222-|
  One way     ticket,         yeah                    It  took
                                                              me


e|------- ------- ------- -------|------- ------- ------- -------|
B|-------------------------------|-------------------------------|
G|-------------------------------|-------------------------------|
D|7---7---7---7---7---7---7---7--|6---6---6---6---6---6---6---6-/|
A|7---7---7---7---7---7---7---7--|6---6---6---6---6---6---6---6-/|
E|5---5---5---5---5---5---5---5--|4---4---4---4---4---4---4---4-/|
          A7                              G#7
e|------- 5------ ----5-- ----5--|------- 4------ ----4-- -------|
B|--------8-----------8-------8--|--------7-----------7----------|
G|--------6-----------6-------6--|--------5-----------5----------|
D|--------5-----------5-------5--|--------4-----------4----------|
A|--------7-----------7-------7--|--------6-----------6----------|
E|--------5-----------5-------5--|--------4-----------4----------|
  sooooooooooooooooooooooooooooo  long                to  find
                                                              out


e|------- ------- ------- -------|------- ------- ------- -------|
B|-------------------------------|-------------------------------|
G|-------------------------------|-------------------------------|
D|11------11------11--11--11--11-|9-------9-------9---9---9------|
A|11------11------11--11--11--11-|9-------9-------9---9---9------|
E|-9-------9-------9---9---9---9-|7-------7-------7---7---7------|
  C#7                              B7                          A7
e|-9----- -9----- -9---9- ----9--|-7----- -7----- -7---7- -----5-|
B|12------12------12--12-----12--|10------10------10--10-------8-|
G|10------10------10--10-----10--|-8-------8-------8---8-------6-|
D|-9-------9-------9---9------9--|-7-------7-------7---7-------5-|
A|11------11------11--11-----11--|-9-------9-------9---9-------7-|
E|-9-------9-------9---9------9--|-7-------7-------7---7-------5-|
                      and    found
                        I         out


  SOLO


e|------- ------- ------- -------|------- ------- ------- -------|
B|-------------------------------|-------------------------------|
G|-------------------------------|-------------------------------|
D|-9----------------------9----7-|------------11-----------7-H-9-|
A|-9-------------------9---------|---------9-----------9---------|
E|-7----------10--11-------------|-------------------------------|
   B                               Badd9
e|-7----- -7----- -----7- -7---7-|-7----- -7----- -7---7- -7---7-|
B|-7-------7-----------7---7---7-|-7-------7-------7---7---7---7-|
G|-8-------8-----------8---8---8-|-8-------8-------8---8---8---8-|
D|-9-------9-----------9---9---9-|11------11------11--11--11--11-|
A|-9-------9-----------9---9---9-|-9-------9-------9---9---9---9-|
E|-7-------7-----------7---7---7-|-7-------7-------7---7---7---7-|

e|------- ------- ------- -------|------- ------- ------- -------|
B|-------------------------------|-------------------------------|
G|-------------------------------|-------------------------------|
D|-------------------------------|-------------------------------|
A|-------------------------------|-------------------------------|
E|--------7----------------------|--------9----------------------|

e|------- ------- ------- -------|------- ------- ------- -------|
B|-------------------------------|-------------------------------|
G|-------------------------------|-------------------------------|
D|-9----------------------9----7-|------------11-----------7-H-9-|
A|-9-------------------9---------|---------9-----------9---------|
E|-7----------10--11-------------|-------------------------------|
   B                               B7sus4                      B
e|-7---7- -7----- -7---7- -7---7-|-7----- -7----- -7---7- -7---7-|
B|-7---7---7-------7---7---7---7-|-7-------7-------7---7---7---7-|
G|-8---8---8-------8---8---8---8-|-9-------9-------9---9---9---8-|
D|-9---9---9-------9---9---9---9-|-7-------7-------7---7---7---9-|
A|-9---9---9-------9---9---9---9-|-9-------9-------9---9---9---9-|
E|-7---7---7-------7---7---7---7-|-7-------7-------7---7---7---7-|

e|------- ------- ------- -------|------- ------- ------- -------|
B|-------------------------------|-------------------------------|
G|-------------------------------|-------------------------------|
D|-------------------------------|-------------------------------|
A|--------6----------------------|--------7----------------------|
E|-------------------------------|-------------------------------|


e|------- ------- ------- -------|------- ------- ------- -------|
B|-------------------------------|-------------------------------|
G|-------------------------------|-------------------------------|
D|-9----------------------9----7-|------------11-----------7-H-9-|
A|-9-------------------9---------|---------9-----------9---------|
E|-7----------10--11-------------|-------------------------------|
                                   B13                         B7
e|-7---7- -7----- -7---7- -7---7-|-7----- -7----- -7---7- -7---7-|
B|-7---7---7-------7---7---7---7-|-9-------9-------9---9---9--10-|
G|-8---8---8-------8---8---8---8-|-8-------8-------8---8---8---8-|
D|-9---9---9-------9---9---9---9-|-7-------7-------7---7---7---7-|
A|-9---9---9-------9---9---9---9-|-9-------9-------9---9---9---9-|
E|-7---7---7-------7---7---7---7-|-7-------7-------7---7---7---7-|

e|------- ------- ------- -------|------- ------- ------- -------|
B|-------------------------------|-------------------------------|
G|-------------------------------|-------------------------------|
D|-------------------------------|--------6----------------------|
A|--------9----------------------|-------------------------------|
E|-------------------------------|-------------------------------|


e|------- ------- ------- -------|------- ------- ------- -------|
B|-------------------------------|----10-------------------------|
G|--------------9P7-------7---9-B|11--------------11-R-9---------|
D|9-------9-----------9----------|-------------------------------|
A|-------------------------------|-------------------------------|
E|-------------------------------|-------------------------------|
                                   B
e|-7---7- -7----- -7---7- -7---7-|-7---7- -7----- -7---7- -7---7-|
B|10--10--10------10--10--10--10-|-7---7---7-------7---7---7---7-|
G|-8---8---8-------8---8---8---8-|-8---8---8-------8---8---8---8-|
D|-7---7---7-------7---7---7---7-|-9---9---9-------9---9---9---9-|
A|-9---9---9-------9---9---9---9-|-9---9---9-------9---9---9---9-|
E|-7---7---7-------7---7---7---7-|-7---7---7-------7---7---7---7-|

e|------- ------- ------- -------|------- ------- ------- -------|
B|-------------------------------|-------------------------------|
G|-------------------------------|-------------------------------|
D|--------7----------------------|--------9----------------------|
A|-------------------------------|-------------------------------|
E|-------------------------------|-------------------------------|


e|------- ------- ------- -------|------- ------- ------- -------|
B|----------------15------15--1717B1919R1715---------------------|
G|16------16----------16---------|------------16-----------------|
D|-------------------------------|-------------------------------|
A|-------------------------------|-------------------------------|
E|-------------------------------|-------------------------------|
   B9                             B7
e|-9---9- -9----- -9---9- -9---9-|11--11- 11----- 11--11- 11--11-|
B|-7---7---7-------7---7---7---7-|-7---7---7-------7---7---7---7-|
G|-8---8---8-------8---8---8---8-|-8---8---8-------8---8---8---8-|
D|-7---7---7-------7---7---7---7-|-7---7---7-------7---7---7---7-|
A|-9---9---9-------9---9---9---9-|-9---9---9-------9---9---9---9-|
E|-7---7---7-------7---7---7---7-|-7---7---7-------7---7---7---7-|

e|------- ------- ------- -------|------- ------- ------- -------|
B|-------------------------------|-------------------------------|
G|--------6----------------------|--------8----------------------|
D|-------------------------------|-------------------------------|
A|-------------------------------|-------------------------------|
E|-------------------------------|-------------------------------|

   B7sus4                          B
e|-7---7- -7----- -7---7- -7---7-|-7---7- -7----- -7---7- -7---7-|
B|-7---7---7-------7---7---7---7-|-7---7---7-------7---7---7---7-|
G|-9---9---9-------9---9---9---9-|-8---8---8-------8---8---8---8-|
D|-7---7---7-------7---7---7---7-|-9---9---9-------9---9---9---9-|
A|-9---9---9-------9---9---9---9-|-9---9---9-------9---9---9---9-|
E|-7---7---7-------7---7---7---7-|-7---7---7-------7---7---7---7-|

e|------- ------- ------- -------|------- ------- ------- -------|
B|-------------------------------|----7--------------------------|
G|--------9----------------------|-------------------------------|
D|-------------------------------|-------------------------------|
A|-------------------------------|-------------------------------|
E|-------------------------------|-------------------------------|


e|------- ------- ------- -------|------- ------- ------- -------|
B|-------------------------------|-------------------------------|
G|-------------------------------|-------------------------------|
D|------------------------2---0--|------------4-----------0---2--|
A|--------------------2----------|--------2-----------2----------|
E|0----------3----4--------------|-------------------------------|
                                                              E
e|------- ------- ------- -------|------- ------- ------- ----0--|
B|-------------------------------|----------------------------0--|
G|-------------------------------|----------------------------1--|
D|-------------------------------|----------------------------2--|
A|-------------------------------|----------------------------2--|
E|-------------------------------|----------------------------0--|


e|------- ------- ------- -------|------- ------- ------- -------|
B|-------------------------------|-------------------------------|
G|-------------------------------|-------------------------------|
D|------------------------2---0--|------------4-----------0---2--|
A|--------------------2----------|--------2-----------2----------|
E|0----------3----4--------------|-------------------------------|

e|------- 0------ ----0-- ----0--|----0-- ------- 0------ 0---0--|
B|--------0-----------0-------0--|----0-----------0-------0---0--|
G|--------1-----------1-------1--|----1-----------1-------1---1--|
D|--------2-----------2-------2--|----2-----------2-------2---2--|
A|--------2-----------2-------2--|----2-----------2-------2---2--|
E|--------0-----------0-------0--|----0-----------0-------0---0--|


e|------- ------- ------- -------|------- ------- ------- -------|
B|-------------------------------|-------------------------------|
G|-------------------------------|-------------------------------|
D|------------------------2---0--|------------4-----------0---2--|
A|--------------------2----------|--------2-----------2----------|
E|0----------3----4--------------|-------------------------------|

e|------- 0------ 0---0-- ----0--|----0-- ------- 0---0-- 0---0--|
B|--------0-------0---0-------0--|----0-----------0---0---0---0--|
G|--------1-------1---1-------1--|----1-----------1---1---1---1--|
D|--------2-------2---2-------2--|----2-----------2---2---2---2--|
A|--------2-------2---2-------2--|----2-----------2---2---2---2--|
E|--------0-------0---0-------0--|----0-----------0---0---0---0--|
  Tried   to  please  her,

e|------- ------- ------- -------|------- ------- ------- -------|
B|-------------------------------|-------------------------------|
G|-------------------------------|-------------------------------|
D|------------------------2---0--|------------4-----------0---2--|
A|--------------------2----------|--------2-----------2----------|
E|0----------3----4--------------|-------------------------------|

e|------- 0------ ----0-- ----0--|----0-- 0------ 0---0-- 0---0--|
B|--------0-----------0-------0--|----0---0-------0---0---0---0--|
G|--------1-----------1-------1--|----1---1-------1---1---1---1--|
D|--------2-----------2-------2--|----2---2-------2---2---2---2--|
A|--------2-----------2-------2--|----2---2-------2---2---2---2--|
E|--------0-----------0-------0--|----0---0-------0---0---0---0--|
  She only    played  one night
                              stands


e|------- ------- ------- -------|------- ------- ------- -------|
B|-------------------------------|-------------------------------|
G|------------------------2---0--|------------4-----------0---2--|
D|--------------------2----------|--------2-----------2----------|
A|0-----------3---4--------------|-------------------------------|
E|-------------------------------|-------------------------------|
  A
e|0------ 0------ 0---0-- 0---0--|----0-- 0------ 0---0-- 0---0--|
B|2-------2-------2---2---2---2--|----2---2-------2---2---2---2--|
G|2-------2-------2---2---2---2--|----2---2-------2---2---2---2--|
D|2-------2-------2---2---2---2--|----2---2-------2---2---2---2--|
A|0-------0-------0---0---0---0--|----0---0-------0---0---0---0--|
E|-------------------------------|-------------------------------|
  Tried   to  please  her,

e|------- ------- ------- -------|------- ------- ------- -------|
B|-------------------------------|-------------------------------|
G|-------------------------------|-------------------------------|
D|------------------------2---0--|------------4-----------0---2--|
A|--------------------2----------|--------2-----------2----------|
E|0----------3----4--------------|-------------------------------|
          E
e|------- 0------ 0---0-- ----0--|----0-- ------- 0---0-- 0---0--|
B|--------0-------0---0-------0--|----0-----------0---0---0---0--|
G|--------1-------1---1-------1--|----1-----------1---1---1---1--|
D|--------2-------2---2-------2--|----2-----------2---2---2---2--|
A|--------2-------2---2-------2--|----2-----------2---2---2---2--|
E|--------0-------0---0-------0--|----0-----------0---0---0---0--|
  She only    played  one night       now             She was a
                              stands

e|------- ------- ------- -------|------- ------- ------- -------|
B|-------------------------------|-------------------------------|
G|-------------------------------|-------------------------------|
D|-------------------------------|--------4---4---4--------------|
A|-------------------------------|--------4---4---4-------3\2-0--|
E|-------------------------------|0-/-2---2---2---2--------------|
          F#7
e|------- 2------ 2---2-- 2---2--|------- 2------ 2---2-- 2---2--|
B|--------5-------5---5---5---5--|--------5-------5---5---5---5--|
G|--------3-------3---3---3---3--|--------3-------3---3---3---3--|
D|--------2-------2---2---2---2--|--------2-------2---2---2---2--|
A|--------4-------4---4---4---4--|--------4-------4---4---4---4--|
E|--------2-------2---2---2---2--|--------2-------2---2---2---2--|
  daaaaaaaaaaaaaaaaaaaaaaaaaaaaay tripper                     a


e|------- ------- ------- -------|------- ------- ------- -------|
B|-------------------------------|-------------------------------|
G|-------------------------------|-------------------------------|
D|-------------------------------|--------4---4---4---4---4---4-/|
A|-------------------------------|--------4---4---4---4---4---4-/|
E|-------------------------------|0H2-----2---2---2---2---2---2-/|

e|------- 2------ 2---2-- 2---2--|2------ 2------ 2---2-- 2---2--|
B|--------5-------5---5---5---5--|5-------5-------5---5---5---5--|
G|--------3-------3---3---3---3--|3-------3-------3---3---3---3--|
D|--------2-------2---2---2---2--|2-------2-------2---2---2---2--|
A|--------4-------4---4---4---4--|4-------4-------4---4---4---4--|
E|--------2-------2---2---2---2--|2-------2-------2---2---2---2--|
  sunday      driver,         yeah                    It  took
                                                              me


e|------- ------- ------- -------|------- ------- ------- -------|
B|-------------------------------|-------------------------------|
G|-------------------------------|-------------------------------|
D|7---7---7---7---7---7---7------|6---6---6---6---6---6---6----/-|
A|7---7---7---7---7---7---7------|6---6---6---6---6---6---6----/-|
E|5---5---5---5---5---5---5------|4---4---4---4---4---4---4----/-|
  A7                              G#7
e|5------ 5------ 5---5-- 5---5--|4------ 4------ 4---4-- 4---4--|
B|8-------8-------8---8---8---8--|7-------7-------7---7---7---7--|
G|6-------6-------6---6---6---6--|5-------5-------5---5---5---5--|
D|5-------5-------5---5---5---5--|4-------4-------4---4---4---4--|
A|7-------7-------7---7---7---7--|6-------6-------6---6---6---6--|
E|5-------5-------5---5---5---5--|4-------4-------4---4---4---4--|
  sooooooooooooooooooooooooooooo  long                to  find out

e|------- ------- ------- -------|------- ------- ------- -------|
B|-------------------------------|-------------------------------|
G|-------------------------------|-------------------------------|
D|11------11--11--11--11--11--11-|9-------9---9---9---9---9---9--|
A|11------11--11--11--11--11--11-|9-------9---9---9---9---9---9--|
E|-9-------9---9---9---9---9---9-|7-------7---7---7---7---7---7--|
   C#7                             B7
e|-9----- -9----- -9----- -9---9-|-7----- -7----- -7---7- -7---7-|
B|12------12------12------12--12-|10------10------10--10--10--10-|
G|10------10------10------10--10-|-8-------8-------8---8---8---8-|
D|-9-------9-------9-------9---9-|-7-------7-------7---7---7---7-|
A|11------11------11------11--11-|-9-------9-------9---9---9---9-|
E|-9-------9-------9-------9---9-|-7-------7-------7---7---7---7-|
                     and    found out
                        I


e|------- ------- ------- -------|------- ------- ------- -------|
B|-------------------------------|-------------------------------|
G|-------------------------------|-------------------------------|
D|------------------------2---0--|------------4-----------0---2--|
A|--------------------2----------|--------2-----------2----------|
E|0----------3----4--------------|-------------------------------|


e|------- ------- ------- -------|------- ------- ------- -------|
B|-------------------------------|-------------------------------|
G|-------------------------------|-------------------------------|
D|------------------------2---0--|------------4-----------0---2--|
A|--------------------2----------|--------2-----------2----------|
E|0----------3----4--------------|-------------------------------|
                                                              E
e|------- ------- ------- -------|------- ------- ------- ----0--|
B|-------------------------------|----------------------------0--|
G|-------------------------------|----------------------------1--|
D|-------------------------------|----------------------------2--|
A|-------------------------------|----------------------------2--|
E|-------------------------------|----------------------------0--|


e|------- ------- ------- -------|------- ------- ------- -------|
B|-------------------------------|-------------------------------|
G|-------------------------------|-------------------------------|
D|------------------------2---0--|------------4-----------0---2--|
A|--------------------2----------|--------2-----------2----------|
E|0----------3----4--------------|-------------------------------|

e|0------ 0------ 0---0-- ----0--|----0-- 0------ 0------ 0---0--|
B|0-------0-------0---0-------0--|----0---0-------0-------0---0--|
G|1-------1-------1---1-------1--|----1---1-------1-------1---1--|
D|2-------2-------2---2-------2--|----2---2-------2-------2---2--|
A|2-------2-------2---2-------2--|----2---2-------2-------2---2--|
E|0-------0-------0---0-------0--|----0---0-------0-------0---0--|


e|------- ------- ------- -------|------- ------- ------- -------|
B|-------------------------------|-------------------------------|
G|-------------------------------|-------------------------------|
D|------------------------2---0--|------------4-----------0---2--|
A|--------------------2----------|--------2-----------2----------|
E|0----------3----4--------------|-------------------------------|

e|0------ 0------ 0---0-- 0---0--|----0-- 0------ 0---0-- 0---0--|
B|0-------0-------0---0---0---0--|----0---0-------0---0---0---0--|
G|1-------1-------1---1---1---1--|----1---1-------1---1---1---1--|
D|2-------2-------2---2---2---2--|----2---2-------2---2---2---2--|
A|2-------2-------2---2---2---2--|----2---2-------2---2---2---2--|
E|0-------0-------0---0---0---0--|----0---0-------0---0---0---0--|


e|------- ------- ------- -------|------- ------- ------- -------|
B|-------------------------------|-------------------------------|
G|-------------------------------|-------------------------------|
D|------------------------2---0--|------------4-----------0---2--|
A|--------------------2----------|--------2-----------2----------|
E|0----------3----4--------------|-------------------------------|

e|------- 0------ ----0-- ----0--|----0-- 0------ 0---0-- 0---0--|
B|--------0-----------0-------0--|----0---0-------0---0---0---0--|
G|--------1-----------1-------1--|----1---1-------1---1---1---1--|
D|--------2-----------2-------2--|----2---2-------2---2---2---2--|
A|--------2-----------2-------2--|----2---2-------2---2---2---2--|
E|--------0-----------0-------0--|----0---0-------0---0---0---0--|
          Day     tripper

e|------- ------- ------- -------|------- ------- ------- -------|
B|-------------------------------|-------------------------------|
G|-------------------------------|-------------------------------|
D|------------------------2---0--|------------4-----------0---2--|
A|--------------------2----------|--------2-----------2----------|
E|0----------3----4--------------|-------------------------------|

e|------- 0------ 0---0-- ----0--|----0-- 0------ 0---0-- 0---0--|
B|--------0-------0---0-------0--|----0---0-------0---0---0---0--|
G|--------1-------1---1-------1--|----1---1-------1---1---1---1--|
D|--------2-------2---2-------2--|----2---2-------2---2---2---2--|
A|--------2-------2---2-------2--|----2---2-------2---2---2---2--|
E|--------0-------0---0-------0--|----0---0-------0---0---0---0--|
          Day     tripper,    yeah

e|------- ------- ------- -------|------- ------- ------- -------|
B|-------------------------------|-------------------------------|
G|-------------------------------|-------------------------------|
D|------------------------2---0--|------------4-----------0---2--|
A|--------------------2----------|--------2-----------2----------|
E|0----------3----4--------------|-------------------------------|

e|0------ 0------ ----0-- ----0--|----0-- ----0-- ----0-- 0---0--|
B|0-------0-----------0-------0--|----0-------0-------0---0---0--|
G|1-------1-----------1-------1--|----1-------1-------1---1---1--|
D|2-------2-----------2-------2--|----2-------2-------2---2---2--|
A|2-------2-----------2-------2--|----2-------2-------2---2---2--|
E|0-------0-----------0-------0--|----0-------0-------0---0---0--|
          Day     tripper


e|------- ------- ------- -------|------- ------- ------- -------|
B|-------------------------------|-------------------------------|
G|-------------------------------|-------------------------------|
D|------------------------2---0--|------------4-----------0---2--|
A|--------------------2----------|--------2-----------2----------|
E|0----------3----4--------------|-------------------------------|

e|0------ 0------ 0---0-- ----0--|----0-- 0------ 0---0-- 0---0--|
B|0-------0-------0---0-------0--|----0---0-------0---0---0---0--|
G|1-------1-------1---1-------1--|----1---1-------1---1---1---1--|
D|2-------2-------2---2-------2--|----2---2-------2---2---2---2--|
A|2-------2-------2---2-------2--|----2---2-------2---2---2---2--|
E|0-------0-------0---0-------0--|----0---0-------0---0---0---0--|
          Day     tripper,    yeah
  ............................ Fade .............................


e|------- ------- ------- -------|------- ------- ------- -------|
B|-------------------------------|-------------------------------|
G|-------------------------------|-------------------------------|
D|------------------------2---0--|------------4-----------0---2--|
A|--------------------2----------|--------2-----------2----------|
E|0----------3----4--------------|-------------------------------|

e|------- 0------ ----0-- ----0--|----0-- 0------ ----0-- ----0--|
B|--------0-----------0-------0--|----0---0-----------0-------0--|
G|--------1-----------1-------1--|----1---1-----------1-------1--|
D|--------2-----------2-------2--|----2---2-----------2-------2--|
A|--------2-----------2-------2--|----2---2-----------2-------2--|
E|--------0-----------0-------0--|----0---0-----------0-------0--|
          Day     tripper
  ...............................................................

        B  Bend
        R  Release
        /  slide up
        \  slide down
        H  hammer-on
        P  pull-off
        ~  vibrato
        +  harmonic
        x  Mute note
        . - play note like a dot in standard notation
        ^ - ties two notes together
        (. Pause

  -----------------------------------------------------------------

  THE BEATLES - WE CAN WORK IT OUT (Lennon/McCartney) Released as a
                double A-side single with DAY TRIPPER on 3 December
                1965.

  -----------------------------------------------------------------

  Tabbed by:PJVillanueva

  Try to see it my way,
  Do I have to keep on talking till I can't go on?
  While you see it your way,
  Run the risk of knowing that our love may soon be gone.
  We can work it out,
  We can work it out.

  Think of what you're saying.
  You can get it wrong and still you think that it's alright.
  Think of what I'm saying,
  We can work it out and get it straight, or say good night.
  We can work it out,
  We can work it out.
  Life is very short, and there's no time
  For fussing and fighting, my friend.
  I have always thought that it's a crime,
  So I will ask you once again.

  Try to see it my way,
  Only time will tell if I am right or I am wrong.
  While you see it your way
  There's a chance that we may fall apart before too long.
  We can work it out,
  We can work it out.
  Life is very short, and there's no time
  For fussing and fighting, my friend.
  I have always thought that it's a crime,
  So I will ask you one more time.

  Try to see it my way,
  Only time will tell if I am right or I am wrong.
  While you see it your way
  There's a chance that we may fall apart before too long.
  We can work it out,
  We can work it out.

  D                 Dsus4 D
e|2------ 2---2-- 2-H-3-- 2------|------- 2---2-- 2-H-3-- 3---3--|
B|3-------3---3---3-------3------|--------3---3---3---3---3---3--|
G|2-------2---2---2-------2------|--------2---2---2---2---2---2--|
D|0-------0---0---0-------0------|--------0---0---0---0---0---0--|
A|-------------------------------|-------------------------------|
E|-------------------------------|-------------------------------|

e|------- ------- ------- -------|------- ------- ------- -------|
B|-------------------------------|-------------------------------|
G|2---------------2-------2------|----------------2--------------|
D|4---------------5-------4------|----------------5--------------|
A|5---------------5-------5------|----------------5--------------|
E|-------------------------------|-------------------------------|
      Try see it  my  way,            Do  have  keep on   talking
        to                              I     to


  C               D                                 Dsus4 D
e|3------ 3---3-- 2------ 2------|2------ 2---2-- 2-H-3-- 2---2--|
B|1-------1---1---3-------3------|3-------3---3---3-------3---3--|
G|0-------0---0---2-------2------|2-------2---2---2-------2---2--|
D|2-------2---2---0-------0------|0-------0---0---0-------0---0--|
A|3-------3---3------------------|-------------------------------|
E|-------------------------------|-------------------------------|

e|------- ------- ------- -------|------- ------- ------- -------|
B|-------------------------------|-------------------------------|
G|0---------------2--------------|----------------2-----2--------|
D|2---------------4--------------|----------------5-----4--------|
A|3---------------5--------------|----------------5-----5--------|
E|-------------------------------|-------------------------------|
  till    can't on?                   While   it  your
    I         go                        you           way
                                          see

                      Dsus4       C               D
e|2------ 2---2-- 2---3-- 3---3--|3------ 3---3-- 2------ 2------|
B|3-------3---3---3---3---3---3--|1-------1---1---3-------3----0-|
G|2-------2---2---2---2---2---2--|0-------0---0---2-------2----0-|
D|0-------0---0---0---0---0---0--|2-------2---2---0-------0----0-|
A|-------------------------------|3-------3---3------------------|
E|-------------------------------|-------------------------------|

e|------- ------- ------- -------|------- ------- ------- -------|
B|-------------------------------|-------------------------------|
G|----------------2--------------|0---------------2--------------|
D|----------------5--------------|2---------------4--------------|
A|----------------5--------------|3---------------5--------------|
E|-------------------------------|-------------------------------|
      run risk    knowing that    love    soon  gone
        the   of            our       may     be


  G               D               G               A
e|3---3-3 3---3-- 2---2-2 2-2-2--|3---3-3 3-----3 0-----0 0------|
B|0---0-0-0---0---3---3-3-3-3-3-0|3---3-3-3-----0-2-----2-2------|
G|0---0-0-0---0---2---2-2-2-2-2-0|0---0-0-0-----0-2-----2-2------|
D|0---0-0-0---0---0---0-0-0-0-0-0|0---0-0-0-----0-2-----2-2------|
A|2---2-2-2---2------------------|2---2-2-2-----2-0-----0-0------|
E|3---3-3-3---3------------------|3---3-3-3-----3----------------|

e|------- ------- ------- -------|------- ------- ------- -------|
B|-------------------------------|-------------------------------|
G|4---------------2--------------|4---------------6--------------|
D|5---------------4--------------|5---------------7--------------|
A|5---------------5--------------|5---------------7--------------|
E|-------------------------------|-------------------------------|
  We      work  out,              We      work  out
    can       it                    can       it


  D                 Dsus4 D                         Dsus4
e|2------ 2---2-- 2-H-3-- 2---2--|2------ ----2-- 2-H-3-- 3---3--|
B|3-------3---3---3-------3---3--|3-----------3---3---3---3---3--|
G|2-------2---2---2-------2---2--|2-----------2---2---2---2---2--|
D|0-------0---0---0-------0---0--|0-----------0---0---0---0---0--|
A|-------------------------------|-------------------------------|
E|-------------------------------|-------------------------------|

e|------- ------- ------- -------|------- ------- ------- -------|
B|-------------------------------|-------------------------------|
G|2---------------2-------2------|----------------2--------------|
D|4---------------5-------4------|----------------5--------------|
A|5---------------5-------5------|----------------5--------------|
E|-------------------------------|-------------------------------|
      Think   you're                  You get wrong   and still think
        of        saying                can it                you
          what

  C               D                                 Dsus4 D
e|3---3-- 3---3-- 2------ 2---2--|2------ 2---2-- 2-H-3-- 2---2--|
B|1---1---1---1---3-------3---3--|3-------3---3---3-------3---3--|
G|0---0---0---0---2-------2---2--|2-------2---2---2-------2---2--|
D|2---2---2---2---0-------0---0--|0-------0---0---0-------0---0--|
A|3---3---3---3------------------|-------------------------------|
E|-------------------------------|-------------------------------|

e|------- ------- ------- -------|------- ------- ------- -------|
B|-------------------------------|-------------------------------|
G|0---------------2--------------|----------------2-----2--------|
D|2---------------4--------------|----------------5-----4--------|
A|3---------------5--------------|----------------5-----5--------|
E|-------------------------------|-------------------------------|
      that    allright.               Think I'm   saying
        it's                            of
                                          what

                                  C               D
e|2------ 2---2-- 2---3-- 3---3--|3---3-- 3---3-- 2---2-- 2------|
B|3-------3---3---3---3---3---3--|1---1---1---1---3---3---3---0--|
G|2-------2---2---2---2---2---2--|0---0---0---0---2---2---2---0--|
D|0-------0---0---0---0---0---0--|2---2---2---2---0---0---0---0--|
A|-------------------------------|3---3---3---3------------------|
E|-------------------------------|-------------------------------|

e|------- ------- ------- -------|------- ------- ------- -------|
B|-------------------------------|-------------------------------|
G|----------------2--------------|0---------------2--------------|
D|----------------5--------------|2---------------4--------------|
A|----------------5--------------|3---------------5--------------|
E|-------------------------------|-------------------------------|
      We work it      and get   straight  say goodnight
        can     out         it        or


  G               D               G               A
e|3---3-- 3---3-- 2---2-- 2------|3---3-- 3---3-- 0------ --0-0--|
B|3---3---3---3---3---3---3---0--|3---3---3---0---2---------2-2--|
G|0---0---0---0---2---2---2---0--|0---0---0---0---2---------2-2--|
D|0---0---0---0---0---0---0---0--|0---0---0---0---2---------2-2--|
A|2---2---2---2------------------|2---2---2---2---0---------0-0--|
E|3---3---3---3------------------|3---3---3---3------------------|

e|------- ------- ------- -------|------- ------- ------- -------|
B|-------------------------------|-------------------------------|
G|4---------------2--------------|4---------------6--------------|
D|5---------------4--------------|5---------------7--------------|
A|5---------------5--------------|5---------------7--------------|
E|-------------------------------|-------------------------------|
  We      work  out,              We      work  out
    can       it                    can       it


  Bm
e|2---2-- 2------ 2---2-- 2---2--|2------ 2------ 2---2-- 2---2--|
B|3---3---3-------3---3---3---3--|3-------3-------3---3---3---3--|
G|4---4---4-------4---4---4---4--|4-------4-------4---4---4---4--|
D|4---4---4-------4---4---4---4--|4-------4-------4---4---4---4--|
A|2---2---2-------2---2---2---2--|2-------2-------2---2---2---2--|
E|-------------------------------|-------------------------------|

e|------- ------- ------- -------|------- ------- ------- -------|
B|-------------------------------|-------------------------------|
G|4------------------------------|----------------4--------------|
D|4------------------------------|----------------4--------------|
A|2------------------------------|----------------0--------------|
E|-------------------------------|-------------------------------|
  Life    is      very        short           and there's     time
                                                      no


  G                               F#
e|3------ 3------ 3---3-- 3---3--|2------ 2------ 2---2-- 2---2--|
B|3-------3-------3---3---3---3--|2-------2-------2---2---2---2--|
G|4-------4-------4---4---4---4--|3-------3-------3---3---3---3--|
D|5-------5-------5---5---5---5--|4-------4-------4---4---4---4--|
A|5-------5-------5---5---5---5--|4-------4-------4---4---4---4--|
E|3-------3-------3---3---3---3--|2-------2-------2---2---2---2--|

e|------- ------- ------- -------|------- ------- ------- -------|
B|-------------------------------|-------------------------------|
G|4------------------------------|4---------------3--------------|
D|4------------------------------|4---------------4--------------|
A|-------------------------------|-------------------------------|
E|3------------------------------|2---------------2--------------|
                                              for fussing     and


  Bm
e|------ 2----- 2-----|------ 2----- 2-----|------ 2----- 2-----|
B|-------3------3-----|-------3------3-----|-------3------3-----|
G|-------4------4-----|-------4------4-----|-------4------4-----|
D|-------4------4-----|-------4------4-----|-------4------4-----|
A|-------2------2-----|-------2------2-----|-------2------2-----|
E|--------------------|--------------------|--------------------|

e|------ ------ ------|------ ------ ------|------ ------ ------|
B|--------------------|--------------------|--------------------|
G|-------4------4-----|-------4------4-----|-------4------4-----|
D|-------4------4-----|-------4------4-----|-------4------4-----|
A|2-------------------|0-------------------|--------------------|
E|--------------------|--------------------|3-------------------|
  fighting,     my     friend

e|------ 2----- 2-----|2------ 2------ 2---2-- 2---2--|
B|-------3------3-----|3-------3-------3---3---3---3--|
G|-------4------4-----|4-------4-------4---4---4---4--|
D|-------4------4-----|4-------4-------4---4---4---4--|
A|-------2------2-----|2-------2-------2---2---2---2--|
E|--------------------|-------------------------------|

e|------ ------ ------|------- ------- ------- -------|
B|--------------------|-------------------------------|
G|-------4------4-----|4------------------------------|
D|-------4------4-----|4------------------------------|
A|--------------------|2------------------------------|
E|3-------------------|-------------------------------|
                       I       have    always      thought

                                  G                           F#
e|2------ 2------ 2---2-- 2---2--|3------ 3------ 3---3-- 3---2--|
B|3-------3-------3---3---3---3--|3-------3-------3---3---3---2--|
G|4-------4-------4---4---4---4--|4-------4-------4---4---4---3--|
D|4-------4-------4---4---4---4--|5-------5-------5---5---5---4--|
A|2-------2-------2---2---2---2--|5-------5-------5---5---5---4--|
E|-------------------------------|3-------3-------3---3---3---2--|

e|------- ------- ------- -------|------- ------- ------- -------|
B|-------------------------------|-------------------------------|
G|----------------4--------------|4------------------------------|
D|----------------4--------------|4------------------------------|
A|----------------0--------------|-------------------------------|
E|-------------------------------|3------------------------------|
              that    a       crime
                  it's

                                  Bm
e|2------ 2------ 2---2-- 2---2--|------ 2----- 2-----|
B|2-------2-------2---2---2---2--|-------3------3-----|
G|3-------3-------3---3---3---3--|-------4------4-----|
D|4-------4-------4---4---4---4--|-------4------4-----|
A|4-------4-------4---4---4---4--|-------2------2-----|
E|2-------2-------2---2---2---2--|--------------------|

e|------- ------- ------- -------|------ ------ ------|
B|-------------------------------|--------------------|
G|4---------------3--------------|-------4------4-----|
D|4---------------4--------------|-------4------4-----|
A|-------------------------------|2-------------------|
E|2---------------2--------------|--------------------|
              so  I       will    ask           you

e|------ 2----- 2-----|------ 2----- 2-----|------ 2----- 2-----|
B|-------3------3-----|-------3------3-----|-------3------3-----|
G|-------4------4-----|-------4------4-----|-------4------4-----|
D|-------4------4-----|-------4------4-----|-------4------4-----|
A|-------2------2-----|-------2------2-----|-------2------2-----|
E|--------------------|--------------------|--------------------|

e|------ ------ ------|------ ------ ------|------ ------ ------|
B|--------------------|--------------------|--------------------|
G|-------4------4-----|-------4------4-----|-------4------4-----|
D|-------4------4-----|-------4------4-----|-------4------4-----|
A|0-------------------|--------------------|--------------------|
E|--------------------|3-------------------|2-------------------|
  once          again.

  D                 Dsus4 D                         Dsus4
e|2------ 2---2-- 2-H-3-- 2------|2------ 2---2-- 2-H-3-- 3---3--|
B|3-------3---3---3-------3------|3-------3---3---3---3---3---3--|
G|2-------2---2---2-------2------|2-------2---2---2---2---2---2--|
D|0-------0---0---0-------0------|0-------0---0---0---0---0---0--|
A|-------------------------------|-------------------------------|
E|-------------------------------|-------------------------------|

e|------- ------- ------- -------|------- ------- ------- -------|
B|-------------------------------|-------------------------------|
G|2---------------2-------2------|----------------2--------------|
D|4---------------5-------4------|----------------5--------------|
A|5---------------5-------5------|----------------5--------------|
E|-------------------------------|-------------------------------|
      Try see it  my  way.            Only    will    If      am
        to                                time    tell  I


  C                 D                               Dsus4 D
e|3------ 3---3-- --2-2-- 2------|2------ 2---2-- 2-H-3-- 2------|
B|1-------1---1-----3-3---3------|3-------3---3---3-------3------|
G|0-------0---0-----2-2---2------|2-------2---2---2-------2------|
D|2-------2---2-----0-0---0------|0-------0---0---0-------0------|
A|3-------3---3------------------|-------------------------------|
E|-------------------------------|-------------------------------|

e|------- ------- ------- -------|------- ------- ------- -------|
B|-------------------------------|-------------------------------|
G|0---------------2--------------|----------------2-----2--------|
D|2---------------4--------------|----------------5-----4--------|
A|3---------------5--------------|----------------5-----5--------|
E|-------------------------------|-------------------------------|
  right   I   am  wrong.              While   it  your  way
      or                                you
                                          see

                    Dsus4         C               D
e|2------ 2---2-- 2-H-3-- 3---3--|3---3-- 3---3-- 2------ 2------|
B|3-------3---3---3-------3---3--|1---1---1---1---3-------3---0--|
G|2-------2---2---2-------2---2--|0---0---0---0---2-------2---0--|
D|0-------0---0---0-------0---0--|2---2---2---2---0-------0---0--|
A|-------------------------------|3---3---3---3------------------|
E|-------------------------------|-------------------------------|

e|------- ------- ------- -------|------- ------- ------- -------|
B|-------------------------------|-------------------------------|
G|----------------2--------------|0---------------2--------------|
D|----------------5--------------|2---------------4--------------|
A|----------------5--------------|3---------------5--------------|
E|-------------------------------|-------------------------------|
      there's that    may fall        before  too long.
        a chance  we          apart


  G               D               G               A
e|3---3-3 3-3-3-- 2---2-2 2-2-2--|3---3-3 3-3-3-- 0------ --0-0--|
B|0---0-0-0-0-0---3---3-3-3-3-3-0|3---3-3-3-3-3---2---------2-2--|
G|0---0-0-0-0-0---2---2-2-2-2-2-0|0---0-0-0-0-0---2---------2-2--|
D|0---0-0-0-0-0---0---0-0-0-0-0-0|0---0-0-0-0-0---2---------2-2--|
A|2---2-2-2-2-2------------------|2---2-2-2-2-2---0---------0-0--|
E|3---3-3-3-3-3------------------|3---3-3-3-3-3------------------|

e|------- ------- ------- -------|------- ------- ------- -------|
B|-------------------------------|-------------------------------|
G|4---------------2--------------|4---------------6--------------|
D|5---------------4--------------|5---------------7--------------|
A|5---------------5--------------|5---------------7--------------|
E|-------------------------------|-------------------------------|
  We      work  out,              We      work  out
    can       it                    can       it


  Bm
e|2------ --2-2-2 ------- --2-2-2|------- --2-2-- ------2 2-2-2--|
B|3---------3-3-3-----------3-3-3|----------3-3---------3-3-3-3--|
G|4---------4-4-4-----------4-4-4|----------4-4---------4-4-4-4--|
D|4---------4-4-4-----------4-4-4|----------4-4---------4-4-4-4--|
A|2---------2-2-2-----------2-2-2|----------2-2---------2-2-2-2--|
E|-------------------------------|-------------------------------|

e|------- ------- ------- -------|------- ------- ------- -------|
B|-------------------------------|-------------------------------|
G|4------------------------------|----------------4--------------|
D|4------------------------------|----------------4--------------|
A|2------------------------------|----------------0--------------|
E|-------------------------------|-------------------------------|
  Life    is      very        short           and there's     time
                                                      no


  G                               F#
e|3------ --3-3-- ------- --3-3--|2---2-- --2-2-2 ------2 2-2-2--|
B|3---------3-3-------------3-3--|2---2-----2-2-2-------2-2-2-2--|
G|4---------4-4-------------4-4--|3---3-----3-3-3-------3-3-3-3--|
D|5---------5-5-------------5-5--|4---4-----4-4-4-------4-4-4-4--|
A|5---------5-5-------------5-5--|4---4-----4-4-4-------4-4-4-4--|
E|3---------3-3-------------3-3--|2---2-----2-2-2-------2-2-2-2--|

e|------- ------- ------- -------|------- ------- ------- -------|
B|-------------------------------|-------------------------------|
G|4------------------------------|4---------------3--------------|
D|4------------------------------|4---------------4--------------|
A|-------------------------------|-------------------------------|
E|3------------------------------|2---------------2--------------|
                                              for fussing     and


  Bm
e|------ 2----- 2-----|------ 2----- 2-----|------ 2----- 2-----|
B|-------3------3-----|-------3------3-----|-------3------3-----|
G|-------4------4-----|-------4------4-----|-------4------4-----|
D|-------4------4-----|-------4------4-----|-------4------4-----|
A|-------2------2-----|-------2------2-----|-------2------2-----|
E|--------------------|--------------------|--------------------|

e|------ ------ ------|------ ------ ------|------ ------ ------|
B|--------------------|--------------------|--------------------|
G|-------4------4-----|-------4------4-----|-------4------4-----|
D|-------4------4-----|-------4------4-----|-------4------4-----|
A|2-------------------|0-------------------|--------------------|
E|--------------------|--------------------|3-------------------|
  fighting,     my     friend


e|------ 2----- 2-----|2-----2 2-2-2-- 2-----2 2-2-2--|
B|-------3------3-----|3-----3-3-3-3---3-----3-3-3-3--|
G|-------4------4-----|4-----4-4-4-4---4-----4-4-4-4--|
D|-------4------4-----|4-----4-4-4-4---4-----4-4-4-4--|
A|-------2------2-----|2-----2-2-2-2---2-----2-2-2-2--|
E|--------------------|-------------------------------|

e|------ ------ ------|------- ------- ------- -------|
B|--------------------|-------------------------------|
G|-------4------4-----|4------------------------------|
D|-------4------4-----|4------------------------------|
A|--------------------|2------------------------------|
E|3-------------------|-------------------------------|
                       I       have    always      thought

                                  G
e|2-----2 2-2-2-- 2-----2 2-2-2--|3-----3 3-3-3-- 3-----3 3-3-3--|
B|3-----3-3-3-3---3-----3-3-3-3--|3-----3-3-3-3---3-----3-3-3-3--|
G|4-----4-4-4-4---4-----4-4-4-4--|4-----4-4-4-4---4-----4-4-4-4--|
D|4-----4-4-4-4---4-----4-4-4-4--|5-----5-5-5-5---5-----5-5-5-5--|
A|2-----2-2-2-2---2-----2-2-2-2--|5-----5-5-5-5---5-----5-5-5-5--|
E|-------------------------------|3-----3-3-3-3---3-----3-3-3-3--|

e|------- ------- ------- -------|------- ------- ------- -------|
B|-------------------------------|-------------------------------|
G|----------------4--------------|4------------------------------|
D|----------------4--------------|4------------------------------|
A|----------------0--------------|-------------------------------|
E|-------------------------------|3------------------------------|
              that    a       crime
                  it's


  F#                              Bm
e|2---2-- --2-2-- 2-----2 2-2-2--|------ 2----- 2-----|
B|2---2-----2-2---2-----2-2-2-2--|-------3------3-----|
G|3---3-----3-3---3-----3-3-3-3--|-------4------4-----|
D|4---4-----4-4---4-----4-4-4-4--|-------4------4-----|
A|4---4-----4-4---4-----4-4-4-4--|-------2------2-----|
E|2---2-----2-2---2-----2-2-2-2--|--------------------|

e|------- ------- ------- -------|------ ------ ------|
B|-------------------------------|--------------------|
G|4---------------3--------------|-------4------4-----|
D|4---------------4--------------|-------4------4-----|
A|-------------------------------|2-------------------|
E|2---------------2--------------|--------------------|
              so  I       will    ask           you

e|------ 2----- 2-----|------ 2----- 2-----|------ 2----- 2-----|
B|-------3------3-----|-------3------3-----|-------3------3-----|
G|-------4------4-----|-------4------4-----|-------4------4-----|
D|-------4------4-----|-------4------4-----|-------4------4-----|
A|-------2------2-----|-------2------2-----|-------2------2-----|
E|--------------------|--------------------|--------------------|

e|------ ------ ------|------ ------ ------|------ ------ ------|
B|--------------------|--------------------|--------------------|
G|-------4------4-----|-------4------4-----|-------4------4-----|
D|-------4------4-----|-------4------4-----|-------4------4-----|
A|0-------------------|--------------------|--------------------|
E|--------------------|3-------------------|2-------------------|
  once          again.

  D                 Dsus4 D                         Dsus4
e|2------ 2------ 2-H-3-- 2---2--|2---2-- 2---2-- 2-H-3-- 3---3--|
B|3-------3-------3-------3---3--|3---3---3---3---3-------3---3--|
G|2-------2-------2-------2---2--|2---2---2---2---2-------2---2--|
D|0-------0-------0-------0---0--|0---0---0---0---0-------0---0--|
A|-------------------------------|-------------------------------|
E|-------------------------------|-------------------------------|

e|------- ------- ------- -------|------- ------- ------- -------|
B|-------------------------------|-------------------------------|
G|2---------------2-------2------|----------------2--------------|
D|4---------------5-------4------|----------------5--------------|
A|5---------------5-------5------|----------------5--------------|
E|-------------------------------|-------------------------------|
      Try see it  my  way.            Only    will    If      am
        to                                time    tell  I


  C               D                                 Dsus4 D
e|3------ 3---3-- 2---2-- 2------|2---2-- 2---2-- 2-H-3-- 2---2--|
B|1-------1---1---3---3---3------|3---3---3---3---3-------3---3--|
G|0-------0---0---2---2---2------|2---2---2---2---2-------2---2--|
D|2-------2---2---0---0---0------|0---0---0---0---0-------0---0--|
A|3-------3---3------------------|-------------------------------|
E|-------------------------------|-------------------------------|

e|------- ------- ------- -------|------- ------- ------- -------|
B|-------------------------------|-------------------------------|
G|0---------------2--------------|----------------2-----2--------|
D|2---------------4--------------|----------------5-----4--------|
A|3---------------5--------------|----------------5-----5--------|
E|-------------------------------|-------------------------------|
  right   I   am  wrong.              While   it  your  way
      or                                you
                                          see


                    Dsus4         C               D
e|2---2-2 2-2-2-- 2-H-3-- 3---3--|3---3-- 3---3-- 2------ 2------|
B|3---3-3-3-3-3---3-------3---3--|1---1---1---1---3-------3---0--|
G|2---2-2-2-2-2---2-------2---2--|0---0---0---0---2-------2---0--|
D|0---0-0-0-0-0---0-------0---0--|2---2---2---2---0-------0---0--|
A|-------------------------------|3---3---3---3------------------|
E|-------------------------------|-------------------------------|

e|------- ------- ------- -------|------- ------- ------- -------|
B|-------------------------------|-------------------------------|
G|----------------2--------------|0---------------2--------------|
D|----------------5--------------|2---------------4--------------|
A|----------------5--------------|3---------------5--------------|
E|-------------------------------|-------------------------------|
      there's that    may fall        before  too long.
        a chance  we          apart


  G               D               G               A
e|3---3-3 3-3-3-- 2---2-2 2-2-2--|3---3-3 3-----3 0-----0 0------|
B|0---0-0-0-0-0---3---3-3-3-3-3-0|3---3-3-3-----0-2-----2-2------|
G|0---0-0-0-0-0---2---2-2-2-2-2-0|0---0-0-0-----0-2-----2-2------|
D|0---0-0-0-0-0---0---0-0-0-0-0-0|0---0-0-0-----0-2-----2-2------|
A|2---2-2-2-2-2------------------|2---2-2-2-----2-0-----0-0------|
E|3---3-3-3-3-3------------------|3---3-3-3-----3----------------|

e|------- ------- ------- -------|------- ------- ------- -------|
B|-------------------------------|-------------------------------|
G|4---------------2--------------|4---------------6--------------|
D|5---------------4--------------|5---------------7--------------|
A|5---------------5--------------|5---------------7--------------|
E|-------------------------------|-------------------------------|
  We      work  out,              We      work  out
    can       it                    can       it


  D                                         (.
e|------ 2----- 2-----|------ 2----- 2-----|2----- ------ ------|
B|-------3------3-----|-------3------3-----|3-------------------|
G|-------2------2-----|-------2------2-----|2-------------------|
D|-------0------0-----|-------0------0-----|0-------------------|
A|--------------------|--------------------|--------------------|
E|--------------------|--------------------|--------------------|

e|------ ------ ------|------ ------ ------|5----- ------ ------|
B|--------------7-----|8------7--7---8-----|7-------------------|
G|-------7------7-----|7------7--7---7-----|7-------------------|
D|7------7------------|9------7------9-----|0-------------------|
A|9-------------------|--------------------|--------------------|
E|--------------------|--------------------|--------------------|


        B  Bend
        R  Release
        /  slide up
        \  slide down
        H  hammer-on
        P  pull-off
        ~  vibrato
        +  harmonic
        x  Mute note
        . - play note like a dot in standard notation
        ^ - ties two notes together
        (. Pause

  ----------------------------------------------------------------

   THE BEATLES - PAPERBACK WRITER (Lennon & McCartney) Released as
                 a single with RAIN as B side on 10th June 1966.

  ----------------------------------------------------------------

  Tabbed by:PJVillanueva

  Paperback writer, paperback writer.

  Dear Sir or Madam, will you read my book?
  It took me years to write, will you take a look?
  It's based on a novel by a man named Lear,
  And I need a job,
  So I want to be a paperback writer,
  Paperback writer.

  It's a dirty story of a dirty man,
  And his clinging wife doesn't understand.
  His son is working for the Daily Mail.
  It's a steady job,
  But he wants to be a paperback writer,
  Paperback writer.

  Paperback writer, paperback writer.

  It's a thousand pages, give or take a few.
  I'll be writing more in a week or two.
  I could make it longer if you like the style.
  I can change it 'round,
  And I want to be a paperback writer,
  Paperback writer.

  If you really like it you can have the rights.
  It could make a million for you overnight.
  If you must return it you can send it here,
  But I need a break,
  And I want to be a paperback writer,
  Paperback writer.
  Paperback writer, paperback writer.
  Paperback writer, paperback writer.
  Paperback writer, paperback writer.
  Paperback writer, paperback writer.
  Paperback writer...


  INTRO


e|------- ------- ------- -------|------- ------- ------- -------|
B|5-----------7---8--------------|-------------------------------|
G|5-----------7---9--------------|9---------------7--------------|
D|-------------------------------|-------------------------------|
A|-------------------------------|-------------------------------|
E|-------------------------------|-------------------------------|
  Pa..........per.back            wri.............ter      (1st & 2nd)
e|------- ------- ------- -------|------- ------- ------- -------|
B|-------------------------------|-------------------------------|
G|-------------------------------|-------------------------------|
D|-------------------------------|9-----------7---9--------------|
A|-------------------------------|-------------------------------|
E|-------------------------------|-------------------------------|
                                  Pa.........per..back     (3rd)

                                                               x

e|------- ------- ------- -------|------- ------- ------- -------|
B|-------------------------------|-------------------------------|
G|-------------------------------|-------------------------------|
D|-------------------------------|-------------------------------|
A|-------------------------------|-------------------------------|
E|-------------------------------|-------------------------------|
                                                           (1st & 2nd on)
e|7------ ----3-- 3------ -------|3------ ------- 0------ -------|
B|-------------------------------|-------------------------------|
G|5---------------5--------------|-------------------------------|
D|-------------------------------|-------------------------------|
A|-------------------------------|-------------------------------|
E|-------------------------------|-------------------------------|
  wri.............ter                                      (3rd on)
  Pa..........per.back            wri.............ter      (4th)



  X                       x       X  X    x       X  X    x
e|------- ------- ------- -------|------- ------- ------- -------|
B|-------------------------------|-------------------------------|
G|-------------------------------|-------------------------------|
D|------------5-----------3------|------------------------3------|
A|----3-H-5----------------------|----3-----------3-H-5----------|
E|3------------------3-----------|3-----------3------------------|


  X       x  X       X    x  X    X       x       X  X    x  X
e|------- ------- ------- -------|------- ------- ------- -------|
B|-------------------------------|-------------------------------|
G|-------------------------------|-------------------------------|
D|------------5-----------3------|------------------------3------|
A|----3-H-5----------------------|----3-----------3-H-5----------|
E|3------------------3-----------|3-----------3------------------|
                                                          Dear

  G5
e|------- ------- ------- -------|------- ------- ------- -------|
B|-------------------------------|-------------------------------|
G|-------------------------------|-------------------------------|
D|5-------5----------5-------5---|-------------------5----5------|
A|5-------5----------5----5--5---|5-------5----------5----5------|
E|3-------3----------3----7--3---|3-------3----------3----3------|

e|------- 3------ ------- ----3--|------- 3------ ------- -------|
B|--------3-------------------3--|--------3----------------------|
G|--------0-------------------0--|--------0----------------------|
D|-------------------------------|-------------------------------|
A|-------------------------------|-------------------------------|
E|-------------------------------|-------------------------------|
  Sir     or      Madam,  will    read    my  book?   It  took
                              you                             me

e|------- ------- ------- -------|------- ------- ------- -------|
B|-------------------------------|-------------------------------|
G|-------------------------------|-------------------------------|
D|5-------5----------5----5--5---|5-------5----------5-------5---|
A|5-------5----------5----5--5---|5-------5----------5----5--5---|
E|3-------3----------3----3--3---|3-------3----------3----7--3---|

e|------- 3------ ------- -------|------- 3------ 3------ -------|
B|--------3----------------------|--------3-------3--------------|
G|--------0----------------------|--------0-------0--------------|
D|-------------------------------|-------------------------------|
A|-------------------------------|-------------------------------|
E|-------------------------------|-------------------------------|
  years   to  write,      will    take    look?               It's
                              you     a

e|------- ------- ------- -------|------- ------- ------- -------|
B|-------------------------------|-------------------------------|
G|-------------------------------|-------------------------------|
D|--------5----------5----5--5---|5-------5----------5----5--5---|
A|5-------5----------5----5--5---|5-------5----------5----5--5---|
E|3-------3----------3----3--3---|3-------3----------3----3--3---|

e|------- 3------ ------- -------|------- 3------ 3------ -------|
B|--------3----------------------|--------3-------3--------------|
G|--------0----------------------|--------0-------0--------------|
D|-------------------------------|-------------------------------|
A|-------------------------------|-------------------------------|
E|-------------------------------|-------------------------------|
  based   on  a   novel   by  a   man     named   Lear,   And I


e|------- ------- ------- -------|------- ------- ------- -------|
B|-------------------------------|-------------------------------|
G|-------------------------------|-------------------------------|
D|5-------5----------5----5--5---|5-------5----------5----5--5---|
A|5-------5----------5----5--5---|5-------5----------5----5--5---|
E|3-------3----------3----3--3---|3-------3----------3----3--3---|

e|------- 3------ 3------ -------|------- 3------ 3------ -------|
B|--------3-------3--------------|--------3-------3--------------|
G|--------0-------0--------------|--------0-------0--------------|
D|-------------------------------|-------------------------------|
A|-------------------------------|-------------------------------|
E|-------------------------------|-------------------------------|
  need    a   job,        So  I   want    be  a   paperback
                                    to


  C5
e|------- ------- ------- -------|------- ------- ------- -------|
B|-------------------------------|-------------------------------|
G|-------------------5-------5---|-------------------------------|
D|5-------5----------5-------5---|5------------------------------|
A|3-------3----------3-------3---|3------------------------------|
E|-------------------------------|-------------------------------|

e|------- 3------ ------- -------|------- 3------ ------- -------|
B|--------5----------------------|--------5----------------------|
G|--------5----------------------|--------5----------------------|
D|-------------------------------|-------------------------------|
A|-------------------------------|-------------------------------|
E|-------------------------------|-------------------------------|
  writer,                                    Pa.......per.back
                                            (Pa.......per.back

e|------- ------- ------- -------|------- ------- ------- -------|
B|-------------------------------|-------------------------------|
G|-------------------------------|-------------------------------|
D|------------5-----------3------|------------------------3------|
A|----3-H-5----------------------|----3-----------3-H-5----------|
E|3------------------3-----------|3-----------3------------------|

e|3------ 3------ ------- -------|------- ------- ------- -------|
B|3-------3----------------------|-------------------------------|
G|0-------0----------------------|-------------------------------|
D|-------------------------------|-------------------------------|
A|-------------------------------|-------------------------------|
E|-------------------------------|-------------------------------|
  writer.                                                 It's
  writer)                                                     a

e|------- ------- ------- -------|------- ------- ------- -------|
B|-------------------------------|-------------------------------|
G|-------------------------------|-------------------------------|
D|--------5-------5--5----5--5---|--------5--5----5--5----5--5---|
A|5-------5-------5--5----5--5---|5-------5--5----5--5----5--5---|
E|3-------3-------3--3----3--3---|3-------3--3----3--3----3--3---|

e|------- 3------ ------- -------|------- 3------ 3------ -------|
B|--------3----------------------|--------3-------3-3------------|
G|--------0----------------------|--------0-------0--------------|
D|-------------------------------|-------------------------------|
A|-------------------------------|-------------------------------|
E|-------------------------------|-------------------------------|
  dirty       story       of  a   dirty       man,        and his

  G5
e|------- ------- ------- -------|------- ------- ------- -------|
B|-------------------------------|-------------------------------|
G|-------------------------------|-------------------------------|
D|--------5--5----5--5----5--5---|--------5-------5--5----5--5---|
A|5-------5--5----5--5----5--5---|5-------5-------5--5----5--5---|
E|3-------3--3----3--3----3--3---|3-------3-------3--3----3--3---|

e|------- 3------ ------- -------|------- 3------ 3------ -------|
B|--------3----------------------|--------3-------3--------------|
G|--------0----------------------|--------0-------0--------------|
D|-------------------------------|-------------------------------|
A|-------------------------------|-------------------------------|
E|-------------------------------|-------------------------------|
  clinging    wife        doesn't understand.                 His


e|------- ------- ------- -------|------- ------- ------- -------|
B|-------------------------------|-------------------------------|
G|-------------------------------|-------------------------------|
D|--------5-------5--5----5--5---|--------5-------5--5----5--5---|
A|5-------5-------5--5----5--5---|5-------5-------5--5----5--5---|
E|3-------3-------3--3----3--3---|3-------3-------3--3----3--3---|

e|------- 3------ ------- -------|------- 3------ 3------ -------|
B|--------3----------------------|--------3-------3--------------|
G|--------0----------------------|--------0-------0--------------|
D|-------------------------------|-------------------------------|
A|-------------------------------|-------------------------------|
E|-------------------------------|-------------------------------|
  son     is  working     for the Daily       Mail.       it's
                                                              a

e|------- ------- ------- -------|------- ------- ------- -------|
B|-------------------------------|-------------------------------|
G|-------------------------------|-------------------------------|
D|--------5-------5--5----5--5---|--------5-------5--5----5------|
A|5-------5-------5--5----5--5---|5-------5-------5--5----5------|
E|3-------3-------3--3----3--3---|3-------3-------3--3----3------|

e|------- 3------ ---3--- ----3--|------- 3------ 3------ -------|
B|--------3----------3--------3--|--------3-------3-3------------|
G|--------0----------0--------0--|--------0-------0--------------|
D|-------------------------------|-------------------------------|
A|-------------------------------|-------------------------------|
E|-------------------------------|-------------------------------|
  steady      job,        but he  wants   be  a   paperback
                                      to


  C5
e|------- ------- ------- -------|------- ------- ------- -------|
B|-------------------------------|-------------------------------|
G|-------------------5-------5---|--------5----------5----5------|
D|5-------5----------5-------5---|5-------5----------5----5------|
A|3-------3----------3-------3---|3-------3----------3----3------|
E|-------------------------------|-------------------------------|

e|------- 3------ ----3-- -------|------- 3------ ----3-- -------|
B|--------5-----------5----------|--------5-----------5----------|
G|--------5-----------5----------|--------5-----------5----------|
D|-------------------------------|-------------------------------|
A|-------------------------------|-------------------------------|
E|-------------------------------|-------------------------------|
  writer,                                    Pa.......per.back
                                            (Pa.......per.back

e|------- ------- ------- -------|------- ------- ------- -------|
B|-------------------------------|-------------------------------|
G|-------------------------------|-------------------------------|
D|------------5------------------|-------------------------------|
A|----3-H-5----------------------|-------------------------------|
E|3------------------------------|-------------------------------|

e|3------ 3------ ------- -------|------- ------- ------- -------|
B|3-------3----------------------|-------------------------------|
G|0-------0----------------------|-------------------------------|
D|-------------------------------|-------------------------------|
A|-------------------------------|-------------------------------|
E|-------------------------------|-------------------------------|
  writer.
  writer)


e|------- ------- ------- -------|------- ------- ------- -------|
B|5-----------7---8--------------|-------------------------------|
G|5-----------7---9--------------|9---------------7--------------|
D|-------------------------------|-------------------------------|
A|-------------------------------|-------------------------------|
E|-------------------------------|-------------------------------|

e|------- ------- ------- -------|------- ------- ------- -------|
B|-------------------------------|-------------------------------|
G|-------------------------------|-------------------------------|
D|-------------------------------|9-----------7---9--------------|
A|-------------------------------|-------------------------------|
E|-------------------------------|-------------------------------|
  Pa..........per.back            wri.............ter      (1st & 2nd)
                                  Pa.........per..back     (3rd)

                                                              x

e|------- ------- ------- -------|------- ------- ------- -------|
B|-------------------------------|-------------------------------|
G|-------------------------------|-------------------------------|
D|-------------------------------|-------------------------------|
A|-------------------------------|-------------------------------|
E|-------------------------------|-------------------------------|

e|7------ ----3-- 3------ -------|3------ ------- 0------ -------|
B|-------------------------------|-------------------------------|
G|5---------------5--------------|-------------------------------|
D|-------------------------------|-------------------------------|
A|-------------------------------|-------------------------------|
E|-------------------------------|-------------------------------|
                                                           (1st & 2nd on)
  wri.............ter                                      (3rd on)
  Pa..........per.back            wri.............ter      (4th)

                                                     x    x  x
  X       x  X            x       X  X    x       X  X    x
e|------- ------- ------- -------|------- ------- ------- -------|
B|-------------------------------|-------------------------------|
G|-------------------------------|-------------------------------|
D|------------5-----------3------|------------------------3------|
A|----3-H-5----------------------|----3-----------3-H-5----------|
E|3------------------3-----------|3-----------3------------------|


  X       x  X            x       X  X    x       X  X    x
e|------- ------- ------- -------|------- ------- ------- -------|
B|-------------------------------|-------------------------------|
G|-------------------------------|-------------------------------|
D|------------5-----------3------|------------------------3------|
A|----3-H-5----------------------|----3-----------3-H-5----------|
E|3------------------3-----------|3-----------3------------------|
                                                          It's
                                                              a


  G5
e|------- ------- ------- -------|------- ------- ------- -------|
B|-------------------------------|-------------------------------|
G|-------------------------------|-------------------------------|
D|5-------5----------------------|--------5----------5----5--5---|
A|5-------5-------5--5----7--5---|5-------5-------5--5----5--5---|
E|3-------3-------3--3----3--3---|3-------3-------3--3----3--3---|

e|3------ ------- ------- -------|5------ ------- ------- -------|2nd & 3rd
B|-------------------------------|-------------------------------|voices
G|4------------------------------|5------------------------------|
D|-------------------------------|-------------------------------|
A|-------------------------------|-------------------------------|
E|-------------------------------|-------------------------------|
 (Fre.............................re.............................
e|------- 3------ 3------ -------|------- 3------ ------- -------|
B|--------3-------3--------------|--------3----------------------|
G|--------0-------0--------------|--------0----------------------|
D|-------------------------------|-------------------------------|
A|-------------------------------|-------------------------------|
E|-------------------------------|-------------------------------|
  thousand    pages,      give    take    a   few.        I'll
                              or                              be

e|------- ------- ------- -------|------- ------- ------- -------|
B|-------------------------------|-------------------------------|
G|-------------------------------|-------------------------------|
D|--------5----------5----5--5---|--------5----------5----5--5---|
A|5-------5----------5----5--5---|5-------5----------5----5--5---|
E|3-------3----------3----3--3---|3-------3----------3----3--3---|

e|7------ ------- ------- -------|3------ ------- ------- -------|
B|-------------------------------|-------------------------------|
G|7------------------------------|4------------------------------|
D|-------------------------------|-------------------------------|
A|-------------------------------|-------------------------------|
E|-------------------------------|-------------------------------|
  Jac.............................ques...........................
e|------- 3------ ------- -------|------- 3------ ------- -------|
B|--------3----------------------|--------3----------------------|
G|--------0----------------------|--------0----------------------|
D|-------------------------------|-------------------------------|
A|-------------------------------|-------------------------------|
E|-------------------------------|-------------------------------|
  writing     more        in  a   week    two.            I   could
                                      or

e|------- ------- ------- -------|------- ------- ------- -------|
B|-------------------------------|-------------------------------|
G|-------------------------------|-------------------------------|
D|--------5-------5--5-------5---|--------5----------5-----------|
A|5-------5-------5--5-------5---|5-------5----------5-----------|
E|3-------3-------3--3-------3---|3-------3----------3-----------|

e|3------ ------- ------- -------|5------ ------- ------- -------|
B|-------------------------------|-------------------------------|
G|4------------------------------|5------------------------------|
D|-------------------------------|-------------------------------|
A|-------------------------------|-------------------------------|
E|-------------------------------|-------------------------------|
 (Fre.............................re.............................
e|------- 3------ ---3--- ---3---|------- 3------ ---3--- -------|
B|--------3----------3-------3---|--------3----------3-----------|
G|--------0----------0-------0---|--------0----------0-----------|
D|-------------------------------|-------------------------------|
A|-------------------------------|-------------------------------|
E|-------------------------------|-------------------------------|
   make   it  longer      if  you like    the style.      I   can


e|------- ------- ------- -------|------- ------- ------- -------|
B|-------------------------------|-------------------------------|
G|-------------------------------|-------------------------------|
D|--------5----------5-------5---|--------5--5----5--5----5------|
A|5-------5----------5-------5---|5-------5--5----5--5----5------|
E|3-------3----------3-------3---|3-------3--3----3--3----3------|

e|7------ ------- ------- -------|3------ ------- ------- -------|
B|-------------------------------|-------------------------------|
G|7------------------------------|4------------------------------|
D|-------------------------------|-------------------------------|
A|-------------------------------|-------------------------------|
E|-------------------------------|-------------------------------|
  Jac.............................ques...........................)
e|------- 3------ ---3--- -------|------- 3------ ------- -------|
B|--------3----------3-----------|--------3----------------------|
G|--------0----------0-----------|--------0----------------------|
D|-------------------------------|-------------------------------|
A|-------------------------------|-------------------------------|
E|-------------------------------|-------------------------------|
   change it 'round,      And I   want    be  a   paperback
                                      to


  C5
e|------- ------- ------- -------|------- ------- ------- -------|
B|-------------------------------|-------------------------------|
G|-------------------5-------5---|-------------------------------|
D|5-------5----------5-------5---|5-------5----------5----5------|
A|3-------3----------3-------3---|3-------3----------3----3------|
E|-------------------------------|-------------------------------|

e|------- 3------ ------- -------|------- 3------ ------- 3------|
B|--------5----------------------|--------5---------------5------|
G|--------5----------------------|--------5---------------5------|
D|-------------------------------|-------------------------------|
A|-------------------------------|-------------------------------|
E|-------------------------------|-------------------------------|
  writer,                                    Pa.......per.back
                                            (Pa.......per.back


  X       X                       x x x x x       x x x x x   X
e|------- ------- ------- -------|------- ------- ------- -------|
B|-------------------------------|-------------------------------|
G|-------------------------------|-------------------------------|
D|------------5-----------3------|-------------------------------|
A|----3-H-5----------------------|----3-----------3---3-H-5------|
E|3------------------3-----------|3-----------3------------------|

e|3------ 3------ ------- -------|------- ------- ------- -------|
B|3-------3----------------------|-------------------------------|
G|0-------0----------------------|-------------------------------|
D|-------------------------------|-------------------------------|
A|-------------------------------|-------------------------------|
E|-------------------------------|-------------------------------|
  writer.                                                  If you
  writer)

  G5
e|------- ------- ------- -------|------- ------- ------- -------|
B|-------------------------------|-------------------------------|
G|-------------------------------|-------------------------------|
D|5-------5----------------------|--------5-------5--5----5------|
A|5-------5-------5--5----7--5---|5-------5-------5--5----5------|
E|3-------3-------3--3----3--3---|3-------3-------3--3----3------|

e|7------ ------- ------- -------|8------ ------- ------- -------|2nd & 3rd
B|------------------------8------10------------------------------|voices
G|-------------------------------|-------------------------------|
D|-------------------------------|-------------------------------|
A|-------------------------------|-------------------------------|
E|-------------------------------|-------------------------------|
 (Fre.............................re.............................
e|------- 3------ ------- -------|------- 3------ --3---- -------|
B|--------3----------------------|--------3---------3------------|
G|--------0----------------------|--------0---------0------------|
D|-------------------------------|-------------------------------|
A|-------------------------------|-------------------------------|
E|-------------------------------|-------------------------------|
  really      like    it  you can have    the rights.     You could


e|------- ------- ------- -------|------- ------- ------- -------|
B|-------------------------------|-------------------------------|
G|-------------------------------|-------------------------------|
D|--------5----------5-------5---|--------5-------5--5----5------|
A|5-------5----------5-------5---|5-------5-------5--5----5------|
E|3-------3----------3-------3---|3-------3-------3--3----3------|

e|10----- ------- ------- -------|7------ ------- ------- -------|
B|12-----------------------------|8------------------------------|
G|-------------------------------|-------------------------------|
D|-------------------------------|-------------------------------|
A|-------------------------------|-------------------------------|
E|-------------------------------|-------------------------------|
  Jac.............................ques...........................)
e|------- 3------ --3---- -------|------- 3------ 3------ -------|
B|--------3---------3------------|--------3-------3-3------------|
G|--------0---------0------------|--------0-------0--------------|
D|-------------------------------|-------------------------------|
A|-------------------------------|-------------------------------|
E|-------------------------------|-------------------------------|
  make    a   million     for you overnight.              If  you


e|------- ------- ------- -------|------- ------- ------- -------|
B|-------------------------------|-------------------------------|
G|-------------------------------|-------------------------------|
D|-------------------5-------5---|--------5----------5-------5---|
A|5-------5----------5-------5---|5-------5----------5-------5---|
E|3-------3----------3-------3---|3-------3----------3-------3---|

e|7------ ------- ------- -------|8------ ------- ------- -------|
B|8------------------------------10------------------------------|
G|-------------------------------|-------------------------------|
D|-------------------------------|-------------------------------|
A|-------------------------------|-------------------------------|
E|-------------------------------|-------------------------------|
 (Fre.............................re.............................
e|------- 3------ --3---- -------|------- 3------ --3---- -------|
B|--------3---------3------------|--------3---------3------------|
G|--------0---------0------------|--------0---------0------------|
D|-------------------------------|-------------------------------|
A|-------------------------------|-------------------------------|
E|-------------------------------|-------------------------------|
   must   return      it  you can send    it  here,       But I


e|------- ------- ------- -------|------- ------- ------- -------|
B|-------------------------------|-------------------------------|
G|-------------------------------|-------------------------------|
D|--------5--5-------5-------5---|-------------------------------|
A|5-------5--5-------5-------5---|5-------5--5-------5-------5---|
E|3-------3--3-------3-------3---|3-------3--3-------3-------3---|

e|10----- ------- ------- -------|7------ ------- ------- -------|
B|12-----------------------------|8------------------------------|
G|-------------------------------|-------------------------------|
D|-------------------------------|-------------------------------|
A|-------------------------------|-------------------------------|
E|-------------------------------|-------------------------------|
  Jac.............................ques...........................)
e|------- 3--3--- ------- -------|------- 3------ ------- -------|
B|--------3--3-------------------|--------3----------------------|
G|--------0--0-------------------|--------0----------------------|
D|-------------------------------|-------------------------------|
A|-------------------------------|-------------------------------|
E|-------------------------------|-------------------------------|
  need    a   break,      And I   want    be  a   paperback
                                      to


  C5
e|------- ------- ------- -------|------- ------- ------- -------|
B|-------------------------------|-------------------------------|
G|-------------------5-------5---|--------5----------5----5------|
D|5-------5----------5-------5---|5-------5----------5----5------|
A|3-------3----------3-------3---|3-------3----------3----3------|
E|-------------------------------|-------------------------------|

e|------- 3------ ------- -------|------- 3------ --3---- -------|
B|--------5----------------------|--------5---------5------------|
G|--------5----------------------|--------5---------5------------|
D|-------------------------------|-------------------------------|
A|-------------------------------|-------------------------------|
E|-------------------------------|-------------------------------|
  writer,                                    Pa.......per.back
                                            (Pa.......per.back


  X       X
e|------- ------- ------- -------|------- ------- ------- -------|
B|-------------------------------|-------------------------------|
G|-------------------------------|-------------------------------|
D|------------5------------------|-------------------------------|
A|----3-H-5----------------------|-------------------------------|
E|3------------------------------|-------------------------------|

e|3------ 3------ ------- -------|------- ------- ------- -------|
B|3-------3----------------------|-------------------------------|
G|0-------0----------------------|-------------------------------|
D|-------------------------------|-------------------------------|
A|-------------------------------|-------------------------------|
E|-------------------------------|-------------------------------|
  writer.
  writer)


  VOICES


e|------- ------- ------- -------|------- ------- ------- -------|
B|5-----------7---8--------------|-------------------------------|
G|5-----------7---9--------------|9---------------7--------------|
D|-------------------------------|-------------------------------|
A|-------------------------------|-------------------------------|
E|-------------------------------|-------------------------------|

e|------- ------- ------- -------|------- ------- ------- -------|
B|-------------------------------|-------------------------------|
G|-------------------------------|-------------------------------|
D|-------------------------------|9-----------7---9--------------|
A|-------------------------------|-------------------------------|
E|-------------------------------|-------------------------------|
  Pa..........per.back            wri.............ter      (1st & 2nd)
                                  Pa.........per..back     (3rd)


                                                               x

e|------- ------- ------- -------|------- ------- ------- -------|
B|-------------------------------|-------------------------------|
G|-------------------------------|-------------------------------|
D|-------------------------------|-------------------------------|
A|-------------------------------|-------------------------------|
E|-------------------------------|-------------------------------|
                                                           (1st & 2nd on)
e|7------ ----3-- 3------ -------|3------ ------- 0------ -------|
B|-------------------------------|-------------------------------|
G|5---------------5--------------|-------------------------------|
D|-------------------------------|-------------------------------|
A|-------------------------------|-------------------------------|
E|-------------------------------|-------------------------------|
  wri.............ter                                      (3rd on)
  Pa..........per.back            wri.............ter      (4th)


  X       x   X           x       X   X   x       X   X   x
e|------- ------- ------- -------|------- ------- ------- -------|
B|-------------------------------|-------------------------------|
G|-------------------------------|-------------------------------|
D|------------5-----------3------|-------------------------------|
A|----3-H-5----------------------|----3-----------3---3-H-5------|
E|3------------------3-----------|3-----------3------------------|


   X       x   X           x       X   X   x       X   X   x
e|------- ------- ------- -------|------- ------- ------- -------|
B|-------------------------------|-------------------------------|
G|-------------------------------|-------------------------------|
D|------------5-----------3------|-------------------------------|
A|----3-H-5----------------------|----3-----------3---3-H-5------|
E|3------------------3-----------|3-----------3------------------|


  G5
e|------- ------- ------- -------|------- ------- ------- -------|
B|-------------------------------|-------------------------------|
G|-------------------------------|-------------------------------|
D|--------5----------5----5------|--------5----------5----5------|
A|5-------5----------5----5------|5-------5----------5----5------|
E|3-------3----------3----3------|3-------3----------3----3------|
  Pa.........per..back ...........wri................ter,
                                                 (Paper...back
e|7------ ---8--- 10----- -------|10----- ------- 7------ -------|1st & 2nd
B|8---------10----12-------------|12--------------8--------------|voices
G|-------------------------------|-------------------------------|
D|-------------------------------|-------------------------------|
A|-------------------------------|-------------------------------|
E|-------------------------------|-------------------------------|

e|------- ------- ------- -------|------- ------- ------- -------|3rd & 4Th
B|-------------------------------|-------------------------------|voices
G|-------------------------------|----------------7--7----7------|
D|-------------------------------|----------------9--9----9------|
A|-------------------------------|-------------------------------|
E|-------------------------------|-------------------------------|

e|------- 3------ ---3--- 3------|------- 3------ --3---- 3--3---|
B|--------3----------3----3------|--------3---------3-----3--3---|
G|--------0----------0----0------|--------0---------0-----0--0---|
D|-------------------------------|-------------------------------|
A|-------------------------------|-------------------------------|
E|-------------------------------|-------------------------------|


e|------- ------- ------- -------|------- ------- ------- -------|
B|-------------------------------|-------------------------------|
G|-------------------------------|-------------------------------|
D|--------5-------5--5----5--5---|5-------5------------------5---|
A|5-------5-------5--5----5--5---|5-------5----------5-------5---|
E|3-------3-------3--3----3--3---|3-------3-------3--3-------3---|

  writer.)
e|------- ------- ------- -------|------- ------- ------- -------|
B|-------------------------------|-------------------------------|
G|7-------7----------------------|-------------------------------|
D|9-------9----------------------|-------------------------------|
A|-------------------------------|-------------------------------|
E|-------------------------------|-------------------------------|

e|------- 3------ ------- 3------|------- 3------ 3------ ---3---|
B|--------3----------3----3--3---|--------3-------3--3-------3---|
G|--------0----------0----0--0---|--------0-------0--0-------0---|
D|-------------------------------|-------------------------------|
A|-------------------------------|-------------------------------|
E|-------------------------------|-------------------------------|


e|------- ------- ------- -------|------- ------- ------- -------|
B|-------------------------------|-------------------------------|
G|-------------------------------|-------------------------------|
D|--------5-------5--5----5--5---|--------5----------5----5--5---|
A|5-------5-------5--5----5--5---|5-------5----------5----5--5---|
E|3-------3-------3--3----3--3---|3-------3----------3----3--3---|
  Pa.........per..back ...........wri................ter,
                                                 (Paper...back
e|7------ ---8--- 10----- -------|10----- ------- 7------ -------|
B|8---------10----12-------------|12--------------8--------------|
G|-------------------------------|-------------------------------|
D|-------------------------------|-------------------------------|
A|-------------------------------|-------------------------------|
E|-------------------------------|-------------------------------|

e|------- ------- ------- -------|------- ------- ------- -------|
B|-------------------------------|-------------------------------|
G|-------------------------------|----------------7--7----7------|
D|-------------------------------|----------------9--9----9------|
A|-------------------------------|-------------------------------|
E|-------------------------------|-------------------------------|

e|------- 3------ 3--3--- ---3---|------- 3------ 3------ ---3---|
B|--------3-------3--3-------3---|--------3-------3--3-------3---|
G|--------0-------0--0-------0---|--------0-------0--0-------0---|
D|-------------------------------|-------------------------------|
A|-------------------------------|-------------------------------|
E|-------------------------------|-------------------------------|


e|------- ------- ------- -------|------- ------- ------- -------|
B|-------------------------------|-------------------------------|
G|-------------------------------|-------------------------------|
D|-------------------5-------5---|-------------------5-------5---|
A|5-------5----------5-------5---|5-------5-------5--5-------5---|
E|3-------3----------3-------3---|3-------3-------3--3-------3---|

  writer)
e|------- ------- ------- -------|------- ------- ------- -------|
B|-------------------------------|-------------------------------|
G|7-------7----------------------|-------------------------------|
D|9-------9----------------------|-------------------------------|
A|-------------------------------|-------------------------------|
E|-------------------------------|-------------------------------|

e|------- 3------ 3--3--- ---3---|------- 3------ 3------ ---3---|
B|--------3-------3--3-------3---|--------3-------3--3-------3---|
G|--------0-------0--0-------0---|--------0-------0--0-------0---|
D|-------------------------------|-------------------------------|
A|-------------------------------|-------------------------------|
E|-------------------------------|-------------------------------|


e|------- ------- ------- -------|------- ------- ------- -------|
B|-------------------------------|-------------------------------|
G|-------------------------------|-------------------------------|
D|-------------------5-------5---|-------------------5----5--5---|
A|5-------5-------5--5-------5---|5-------5-------5--5----5--5---|
E|3-------3-------3--3-------3---|3-------3-------3--3----3--3---|
  Pa.........per..back ...........wri................ter,
                                                 (Paper...back
e|7------ ---8--- 10----- -------|10----- ------- 7------ -------|
B|8---------10----12-------------|12--------------8--------------|
G|-------------------------------|-------------------------------|
D|-------------------------------|-------------------------------|
A|-------------------------------|-------------------------------|
E|-------------------------------|-------------------------------|

e|------- ------- ------- -------|------- ------- ------- -------|
B|-------------------------------|-------------------------------|
G|-------------------------------|----------------7--7----7------|
D|-------------------------------|----------------9--9----9------|
A|-------------------------------|-------------------------------|
E|-------------------------------|-------------------------------|

e|------- 15----- 15--10- ---10--|------- 15----- 15--10- ---10--|
B|--------12------12--12-----12--|--------12------12--12-----12--|
G|--------12------12--12-----12--|--------12------12--12-----12--|
D|-------------------------------|-------------------------------|
A|-------------------------------|-------------------------------|
E|-------------------------------|-------------------------------|


e|------- ------- ------- -------|------- ------- ------- -------|
B|-------------------------------|-------------------------------|
G|-------------------------------|-------------------------------|
D|5-------5----------5-------5---|5-------5----------5-------5---|
A|5-------5----------5-------5---|5-------5----------5-------5---|
E|3-------3----------3-------3---|3-------3----------3-------3---|

  writer)
e|------- ------- ------- -------|------- ------- ------- -------|
B|-------------------------------|-------------------------------|
G|7-------7----------------------|-------------------------------|
D|9-------9----------------------|-------------------------------|
A|-------------------------------|-------------------------------|
E|-------------------------------|-------------------------------|

e|------- 15----- 15--10- ---10--|------- 15----- 15--10- ---10--|
B|--------12------12--12-----12--|--------12------12--12-----12--|
G|--------12------12--12-----12--|--------12------12--12-----12--|
D|-------------------------------|-------------------------------|
A|-------------------------------|-------------------------------|
E|-------------------------------|-------------------------------|
  .............................Fade..............................


e|------- ------- ------- -------|------- ------- ------- -------|
B|-------------------------------|-------------------------------|
G|-------------------------------|-------------------------------|
D|-------------------5-------5---|-------------------5-------5---|
A|5-------5----------5-------5---|5-------5----------5-------5---|
E|3-------3----------3-------3---|3-------3----------3-------3---|
  Pa.........per..back ...........wri................ter,
                                                 (Paper...back
e|7------ ---8--- 10----- -------|10-12-- --10--- 7------ -------|
B|8---------10----12-------------|12-14-----12----8--------------|
G|-------------------------------|-------------------------------|
D|-------------------------------|-------------------------------|
A|-------------------------------|-------------------------------|
E|-------------------------------|-------------------------------|

e|------- ------- ------- -------|------- ------- ------- -------|
B|-------------------------------|-------------------------------|
G|-------------------------------|----------------7--7----7------|
D|-------------------------------|----------------9--9----9------|
A|-------------------------------|-------------------------------|
E|-------------------------------|-------------------------------|

e|------- 15----- 15--10- ---10--|------- 15----- 15--10- ---10--|
B|--------12------12--12-----12--|--------12------12--12-----12--|
G|--------12------12--12-----12--|--------12------12--12-----12--|
D|-------------------------------|-------------------------------|
A|-------------------------------|-------------------------------|
E|-------------------------------|-------------------------------|
  ...............................................................


e|------- ------- ------- -------|------- ------- ------- -------|
B|-------------------------------|-------------------------------|
G|-------------------------------|-------------------------------|
D|-------------------5----5--5---|5-------5----------5-------5---|
A|5-------5----------5----5--5---|5-------5----------5-------5---|
E|3-------3----------3----3--3---|3-------3----------3-------3---|

  writer)
e|------- ------- ------- -------|------- ------- ------- -------|
B|-------------------------------|-------------------------------|
G|7-------7----------------------|-------------------------------|
D|9-------9----------------------|-------------------------------|
A|-------------------------------|-------------------------------|
E|-------------------------------|-------------------------------|

e|------- 15----- 15--10- ---10--|------- 15----- 15--10- ---10--|
B|--------12------12--12-----12--|--------12------12--12-----12--|
G|--------12------12--12-----12--|--------12------12--12-----12--|
D|-------------------------------|-------------------------------|
A|-------------------------------|-------------------------------|
E|-------------------------------|-------------------------------|
  ...............................................................

        B  Bend
        R  Release
        /  Slide up
        \  Slide down
        H  Hammer-on
        P  Pull-off
        ~  Vibrato
        +  Harmonic
        x  Mute note
        .  Play note like a dot in standard notation
        ^  Ties two notes together
        (. Pause

  --------------------------------------------------------------

  THE BEATLES - RAIN (Lennon & McCartney) Released as the B side
                of PAPERBACK WRITER single on 10th June 1966.

  --------------------------------------------------------------

  Tabbed by:PJVillanueva


  If the rain comes they run and hide their heads.
  They might as well be dead.
  If the rain comes, if the rain comes.

  When the sun shines they slip into the shade
 (When the sun shines down.)
  And sip their lemonade.
 (When the sun shines down.)
  When the sun shines, when the sun shines.

  Rain, I don't mind.
  Shine, the weather's fine.

  I can show you that when it starts to rain,
 (When the Rain comes down.)
  Everything's the same.
 (When the Rain comes down.)
  I can show you, I can show you.
 (Show you)

  Rain, I don't mind.
  Shine, the weather's fine.

  Can you hear me, that when it rains and shines,
 (When it Rains and shines.)
  It's just a state of mind?
 (When it rains and shines.)
  Can you hear me, can you hear me?
 (Hear me)

  sdaeh rieht edih dna nur yeht semoc niar eht fI.
 (Rain)
  naiR.
 (Rain)
  enihsnuS.


                                                x x       x x x
e|------- ------- ------- -------|------- ------- ------- -------|
B|-------------------------------|-------------------------------|
G|-------------------------------|-------------------------------|
D|-------------------------------|-------------------------------|
A|-------------------------------|-------------------------------|
E|-------------------------------|-------------------------------|

  G
e|------- ------- ------- -------|------- ------- ------- -------|
B|--------0---1-------0-------3--|--------1---0---------------0--|
G|0-------0---------------0------|0---0---------------0----------|
D|0-------0----------------------|0-------------------0----------|
A|2-------2----------------------|2-------------------2----------|
E|3-------3----------------------|3-------------------3----------|


                                 (.

e|------- ------- ------- -------|------- ------- ------- -------|
B|--------0---1-------0----------|-------------------------------|
G|0-------0----------------------|0------------------------------|
D|0-------0----------------------|0------------------------------|
A|2-------2----------------------|2------------------------------|
E|3-------3----------------------|3------------------------------|
                                                          If  the


                                  Csus2
e|------- ------- ------- -------|------- ------- ------- -------|
B|0-------0---1-------0-------0--|1-------1-------3-------1---0--|
G|0-------0---------------0------|--------0---0------------------|
D|0-------0---------------0------|--------0---0------------------|
A|2-------2---------------2------|--------3---3------------------|
E|3-------3---------------3------|-------------------------------|
   rain           comes       they        and     hide
                                  run                 their

  G                           Csus2
e|------- ------- ------- -------|------- ------- ------- -------|
B|--------0-------0-------0---1--|--------1---3-----------1------|
G|0------0-------0--------0---0--|----0---0---0-----------0------|
D|0-----0-------0---------0---0--|--------0---0-----------0------|
A|2----2-------2----------2---3--|--------3---3-----------3------|
E|3---3-------3-----------3------|-------------------------------|
  heads                       They might  as      well        be


                                                  x x x x x   X X
  G                               Csus2
e|------- ------- ------- -------|------- ------- ------- -------|
B|0-----------0-----------0------|1-----------1-------1---1------|
G|0-------0-----------0---0------|0-----------0-------0---0------|
D|0-------0-----------0---0------|0-----------0-------0---0------|
A|2-------2-----------2---2------|3-----------3-------3---3------|
E|3-------3-----------3---3------|-------------------------------|
      dead                If  the rain                comes


  X X X   x x x x x   x   x   x
                                  G
e|------- ------- ------- -------|------- ------- ------- -------|
B|----1-------1---1-------1------|0-------0---0-------0---0---0--|
G|----0-------0---0-------0------|0-------0---0-------0---0---0--|
D|----0-------0---0-------0------|0-------0---0-------0---0---0--|
A|----3-------3---3-------3------|2-------2---2-------2---2---2--|
E|-------------------------------|3-------3---3-------3---3---3--|
                          If  the rain


                  x x x x X X X

e|------- ------- ------- ---------|
B|----0-------0-------0------------|
G|----0-------0-------0----------0-|
D|----0-------0-------0---------0--|
A|----2-------2-------2--------2---|
E|----3-------3-------3-------3----|
      comes               When
                              the


                                  Csus2
e|------- ------- ------- -------|------- ------- ------- -------|
B|0-------0-------0-------0---0--|1-------1-------3-------1------|
G|--------0-------0-------0---0--|0-------0-------0-------0------|
D|--------0-------0-------0---0--|0-------0-------0-------0------|
A|--------2-------2-------2---2--|3-------3-------3-------3------|
E|--------3-------3-------3---3--|-------------------------------|
  sun             shines      they sleep  into            the shade


                                                  x x x x X X X
  G                               Csus2
e|------- ------- ------- -------|------- ------- ------- -------|
B|0-------0---0-------0---0---0--|1-------1-------3-------1------|
G|0-------0---0-------0---0---0--|0-------0-------0-------0------|
D|0-------0---0-------0---0---0--|0-------0-------0-------0------|
A|2-------2---2-------2---2---2--|3-------3-------3-------3------|
E|3-------3---3-------3---3---3--|-------------------------------|
                              and sip     their   lemonade
         (When     sun    shines  down.)
              the

                                                  x x x x x   X X
  G                               Csus2
e|------- ------- ------- -------|------- ------- ------- -------|
B|0-------0---0-------0---0------|1-------1-----------1----------|
G|0-------0---0-------0---0------|0-------0-----------0-------0--|
D|0-------0---0-------0---0------|0-------0-----------0-------0--|
A|2-------2---2-------2---2------|3-------3-----------3-------3--|
E|3-------3---3-------3---3------|-------------------------------|
                          When    sun         shines
                              the
         (When    sun    shines  down.)
              the


  X X X   x x x x x   x   x x x x x x x x X X X
                                  G
e|------- ------- ------- -------|------- -------|
B|----1---------------1----------|0-------0------|
G|----0-------0-------0---0------|0-------0------|
D|----0-------0-------0---0------|0-------0------|
A|----3-------3-------3---3------|2-------2------|
E|-------------------------------|3-------3------|
                          When    sun
                              the

e|------- ------- ------- -------|------- ------- ------- -------|
B|0-------0---0-------0-------0--|0-------0-----------0----------|
G|0-------0---0-------0-------0--|0-------0-----------0---0------|
D|0-------0---0-------0-------0--|0-------0-----------0---0------|
A|2-------2---2-------2-------2--|2-------2-----------2----------|
E|3-------3---3-------3-------3--|3-------3-----------3----------|
                  shines

e|------- ------- ------- -------|------- ------- ------- -------|
B|0---------------0--------------|0---------------0--------------|
G|0---------------0--------------|0---------------0--------------|
D|0---------------0--------------|0---------------0--------------|
A|2---------------2--------------|2---------------2--------------|
E|3---------------3--------------|3---------------3--------------|
  Rain


  Csus2
e|------- ------- ------- -------|------- ------- ------- -------|
B|3---------------3--------------|3-------3---------------3------|
G|0---------------0--------------|0-----------0---0-------0------|
D|0---------------0--------------|0---------------0--------------|
A|3---------------3--------------|3---------------3--------------|
E|3---------------3--------------|3------------------------------|
                                                  I   don't   mind


  G
e|------- ------- ------- -------|------- ------- ------- -------|
B|0-------0---------------0---1--|--------0---------------0------|
G|0-------0-----------0---0---0--|----0---0-------0-------0------|
D|0-------0-----------0---0---0--|----0---0-------0-------0------|
A|2-------2-----------2---2---2--|----2---2-------2-------2------|
E|3-------3-----------3---3---3--|----3---3-------3-------3------|


e|------- ------- ------- -------|------- ------- ------- -------|
B|0---------------0--------------|0---------------0--------------|
G|0---------------0--------------|0---------------0--------------|
D|0---------------0--------------|0---------------0--------------|
A|2---------------2--------------|2---------------2--------------|
E|3---------------3--------------|3---------------3--------------|
  Shine


  Csus2
e|------- ------- ------- -------|------- ------- ------- -------|
B|3---------------3--------------|3---3-----------3---3----------|
G|0---------------0--------------|0---0-----------0---0----------|
D|0---------------0--------------|0---------------0--------------|
A|3---------------3--------------|3---------------3--------------|
E|3---------------3--------------|3---------------3--------------|
                                              the weather's   fine.


  G
e|------- ------- ------- -------|------- ------- ------- -------|
B|0-------0-------1---0-------0--|------------3-----------1---0--|
G|0-------0-------0---0---0---0--|----0-------0-------0---0---0--|
D|0-------0-------0---0---0---0--|----0-------0-------0---0---0--|
A|2-------2-------2-------2------|----2-------2-------2---2------|
E|3-------3-------3-------3------|----3-------3-------3---3------|
                                                          I   can


                              Csus2               D7sus4  Csus2
e|------- ------- ------- -------|------- ------- ------- -------|
B|0-------0-------1---0-------1--|--------1-------3-------1------|
G|0-------0-------0---0---0---0--|--------0-------0-------0------|
D|0-------0-------0---0---0---0--|--------0-------0-------0------|
A|2-------2-------2-------2---3--|--------3-------3-------3------|
E|3-------3-------3-------3------|-------------------------------|
  show            you         that        it      starts      to
                                  when


  G                           Csus2               D7sus4      G
e|------- ------- ------- -------|------- ------- ------- -------|
B|0-------0-----------0---0---1--|--------1---1---3-----------0--|
G|0-------0-----------0---0---0--|--------0---0---0-----------0--|
D|0-------0-----------0---0---0--|--------0---0---0-----------0--|
A|2-------2-----------2---2---3--|--------3---3---3-----------2--|
E|3-------3-----------3---3------|----------------------------3--|
  rain                            Everything's                the
         (When    rain    comes   down)

              the
                                  Csus2
e|------- ------- ------- -------|------- ------- ------- -------|
B|--------0-----------0-------0--|1-------1---------------3---1--|
G|--------0-----------0-------0--|0-------0-----------0-------0--|
D|--------0-----------0-------0--|0-------0-------------------0--|
A|--------2-----------2-------2--|3-------3-------------------3--|
E|--------3-----------3-------3--|-------------------------------|
  same.                   I   can show            you
         (When    rain    comes   down)
              the

                          D7sus4  G
e|------- ------- ------- -------|------- ------- ------- -------|
B|--------3-------1-------3------|0-------0-----------0----------|
G|----0-------0---0---0---0------|0-------0-----------0----------|
D|----------------0-------0------|0-------0-----------0----------|
A|----------------3-------3------|2-------2-----------2----------|
E|-------------------------------|3-------3-----------3----------|
                          I   can show
                                 (Show

e|------- ------- ------- -------|
B|0-------0---0-------0---0------|
G|0-------0---0-------0---0------|
D|0-------0---0-------0---0------|
A|2-------2---2-------2---2------|
E|3-------3---3-------3---3------|
  you
  you)

e|------- ------- ------- -------|------- ------- ------- -------|
B|0---------------0--------------|0---------------0--------------|
G|0---------------0--------------|0---------------0--------------|
D|0---------------0--------------|0---------------0--------------|
A|2---------------2--------------|2---------------2--------------|
E|3---------------3--------------|3---------------3--------------|
  Rain


  Csus2
e|------- ------- ------- -------|------- ------- ------- -------|
B|3---------------3--------------|3-------3-------3-------3------|
G|0---------------0--------------|0---------------0--------------|
D|0---------------0--------------|0---------------0--------------|
A|3---------------3--------------|3---------------3--------------|
E|3---------------3--------------|3---------------3--------------|
                                                  I   don't   mind


  G             Gsus4 G
e|------- ------- ------- -------|------- ------- ------- -------|
B|0-------0-------1-P-0----------|0-------3-------1-P-0----------|
G|0-------0-------0-------0------0----0---0-------0-------0------|
D|0-------0-------0-------0-----0|--------0-------0-------0------|
A|2-------2-------2-------2----2-|--------2---------------2------|
E|3-------3-------3-------3---3--|--------3---------------3------|


e|------- ------- ------- -------|------- ------- ------- -------|
B|0---------------0--------------|0---------------0--------------|
G|0---------------0--------------|0---------------0--------------|
D|0---------------0--------------|0---------------0--------------|
A|2---------------2--------------|2---------------2--------------|
E|3---------------3--------------|3---------------3--------------|
  Shine


  Csus2
e|------- ------- ------- -------|------- ------- ------- -------|
B|3---------------3--------------|3---3-----------3---3----------|
G|0---------------0--------------|0---0-----------0---0----------|
D|0---------------0--------------|0---------------0--------------|
A|3---------------3--------------|3---------------3--------------|
E|3---------------3--------------|3------------------------------|
                                              the weather's   fine.


  G             Gsus4 G                   Gsus4   G
e|------- ------- ------- -------|------- ------- ------- -------|
B|0-------0-------1---0-------3--|--------1-------0--------------|
G|0-------0-------0---0---0------|----0---0-------0-------0------|
D|0-------0-------0---0---0------|----0---0-------0-------0------|
A|2-------2-------2-------2------|----2---2-------2-------2------|
E|3-------3-------3-------3------|----3---3-------3-------3------|
                                                           Can you


                  Gsus4   G       D7sus4  Csus2   Cmaj9   Csus2
e|------- ------- ------- -------|------- ----0-- ------- -------|
B|0-------0-------1---0---3------|3-------1-------0-------1------|
G|0-------0-------0-------0------|0-------0-------0-------0------|
D|0-------0-------0-------0------|0-------0-------0-------0------|
A|2-------2-------2-------2------|3-------3-------3-------3------|
E|3-------3-------3-------3------|-------------------------------|
  hear            me          that when   it      rains   and


  G                           Csus2               Cmaj9   Csus2
e|------- ------- ------- -------|------- ------- ------- -------|
B|0-------0-------0-------0---1--|----0-----------0-------1------|
G|0-------0-------0-------0---0--|----0-------0---0-------0------|
D|0-------0-------0-------0---0--|----0-----------0-------0------|
A|2-------2-------2-------2---3--|----------------3-------3------|
E|3-------3-------3-------3------|-------------------------------|
    shines                    It's        a       state   of
                                  just
         (When    rains   and     shines.)
              it

  G               Gsus4   G    Csus2             D7sus4 Csus2 D7sus4
e|------- ------- ------- -------|------- ------- ------- -------|
B|0-------0-------1-P-0---0------|1-------1-------3-------1---3--|
G|0-------0-------0-------0------0--------0-------0-------0---0--|
D|0-------0-------0-------0-----0|--------0-------0-------0---0--|
A|2-------2-------2-------2----3-|--------3-------3-------3---3--|
E|3-------3-------3-------3------|-------------------------------|
  mind?                   Can you hear               me,
         (When    rains   and     shines.)
              it

   Csus2 D7sus4 Csus2 D7sus4      G
e|------- ------- ------- -------|------- ------- ------- -------|
B|----1---3-------1---3----------|0-------0-----------0---0------|
G|----0---0-------0---0----------|0-------0-----------0---0------|
D|----0---0-------0---0----------|0-------0-----------0---0------|
A|----3---3-------3---3----------|2-------2-----------2---2------|
E|-------------------------------|3-------3-----------3---3------|
                          can you hear
                                 (Hear

                                  X   X   x x x   X

e|------- ------- ------- -------|------- ------- ------- -------|
B|0---0---0---0---3-------0------|3------------------------------|
G|0---0---0---0---0-------0------0-------------------------------|
D|0---0---0---0---0-------0-----0|-------------------------------|
A|2---2---2---2---2-------2----2-|-------------------------------|
E|3---3---3---3---3-------3---3--|-------------------------------|
      me?
      me?)

                  x x     x x     x               x x x x X X X

e|------- ------- ------- -------|------- ------- ------- -------|
B|-------------------------------|-------------------------------|
G|-------------------------------|-------------------------------|
D|-------------------------------|-------------------------------|
A|-------------------------------|-------------------------------|
E|-------------------------------|-------------------------------|

                                              Gsus4   G
e|------- ------- ------- -------|------- ------- ------- -------|
B|-------------------------------|----0-------1-------0----------|
G|----------------------------0--|----0-------0-------0---0------|
D|0-------0-------0---0---0---0--|----0-------0-------0---0------|
A|2-------2-------2---2---2---2--|----2-------2-------2---2------|
E|3-------3-------3---3---3---3--|----3-------3-------3---3------|

                                              Gsus4   G
e|------- ------- ------- -------|------- ------- ------- -------|
B|----------------------------0--|----0-------1-------0----------|
G|------------------------0---0--|----0-------0-------0----------|
D|--------------------0---0---0--|----0-------0-------0----------|
A|2-------2-------2---2---2---2--|----2-------2-------2----------|
E|3-------3-------3---3---3---3--|----3-------3-------3----------|
     sdaeh    rieht   edih    dna nur yeht            semoc   niar


                                              Gsus4   G
e|------- ------- ------- -------|------- ------- ------- -------|
B|-------------------------------|----0-------1-------0----------|
G|----------------------------0--|----0-------0-------0---0------|
D|0-------0-------0---0---0---0--|----0-------0-------0---0------|
A|2-------2-------2---2---2---2--|----2-------2-------2---2------|
E|3-------3-------3---3---3---3--|----3-------3-------3---3------|
          eht fI.
         (Rain)

                                      Gsus4   G
e|------- ------- ------- -------|------- ------- ------- -------|
B|----------------------------0--|----1-------0------------------|
G|------------------------0---0--|----0-------0-------0----------|
D|--------------------0---0---0--|----0-------0-------0----------|
A|2-------2-------2---2---2---2--|----2-------2-------2----------|
E|3-------3-------3---3---3---3--|----3-------3-------3--3-------|
                     naiR.


                                      Gsus4   G     Gsus4 G
e|------- ------- ------- -------|------- ------- ------- -------|
B|----------------------------0--|----1-------3-------1---0------|
G|------------------------0---0--|----0-------0-------0---0------|
D|0-------0-------0---0---0---0--|----0-------0-------0---0------|
A|2-------2-------2---2---2---2--|----2-------2-------2---2------|
E|3-------3-------3---3---3---3--|----3-------3-------3---3------|

         (Rain)
............................ Fade out ...........................

                              Gsus4           G     Gsus4 G
e|------- ------- ------- -------|------- ------- ------- -------|
B|--------------------0-------1--|------------3-------1---0------|
G|0-------0-----------0-------0--|------------0-------0---0------|
D|0-------0-----------0-------0--|------------0-------0---0------|
A|2-------2-----------2-------2--|------------2-------2---2------|
E|3-------3-----------3-------3--|------------3-------3---3------|
                      enihsnuS
  ...............................................

        B  Bend
        R  Release
        /  slide up
        \  slide down
        H  hammer-on
        P  pull-off
        ~  vibrato
        +  harmonic
        x  Mute note
        . - play note like a dot in standard notation
        ^ - ties two notes together
        (.  Pause

  --------------------------------------------------------------

  THE BEATLES - LADY MADONNA (Lennon & McCartney). Released as a
                single with THE INNER LIGHT as flip side side on
                15th March 1968.

  --------------------------------------------------------------

  Tabbed by:PJVillanueva


  Lady Madonna, children at your feet
  Wonder how you manage to make ends meet

  Who finds the money when you pay the rent
  Did you think that money was heaven sent

  Friday night arrives without a suitcase
  Sunday morning creeping like a nun
  Monday's child has learned to tie his bootlegs
  See how they run

  Lady Madonna, baby at your breast
  Wonders how you manage to feed the rest

  Pa pa pa pa ...
  See how they run

  Lady Madonna lying on the bed
  Listen to the music playing in your head

  Tuesday afternoon is never ending
  Wednesday morning papers didn't come

  Thursday night you stocking needed mending
  See how they run

  Lady Madonna, children at your feet
  Wonder how you manage to make ends meet

 A                D               A               D
e|------- ------- ------- -------|------- ------- ------- -------|
B|----------------3---3----------|----------------3--------------|
G|5---6-------5---4---2------2---|5---6---5---4---2---2-------2--|
D|5---5-------5---0---0----0---0-|5---5---5---5---0-------0------|
A|0---0---3---4------------------|0---0---3---4------------------|
E|-------------------------------|-------------------------------|

  A               Dm      Dadd9m  Dm      Dmsus4  A
e|------- ------- ------- -------|------- ------- ------- -------|
B|----------------3-------3------|3-------3-----/-2--------------|
G|5---6---5---4---2-------2------|2-------0---0-/-2--------------|
D|5---5---5---5---0---0---2---2--|3---3---3----------------------|
A|0---0---3---4------------------|----------------0---0---0---0--|
E|-------------------------------|-------------------------------|


  00:09

e|------- ------- ------- -------|------- ------- ------- -------|
B|----------------3--------------|----------------3--------------|
G|5---6-------5---4---2-------2--|5---6---5---4---2---0-----2----|
D|5---5-------5---0---0---0------|5---5---5---5---0-----/-4---0--|
A|0---0---3---4------------------|0---0---3---4------------------|
E|-------------------------------|-------------------------------|
  Lady        Madonna,            children    your
                                    at          feet


e|------- ------- ------- -------|------- ------- ------- -------|
B|----------------3-------3------|3-------3-------2--------------|
G|5---6---5---4---2-------2------|2-------0---0---2--------------|
D|5---5---5---5---0---0---2---2--|3---3---3-------2--------------|
A|0---0---3---4------------------|----------------0---0---0---0--|
E|-------------------------------|-------------------------------|
  Wonder  how you manage  to  make    ends    meet


  00:17

e|------- ------- ------- -------|------- ------- ------- -------|
B|----------------3--------------|-------------------------------|
G|5---6-------5---4---2-------2--|5---6---5---4---2---2---2------|
D|5---5-------5---0-------4-0----|5---5---5---5---0---0-------0--|
A|0---0---3---4------------------|0---0---3---4------------------|
E|-------------------------------|-------------------------------|
  Who finds  the                  when    pay   rent
                money                you     the


e|------- ------- ------- -------|------- ------- ------- -------|
B|----------------3-------3------|3-------3-----/-2--------------|
G|5---6---5---4---2-------2------|2-------0---0-/-2--------------|
D|5---5---5---5---0---0---2---2--|3---3---3----------------------|
A|0---0---3---4------------------|----------------0---0---0---0--|
E|-------------------------------|-------------------------------|
  Did you think   money was       heaven      sent
              that

  00:26

  Dm      Dm7     Dm6     F       G       G7      G6      G5
e|1------ 1------ 1------ 1------|------- ------- ------- -------|
B|3-------3-------3-------1------|3------------------------------|
G|2-------2-------2-------2------|0------------------------------|
D|0---0--------------------------|0---0---3---3---2---2---0---0--|
A|--------3---3---2---2---0---0--|-------------------------------|
E|-------------------------------|-------------------------------|
  Friday      arrives without a   suitcase
        night


  C       Em      Am      G       Am      Aadd9m  C6      Am
e|------- ------- ------- -------|------- ------- ------- -------|
B|1-------0-------1-------0------|1------------------------------|
G|0-------0-------2-------0------|2------------------------------|
D|2-------2-------2-------0------|2-----------------------2---2--|
A|3---3---2---2---0---0----------|0---0---2---2---3---3----------|
E|------------------------3---3--|-------------------------------|
  Sunday          creeping    a   nun
        morning           like


  Dm      Dm7     Dm6     F       G       G7      G6      G5
e|1------ 1------ 1------ 1------|------- ------- ------- -------|
B|3-------3-------3-------0---1--|3------------------------------|
G|2-------2-------2-------2------|0------------------------------|
D|0---0--------------------------|0---0---3---3---2---2---0---0--|
A|--------3---3---2---2---0---0--|-------------------------------|
E|-------------------------------|-------------------------------|
  Monday's   has  learned     his bootlegs
          child       to
                        tie
  00:39

  C               Bbm             Esus4           E
e|0------ ------- 2------ -------|0------ ------- 0------ -------|
B|1---------------3--------------|0---------------0--------------|
G|0---------------4--------------|2---------------1--------------|
D|2---------------4--------------|2---------------2--------------|
A|3---------------2--------------|2---------------2--------------|
E|3------------------------------|0---------------0--------------|
  See             how     they    run


  00:44

e|------- ------- ------- -------|------- ------- ------- -------|
B|----------------3--------------|----------------3--------------|
G|5---6-------5---4---2-------2--|5---6---5---4---2---2-------2--|
D|5---5-------5---0-------0------|5---5---5---5---0-------0------|
A|0---0---3---4------------------|0---0---3---4------------------|
E|-------------------------------|-------------------------------|
  Lady        Madonna,            baby  at    your breast
e|------- ------- ------- -------|------- ------- ------- -------|
B|-------------------------------|-------------------------------|
G|----------------------------2--|----------------------------2--|
D|----------------0---0---3-4----|----------------0---0---3-4----|
A|0---0---3---4------------------|0---0---3---4------------------|
E|-------------------------------|-------------------------------|


e|------- ------- ------- -------|------- ------- ------- -------|
B|----------------3-------3------|3-------3-----/-2--------------|
G|5---6---5---4---2-------2------|2-------0---0-/-2--------------|
D|5---5---5---5---0---0---2---2--|3---3---3----------------------|
A|0---0---3---4------------------|----------------0---0---0---0--|
E|-------------------------------|-------------------------------|
  Wonder  how     manage  to  feed        the rest
              you
e|------- ------- ------- -------|------- ------- ------- -------|
B|-------------------------------|-------------------------------|
G|-------------------------------|--------0---0---2--------------|
D|----------------0---0---2---2--|3---3--------------------------|
A|0---0---3---4------------------|-------------------------------|
E|-------------------------------|-------------------------------|

  00:53
          x               x               x               x
          x               x               x               x
e|------- ------- ------- -------|------- ------- ------- -------|
B|----------------3---3---3------|-------------------------------|
G|5---6---5---5---4---2---2------|5---6---5---4---2---2---2------|
D|5---5---5---5---0-------0------|5---5---5---5---0---0----------|
A|0---0---3---4------------------|0---0---3---4------------------|
E|-------------------------------|-------------------------------|

e|------- ------- ------- -------|------- ------- ------- -------|
B|-------------------------------|-------------------------------|
G|----------------------------2--|----------------------------2--|
D|----------------0---0---3-4----|----------------0---0---3-4----|
A|0---0---3---4------------------|----0---3---4------------------|
E|-------------------------------|-------------------------------|


          x               x               x               x
          x               x               x               x
e|------- ------- ------- -------|------- ------- ------- -------|
B|----------------3-------3------|3-------3-----/-2--------------|
G|5---6---5---4---2-------2------|2-------0---0-/-2--------------|
D|5---5---5---5---0---0---2---2--|3---3---3----------------------|
A|0---0---3---4------------------|----------------0---0---0---0--|
E|-------------------------------|-------------------------------|

e|------- ------- ------- -------|------- ------- ------- -------|
B|-------------------------------|-------------------------------|
G|-------------------------------|--------0---0---2--------------|
D|----------------0---0---2---2--|3---3--------------------------|
A|----0---3---4------------------|-------------------------------|
E|-------------------------------|-------------------------------|

  SAX SOLO
  01:02

e|1------ 1------ 1------ 1------|------- ------- ------- -------|
B|3-------3-------3-------1------|3------------------------------|
G|2-------2-------2-------2------|0------------------------------|
D|0---0--------------------------|0---0---3---3---2---2---0---0--|
A|--------3---3---2---2---0---0--|-------------------------------|
E|-------------------------------|-------------------------------|
 (Pa pa   pa pa           pa pa   pa pa   pa)
e|------- 10----- ------- -------|------- -----10 ------- -------|
B|------------8B9-R-8P6---6--8---10-8-10-8-10/12-/12-8-----------|
G|----------------------7--------|---------------------9---------|
D|-------------------------------|-------------------------------|
A|-------------------------------|-------------------------------|
E|-------------------------------|-------------------------------|


e|------- ------- ------- -------|------- ------- ------- -------|
B|1-------0-------1-------0------|1------------------------------|
G|0-------0-------2-------0------|2------------------------------|
D|2-------2-------2-------0------|2-----------------------2---2--|
A|3---3---2---2---0---0----------|0---0---2---2---3---3----------|
E|------------------------3--3---|-------------------------------|
 (Pa pa   pa pa           pa pa   pa      pa pa      pa   pa)
e|------- ------- ------- -------|------- ------- ------- -------|
B|-------------------------------|-------------------------------|
G|------------9-10H11R10-9H10H11H12P11P10P9----------------------|
D|---------10----------10--------|---------10-------9-9H1010H12--|
A|-------10----------------------|-----------10H1212-------------|
E|-------------------------------|-------------------------------|


e|1------ 1------ 1------ 1------|------- ------- ------- -------|
B|3-------3-------3-------1------|3------------------------------|
G|2-------2-------2-------2------|0------------------------------|
D|0---0--------------------------|0---0---3---3---2---2---0---0--|
A|--------3---3---2---2---0---0--|-------------------------------|
E|-------------------------------|-------------------------------|
 (Pa pa   pa pa           pa pa   pa pa   pa)
e|------- ------- ------- -------|------- ------- ---7--- -------|
B|------------8-9H10P9P8-9H10P9P8|---8---8H9P8P7P6/8-------------|
G|------7-9-10----------7--------7-------------------------------|
D|-------------------------------|-------------------------------|
A|-------------------------------|-------------------------------|
E|10-----------------------------|-------------------------------|


  01:14

e|0------ ------- 2------ -------|0------ ------- 0------ -------|
B|1---------------3--------------|0---------------0--------------|
G|0---------------4--------------|2---------------1--------------|
D|2---------------4--------------|2---------------2--------------|
A|3---------------2--------------|2---------------2--------------|
E|3------------------------------|0---------------0--------------|
  See             how     they    run
e|------- ------- ------- -------|------- ------- ------- -------|
B|-------------------------------|-------------------------------|
G|-------------------------------|-------------------------------|
D|-------------------------------|-------------------2-0----0----|
A|-------------------------------|------------------------3---3-2|
E|-------------------------------|-------------------------------|

  01:19

e|------- ------- ------- -------|------- ------- ------- -------|
B|----------------3---4----------|----------------3--------------|
G|5---6-------5---4---2-----2----|5---6---5---4---2---2-------2--|
D|5---5-------5---0---0-------0--|5---5---5---5---0-------0------|
A|0---0---3---4------------------|0---0---3---4------------------|
E|-------------------------------|-------------------------------|
  Lady        Madonna             lying   on the
                                                bed
e|------- ------- ------- -------|------- ------- ------- -------|
B|-------------------------------|-------------------------------|
G|----------------------------2--|----------------------------2--|
D|----------------0---0---3-4----|----------------0---0---3-4----|
A|0---0---3---4------------------|----0---3---4------------------|
E|-------------------------------|-------------------------------|

e|------- ------- ------- -------|------- ------- ------- -------|
B|----------------3--------------|3-------3-------2--------------|
G|5---6---5---4---2--------------|2-------0---0---2--------------|
D|5---5---5---5---0---0---2---2--|3---3---3----------------------|
A|0---0---3---4------------------|----------------0---0---0---0--|
E|-------------------------------|-------------------------------|
  Listen  to  the         playing in  your    head
                music
e|------- ------- ------- -------|------- ------- ------- -------|
B|-------------------------------|-------------------------------|
G|-------------------------------|--------0---0---2--------------|
D|----------------0---0---2---2--|3---3--------------------------|
A|----0---3---4------------------|-------------------------------|
E|-------------------------------|-------------------------------|

  01:28

e|------- ------- ------- -------|------- ------- ------- -------|
B|-------------------------------|-------------------------------|
G|5---6---5---4-----2-----2------|5---6---5---4---2---2-------2--|
D|5---5---5---5---0---0---0------|5---5---5---5---0-------0------|
A|0---0---3---4------------------|0---0---3---4------------------|
E|-------------------------------|-------------------------------|

e|------- ------- ------- -------|------- ------- ------- -------|
B|-------------------------------|-------------------------------|
G|----------------------------2--|----------------------------2--|
D|----------------0---0---3-4----|----------------0---0---3-4----|
A|0---0---3---4------------------|----0---3---4------------------|
E|-------------------------------|-------------------------------|


e|------- ------- ------- -------|------- ------- ------- -------|
B|-------------------------------|3-------3-----/-2--------------|
G|5---6---5---4---2--------------|2-------0---0-/-2--------------|
D|5---5---5---5---0---0---2---2--|3---3---3----------------------|
A|0---0---3---4------------------|----------------0---0---0---0--|
E|-------------------------------|-------------------------------|

e|------- ------- ------- -------|------- ------- ------- -------|
B|-------------------------------|-------------------------------|
G|-------------------------------|--------0---0---2--------------|
D|----------------0---0---2---2--|3---3--------------------------|
A|----0---3---4------------------|-------------------------------|
E|-------------------------------|-------------------------------|

  01:36

e|1------ 1------ 1------ 1------|------- ------- ------- -------|
B|3-------3-------3-------1------|3------------------------------|
G|2-------2-------2-------2------|0-----------0-------0-------0--|
D|0---0--------------------------|0------------------------------|
A|--------3---3---2---2---0---0--|-------------------------------|
E|-------------------------------|3-------3-------3-------3------|
  Tuesday afternoon   is  never
                              ending
 (Pa pa   pa pa           pa pa   pa pa   pa)

e|------- ------- ------- -------|------- ------- ------- -------|
B|1-------0-------1-------0------|1-------1-------1-------1------|
G|0-------0-------2-------0------|2-------2-------2-------2------|
D|2-------2-------2-------0------|2-------2-------2-------2---2--|
A|3---3---2---2---0---0----------|0---0---2---2---3---3----------|
E|------------------------3---3--|-------------------------------|
  Wednesday       papers  didn't
        morning                 come
 (Pa pa   pa pa           pa pa   pa      pa pa      pa   pa)

e|1------ 1------ 1------ 1------|------- ------- ------- -------|
B|3-------3-------3-------1------|3------------------------------|
G|2-------2-------2-------2------|0-------0---0-------0-------0--|
D|0---0--------------------------|0-------0----------------------|
A|--------3---3---2---2---0---0--|-------------------------------|
E|-------------------------------|3-------3-------3-------3------|
  Thursday    your        needed  mending
        night     stockings
 (Pa pa   pa pa           pa pa   pa pa   pa)


  01:49

e|0------ ------- 2------ -------|0------ ------- 0------ -------|
B|1---------------3--------------|0---------------0--------------|
G|0---------------4--------------|2---------------1--------------|
D|2---------------4--------------|2---------------2--------------|
A|3---------------2--------------|2---------------2--------------|
E|3------------------------------|0---------------0--------------|
  See             how     they    run
e|------- ------- ------- -------|------- ------- ------- -------|
B|-------------------------------|-------------------------------|
G|-------------------------------|-------------------------------|
D|-------------------------------|--------------------2-0---0----|
A|-------------------------------|------------------------3---3-2|
E|-------------------------------|-------------------------------|

  01:54

e|------- ------- ------- -------|------- ------- ------- -------|
B|----------------3---4----------|----------------3--------------|
G|5---6-------5---4---2-----2----|5---6---5---4---2---2-----2----|
D|5---5-------5---0---0-------0--|5---5---5---5---0-------0---0--|
A|0---0---3---4------------------|0---0---3---4------------------|
E|-------------------------------|-------------------------------|
  Lady       Madonna,             children    your
                                        at        feet
e|------- ------- ------- -------|------- ------- ------- -------|
B|-------------------------------|-------------------------------|
G|----------------------------2--|----------------------------2--|
D|----------------0---0---3-4----|----------------0---0---3-4----|
A|0---0---3---4------------------|----0---3---4------------------|
E|-------------------------------|-------------------------------|


e|------- ------- ------- -------|------- -------|
B|----------------3-------3------|3-------3------|
G|5---6---5---4---2-------2------|2-------0---0--|
D|5---5---5---5---0---0---2---2--|3---3---3------|
A|0---0---3---4------------------|---------------|
E|-------------------------------|---------------|
  Wonder  how you manage  to  make    ends    meet
e|------- ------- ------- -------|------- -------|
B|-------------------------------|---------------|
G|-------------------------------|--------0---0--|
D|----------------0---0---2---2--|3---3----------|
A|0---0---3---4------------------|---------------|
E|-------------------------------|---------------|

                                             (.       x x x x x
  A               Bm7             Cm6    Bm7  A
e|5---5-- --5---- 5---5-- --5----|5------ 5---5-- ------- -------|
B|2---2-----2-----3---3-----3---/|4-------3---2------------------|
G|2---2-----2-----4---4-----4---/|5-------4---2------------------|
D|-------------------------------|-------------------------------|
A|0-------0---0---0-------0---0--|0---0---0---0------------------|
E|-------------------------------|-------------------------------|

e|------- ------- ------- -------|------- ------- ------- -------|
B|-------------------------------|-------------------------------|
G|2---2-----2-2---4--4--------4-4B5-------4---2------------------|
D|-------------------------------|-------------------------------|
A|-------------------------------|-------------------------------|
E|-------------------------------|-------------------------------|


                                            -(.

e|5---5-- --5---- 5---5-- --5----|5------ 5---5-- ------- -------|
B|2---2-----2-----3---3-----3---/|4-------3---2------------------|
G|2---2-----2-----4---4-----4---/|5-------4---2------------------|
D|-------------------------------|-------------------------------|
A|0-------0---0---0-------0---0--|0---0---0---0------------------|
E|-------------------------------|-------------------------------|


        B  Bend
        R  Release
        /  Slide up
        \  Slide down
        H  Hammer-on
        P  Pull-off
        ~  Vibrato
        +  Harmonic
        x  Mute note
        .  Play note like a dot in standard notation
        ^  Ties two notes together
        (. Pause

  ---------------------------------------------------------------

   THE BEATLES - THE INNER LIGHT (Harrison) Released as B side of
                 LADY MADONNA single on 15th Mars 1968.

  ---------------------------------------------------------------

  Tabbed by:PJVillanueva


  According to Walter Everett (The Beatles As Musicians Vol.II,
  Oxford University Press) the stereo mix is as follows:
  Left - Harmonium, flute, tabla and pakahwaj.
  Right - Sarod and tabla-tarang
  Right Center - Shehnai.
  The sound of the track isn't that good, but I've always been
  astonished at the work those indian musicians did at EMI studios
  - Bombay, June 68 -while recording Wonderwall soundtrack and LP.
  The tabla, pakahwaj and tabla-tarang always bring a sort of joy
  which(for me)surpasses any known gospel enthusiasm manifestation
  and the same goes for the sarod.
  The harmonium provides the usual Om-ish drone effect and some
  easy accompaniment chords.
  But most of all I like the playing of the shehnai, which shocked
  me at first when I read about the song on the above mentioned
  highly reliable source.
  I couldn't really believe it was a wind instrument.(Someone said
  it is a kind of indian oboe-a wood flute with four reeds, 8 or 9
  holes and a brass bell.)
  The long attack of the notes and the pitch changes always had made
  me think of a string instrument played with a bow. Maybe a dilruba
  or an esraj. (Listen to the end of the song for instance.)
  You need really big lungs to play that way and I still have bow
  flashes everytime I listen to it.
  Simply amazing.


  Without going out of my door
  I can know all things on earth
  Without looking out of my window
  I could know the ways of heaven

  The farther one travels
  The less one knows
  The less one really knows

  Without going out of your door
  You can know all things of earth
  With out looking out of your window
  You could know the ways of heaven

  The farther one travels
  The less one knows
  The less one really knows

  Arrive without travelling
  See all without looking
  Do all without doing

  Use a capo on the first fret.

e|-------- -------- -------- --------|-------- -------- -------- --------|Shehnai
B|-----------------------------------|---------------------------------3---|
G|-----------------------------------|-------------------------------------|
D|-----------------------------------|-------------------------------------|
A|-----------------------------------|-------------------------------------|
E|-----------------------------------|-------------------------------------|

e|-------- -------- -------- --------|-------- --0-3-2- --7-5-7- --3-2-3-|Sarod
B|-----------------------------------|3---3-3-----------3--------3-------|
G|-----------------------------------|-----------------------------------|
D|-----------------------------------|-----------------------------------|
A|-----------------------------------|-----------------------------------|
E|-----------------------------------|-----------------------------------|

e|-------- -------- -------- --------|-------- -------- -------- --------|Harmonium
B|------------------3----------------|-----------------------------------|
G|------------------2----------------|-----------------------------------|
D|------------------0----------------|-----------------------------------|
A|-----------------------------------|-----------------------------------|
E|-----------------------------------|-----------------------------------|

e|-------- -------- -------- --------|-------- 5H7P5P0- 2H3P2--- 0H2P0---|
B|12-~-----10-~-----8-~------7H8P7P5-|8H10P8P7---------------3--------3--|
G|-----------------------------------|-----------------------------------|
D|-----------------------------------|-----------------------------------|
A|-----------------------------------|-----------------------------------|
E|-----------------------------------|-----------------------------------|

e|-------- -------- -------- --------|-------- -------- -------- --------|
B|3---3-3--3---3-3--3---3-3--3---3-3-|3---3-3--3---3-3--3---3-3--3---3-3-|
G|-----------------------------------|-----------------------------------|
D|-----------------------------------|-----------------------------------|
A|-----------------------------------|-----------------------------------|
E|-----------------------------------|-----------------------------------|

e|5---5-7- 3---3-5- 2---2-3- 0---0-2-|3---3-5- 2---2-3- 0---0-2- --------|
B|-----------------------------------|---------------------------3-------|
G|-----------------------------------|-----------------------------------|
D|-----------------------------------|-----------------------------------|
A|-----------------------------------|-----------------------------------|
E|-----------------------------------|-----------------------------------|

e|5-~----- 3-~----- 2-~----- 0---2---|3-~----- 2-~----- -------- --------|
B|-----------------------------------|------------------5/7\5/7\-3-------|
G|-----------------------------------|-----------------------------------|
D|-----------------------------------|-----------------------------------|
A|-----------------------------------|-----------------------------------|
E|-----------------------------------|-----------------------------------|

e|-------5P3---3--- 2---2--- 0---0-2-|3---3--- 2---2-3- 0---0-2- --------|
B|----3------------------------------|---------------------------3-------|
G|-----------------------------------|-----------------------------------|
D|-----------------------------------|-----------------------------------|
A|-----------------------------------|-----------------------------------|
E|-----------------------------------|-----------------------------------|


                                                HPP      HP  HP
e|10-~---- 8-~----- 7-~----- 5-~-----|3-~----- 23202--- 020-020- ----2-3-|
B|-----------------------------------|---------------------3---3-3-------|
G|-----------------------------------|-----------------------------------|
D|-----------------------------------|-----------------------------------|
A|-----------------------------------|-----------------------------------|
E|-----------------------------------|-----------------------------------|

e|10101010 8-8-8-8- 7-7-7-7- 5-5-5-5-|3-3-3-3- 23202--- 020-020- ----2-3-|
B|-----------------------------------|---------------------3---3-3-------|
G|-----------------------------------|-----------------------------------|
D|-----------------------------------|-----------------------------------|
A|-----------------------------------|-----------------------------------|
E|-----------------------------------|-----------------------------------|

e|5------- -------- -------- --------|-------- -------- -------- --------|
B|-----------------------------------|-----------------------------------|
G|-----------------------------------|-----------------------------------|
D|-----------------------------------|-----------------------------------|
A|-----------------------------------|-----------------------------------|
E|-----------------------------------|-----------------------------------|
                                                                     With..
e|5------- -------- -------- --------|-------- -------- -------- --------|
B|-----------------------------------|-----------------------------------|
G|-----------------------------------|-----------------------------------|
D|-----------------------------------|-----------------------------------|
A|-----------------------------------|-----------------------------------|
E|-----------------------------------|-----------------------------------|

e|-------- -------- -------- --------|-------- ----8--- 7-8-5-7- --5-----|Sarod
B|-----------------------------------|---------------------------8---7-8-|
G|-----------------------------------|-----------------------------------|
D|-----------------------------------|-----------------------------------|
A|-----------------------------------|-----------------------------------|
E|-----------------------------------|-----------------------------------|

e|-------- -------- -------- --------|-------- ----7--- -------- --------|Flute
B|---------7------------7----8-------|7---8----10------------------------|
G|7---9--------7----9------------9---|------------------9----------------|
D|-----------------------------------|-----------------------------------|
A|-----------------------------------|-----------------------------------|
E|-----------------------------------|-----------------------------------|
 ..out     going    out    of    my   door                        I  can
e|-------- -------- -------- --------|-------- -------- -------- --------|Harmonium
B|3-----------------1----------------|3----------------------------------|
G|2-----------------2----------------|4----------------------------------|
D|0-----------------0----------------|0----------------------------------|
A|-----------------------------------|-----------------------------------|
E|-----------------------------------|-----------------------------------|

e|5------- -------- -------- --------|-------- ----8--- 7-8-5-7- --5-----|
B|-----------------------------------|---------------------------8---7-8-|
G|-----------------------------------|-----------------------------------|
D|-----------------------------------|-----------------------------------|
A|-----------------------------------|-----------------------------------|
E|-----------------------------------|-----------------------------------|

e|-------- -------- -------- ----7---|-------- -------- -------- --------|
B|---------7---8--------7----10------|8----------------------------------|
G|7---9-------------9----------------|-----------------------------------|
D|-----------------------------------|-----------------------------------|
A|-----------------------------------|-----------------------------------|
E|-----------------------------------|-----------------------------------|
  know     all      things   on       earth                          With..
e|-------- -------- -------- --------|-------- -------- -------- --------|
B|3-----------------1----------------|3----------------------------------|
G|2-----------------2----------------|4----------------------------------|
D|0-----------------0----------------|0----------------------------------|
A|-----------------------------------|-----------------------------------|
E|-----------------------------------|-----------------------------------|

e|5------- -------- -------- --------|-------- ----8--- 7-8-5-7- --5-----|
B|-----------------------------------|---------------------------8---7-8-|
G|-----------------------------------|-----------------------------------|
D|-----------------------------------|-----------------------------------|
A|-----------------------------------|-----------------------------------|
E|-----------------------------------|-----------------------------------|

e|-------- -------- -------- --------|----5--- 7------- -------- --------|
B|---------7---8--------7----8-------|7------------5---------------------|
G|7---9-------------9------------9---|-----------------------------------|
D|-----------------------------------|-----------------------------------|
A|-----------------------------------|-----------------------------------|
E|-----------------------------------|-----------------------------------|
 ..out     looking  out    of    my   window
e|-------- -------- -------- --------|-------- -------- -------- --------|
B|3-----------------1----------------|3----------------------------------|
G|2-----------------2----------------|4----------------------------------|
D|0-----------------0----------------|0----------------------------------|
A|-----------------------------------|-----------------------------------|
E|-----------------------------------|-----------------------------------|

e|-------- -------- -------- --------|-------- ----8--- 7---5-7- --------|
B|-----------------------------------|---------------------------8-------|
G|-----------------------------------|-----------------------------------|
D|-----------------------------------|-----------------------------------|
A|-----------------------------------|-----------------------------------|
E|-----------------------------------|-----------------------------------|

e|-------- -------- -------- 5---7---|-------- -------- -------- --------|
B|---------7---8--------7------------|8----------------------------------|
G|7---9-------------9----------------|------------------7----------------|
D|-----------------------------------|-----------------------------------|
A|-----------------------------------|-----------------------------------|
E|-----------------------------------|-----------------------------------|
  know     the      ways     of       heaven                         The
e|-------- -------- -------- --------|-------- -------- -------- --------|
B|3-----------------1----------------|3--------3-------------------------|
G|2-----------------2----------------|4--------0-------------------------|
D|0-----------------0----------------|0-----------------0----------------|
A|-----------------------------------|-----------------------------------|
E|-----------------------------------|-----------------------------------|

e|-------- -------- -------- --------|-------- -------- -------- --------|
B|8---7-------------8---7--------8---|7-----------------7----------------|
G|---------9---7-------------9-------|----9----7---9---------------------|
D|-----------------------------------|-----------------------------------|
A|-----------------------------------|-----------------------------------|
E|-----------------------------------|-----------------------------------|
  farther      one  tra......vels                                    The
e|-------- -------- -------- --------|-------- -------- -------- --------|
B|3--------------------------3-------|-----------------------------------|
G|0--------------------------2-------|-----------------------------------|
D|0--------------------------0-------|-----------------------------------|
A|-----------------------------------|-----------------------------------|
E|-----------------------------------|-----------------------------------|

e|-------- -------- -------- --------|-------- -------- -------- --------|
B|-----------------------------------|-----------------------------------|
G|-----------------------------------|-------------------------------7--/|
D|-----------------------------------|-----------------------------------|
A|-----------------------------------|-----------------------------------|
E|-----------------------------------|-----------------------------------|

e|-------- -------- -------- --------|-------- 7------- -------- --------|
B|7------------------------------7---|8---10-------10--------------------|
G|----7-------------7--------9-------|-----------------------------------|
D|--------10---9---------------------|-----------------------------------|
A|-----------------------------------|-----------------------------------|
E|-----------------------------------|-----------------------------------|
  less     one      knows                                            The
e|-------- -------- -------- --------|-------- -------- -------- --------|
B|3----------------------------------|1----------------------------------|
G|2----------------------------------|2----------------------------------|
D|0----------------------------------|0----------------------------------|
A|-----------------------------------|-----------------------------------|
E|-----------------------------------|-----------------------------------|

e|-------- -------- -------- --------|-------- -------- -------- --------|
B|-----------------------------------/8-~---------------8------------7P8R|
G|11-~--------------7-~------5-~-----|-----------------------------------|
D|-----------------------------------|-----------------------------------|
A|-----------------------------------|-----------------------------------|
E|-----------------------------------|-----------------------------------|
  less     one      rea......lly      knows
e|-------- -------- -------- --------|-------- -------- 12--14-- 15--17--|
B|11---------------------------------|---------12--15--------------------|
G|----12---------------------9---11--|12--14-----------------------------|
D|------------------10--12-----------|-----------------------------------|
A|-----------------------------------|-----------------------------------|
E|-----------------------------------|-----------------------------------|

e|-------- -------- -------- --------|-------- -------- -------- --------|
B|3-----------------3--------1-------|3----------------------------------|
G|2-----------------2--------2-------|0----------------------------------|
D|0-----------------0--------0-------|0----------------------------------|
A|-----------------------------------|-----------------------------------|
E|-----------------------------------|-----------------------------------|

e|-------- -------- -------- --------|
B|7----------------------------------|
G|-----------------------------------|
D|-----------------------------------|
A|-----------------------------------|
E|-----------------------------------|

e|15------ -------- -------- --------|
B|-----------------------------------|
G|-----------------------------------|
D|-----------------------------------|
A|-----------------------------------|
E|-----------------------------------|

e|-------- -------- -------- --------|
B|3----------------------------------|
G|2----------------------------------|
D|0----------------------------------|
A|-----------------------------------|
E|-----------------------------------|

e|10--1010 ------10 -------- --------|10--1010 ------10 -------- --------|
B|---------13--13---12--1213-10--1012|---------13--13---12--1213-10------|
G|-----------------------------------|-----------------------------------|
D|-----------------------------------|-----------------------------------|
A|-----------------------------------|-----------------------------------|
E|-----------------------------------|-----------------------------------|

    H HPP    H H PP   HHPP     H HPP    H P//    HP/      HP/
e|-------- -------- 5-7875-- 7-81087-10121087- 5-7537-- 5-7535-/ 10------|
B|7-81087--8-912109------------------|-----------------------------------|
G|-----------------------------------|-----------------------------------|
D|-----------------------------------|-----------------------------------|
A|-----------------------------------|-----------------------------------|
E|-----------------------------------|-----------------------------------|

e|----1010 10--1010 ----1010 ----1010|----1010 --101010 --101010 --1010--|
B|-----------------------------------|-----------------------------------|
G|-----------------------------------|-----------------------------------|
D|-----------------------------------|-----------------------------------|
A|-----------------------------------|-----------------------------------|
E|-----------------------------------|-----------------------------------|


e|5---5-5- 3---3-3- 2---2-3- 0---0-2-|3---3-5- 2---2-3- 0---0-2- --------|
B|-----------------------------------|---------------------------3---3-3-|
G|-----------------------------------|-----------------------------------|
D|-----------------------------------|-----------------------------------|
A|-----------------------------------|-----------------------------------|
E|-----------------------------------|-----------------------------------|


e|10~-10~- 8~--8~-- 7~--7~-- 5~--5~--|3~--3~-- 2~--2~-- 0---0--- ----2-3-|
B|-----------------------------------|---------------------------3-------|
G|-----------------------------------|-----------------------------------|
D|-----------------------------------|-----------------------------------|
A|-----------------------------------|-----------------------------------|
E|-----------------------------------|-----------------------------------|

e|10--1010 8---8-~- 7---7-~- 5---5-~-|3---3-~- 2---2-~- 0---0--- ----2-3-|
B|-----------------------------------|---------------------------3-------|
G|-----------------------------------|-----------------------------------|
D|-----------------------------------|-----------------------------------|
A|-----------------------------------|-----------------------------------|
E|-----------------------------------|-----------------------------------|


e|5------- -------- -------- --------|-------- -------- -------- --------|
B|-----------------------------------|-----------------------------------|
G|-----------------------------------|-----------------------------------|
D|-----------------------------------|-----------------------------------|
A|-----------------------------------|-----------------------------------|
E|-----------------------------------|-----------------------------------|

e|5------- -------- -------- --------|-------- -------- -------- --------|
B|-----------------------------------|-----------------------------------|
G|-----------------------------------|-----------------------------------|
D|-----------------------------------|-----------------------------------|
A|-----------------------------------|-----------------------------------|
E|-----------------------------------|-----------------------------------|
                                                                     With..
e|-------- -------- -------- --------|-------- -------- -------- --------|
B|3----------------------------------|-----------------------------------|
G|2----------------------------------|-----------------------------------|
D|0----------------------------------|-----------------------------------|
A|-----------------------------------|-----------------------------------|
E|-----------------------------------|-----------------------------------|


e|-------- -------- -------- --------|-------- ----8--- 7-8-5-7- --5-----|
B|-----------------------------------|---------------------------8---7-8-|
G|-----------------------------------|-----------------------------------|
D|-----------------------------------|-----------------------------------|
A|-----------------------------------|-----------------------------------|
E|-----------------------------------|-----------------------------------|

e|-------- -------- -------- --------|-------- ----7--- -------- --------|
B|---------7------------7----8-------|7---8----10------------------------|
G|7---9--------7----9------------9---|------------------9----------------|
D|-----------------------------------|-----------------------------------|
A|-----------------------------------|-----------------------------------|
E|-----------------------------------|-----------------------------------|
 ..out     going    out    of    your door                        You can
e|-------- -------- -------- --------|-------- -------- -------- --------|
B|3-----------------1----------------|0----------------------------------|
G|2-----------------2----------------|0----------------------------------|
D|0-----------------0----------------|2----------------------------------|
A|-----------------------------------|-----------------------------------|
E|-----------------------------------|-----------------------------------|

e|5------- -------- -------- --------|-------- ----8--- 7-8-5-7- --5-----|
B|-----------------------------------|---------------------------8---7-8-|
G|-----------------------------------|-----------------------------------|
D|-----------------------------------|-----------------------------------|
A|-----------------------------------|-----------------------------------|
E|-----------------------------------|-----------------------------------|

e|-------- -------- -------- ----7---|-------- -------- -------- --------|
B|---------7---8--------7----10------|8----------------------------------|
G|7---9-------------9----------------|-----------------------------------|
D|-----------------------------------|-----------------------------------|
A|-----------------------------------|-----------------------------------|
E|-----------------------------------|-----------------------------------|
  know     all      things   on       earth                          With..
e|-------- -------- -------- --------|-------- -------- -------- --------|
B|3----------------------------------|3----------------------------------|
G|2----------------------------------|4----------------------------------|
D|0----------------------------------|0----------------------------------|
A|-----------------------------------|-----------------------------------|
E|-----------------------------------|-----------------------------------|

e|5------- -------- -------- --------|-------- ----8--- 7-8-5-7- --5-----|
B|-----------------------------------|---------------------------8---7-8-|
G|-----------------------------------|-----------------------------------|
D|-----------------------------------|-----------------------------------|
A|-----------------------------------|-----------------------------------|
E|-----------------------------------|-----------------------------------|

e|-------- -------- -------- --------|----5--- 7------- -------- --------|
B|---------7------------7----8-------|7------------5---------------------|
G|7---9--------7----9------------9---|-----------------------------------|
D|-----------------------------------|-----------------------------------|
A|-----------------------------------|-----------------------------------|
E|-----------------------------------|-----------------------------------|
 ..out     looking  out    of    your window
e|-------- -------- -------- --------|-------- -------- -------- --------|
B|3-----------------1----------------|0----------------------------------|
G|2-----------------2----------------|0----------------------------------|
D|0-----------------0----------------|2----------------------------------|
A|-----------------------------------|-----------------------------------|
E|-----------------------------------|-----------------------------------|

e|-------- -------- -------- --------|-------- ----8--- 7---5-7- --------|
B|-----------------------------------|---------------------------8-------|
G|-----------------------------------|-----------------------------------|
D|-----------------------------------|-----------------------------------|
A|-----------------------------------|-----------------------------------|
E|-----------------------------------|-----------------------------------|

e|-------- -------- -------- 5---7---|-------- -------- -------- --------|
B|---------7------------7------------|8----------------------------------|
G|7---9--------7----9----------------|-----------------------------------|
D|-----------------------------------|-----------------------------------|
A|-----------------------------------|-----------------------------------|
E|-----------------------------------|-----------------------------------|
  know     the      ways     of       heaven                         The
e|-------- -------- -------- --------|-------- -------- -------- --------|
B|3----------------------------------|3----------------------------------|
G|2----------------------------------|4----------------------------------|
D|0----------------------------------|0----------------------------------|
A|-----------------------------------|-----------------------------------|
E|-----------------------------------|-----------------------------------|

e|-------- -------- -------- --------|-------- -------- -------- --------|
B|8---7-------------8---7--------8---|7-----------------7----------------|
G|---------9---7-------------9-------|----9----7---9---------------------|
D|-----------------------------------|-----------------------------------|
A|-----------------------------------|-----------------------------------|
E|-----------------------------------|-----------------------------------|
  farther      one  tra......vels                                    The
e|-------- -------- -------- --------|-------- -------- -------- --------|
B|3--------------------------3-------|3----------------------------------|
G|0--------------------------2-------|2----------------------------------|
D|0--------------------------0-------|0----------------------------------|
A|-----------------------------------|-----------------------------------|
E|-----------------------------------|-----------------------------------|

e|-------- -------- -------- --------|-------- -------- -------- --------|
B|-----------------------------------|-----------------------------------|
G|-----------------------------------|-------------------------------7--/|
D|-----------------------------------|-----------------------------------|
A|-----------------------------------|-----------------------------------|
E|-----------------------------------|-----------------------------------|

e|-------- -------- -------- --------|-------- 7------- -------- --------|
B|7------------------------------7---|8---10-------10--------------------|
G|----7-------------7--------9-------|-----------------------------------|
D|--------10---9---------------------|-----------------------------------|
A|-----------------------------------|-----------------------------------|
E|-----------------------------------|-----------------------------------|
  less     one      knows                                            The
e|-------- -------- -------- --------|-------- -------- -------- --------|
B|3----------------------------------|1----------------------------------|
G|2----------------------------------|2----------------------------------|
D|0----------------------------------|0----------------------------------|
A|-----------------------------------|-----------------------------------|
E|-----------------------------------|-----------------------------------|

e|-------- -------- -------- --------|-------- -------- -------- --------|
B|-----------------------------------/8-~---------------8------------7P8R|
G|11-~--------------7-~------5-~-----|-----------------------------------|
D|-----------------------------------|-----------------------------------|
A|-----------------------------------|-----------------------------------|
E|-----------------------------------|-----------------------------------|
  less     one      rea......lly      knows
e|-------- -------- -------- --------|-------- -------- 12--14-- 15--17--|
B|11---------------------------------|---------12--15--------------------|
G|----12---------------------9---11--|12--14-----------------------------|
D|------------------10--12-----------|-----------------------------------|
A|-----------------------------------|-----------------------------------|
E|-----------------------------------|-----------------------------------|

e|-------- -------- -------- --------|-------- -------- -------- --------|
B|3-----------------1----------------|3----------------------------------|
G|2-----------------2----------------|0----------------------------------|
D|0-----------------0----------------|0----------------------------------|
A|-----------------------------------|-----------------------------------|
E|-----------------------------------|-----------------------------------|

e|-------- -------- -------- --------|
B|7----------------------------------|
G|-----------------------------------|
D|-----------------------------------|
A|-----------------------------------|
E|-----------------------------------|

e|15------ -------- -------- --------|
B|-----------------------------------|
G|-----------------------------------|
D|-----------------------------------|
A|-----------------------------------|
E|-----------------------------------|

e|-------- -------- -------- --------|
B|3----------------------------------|
G|2----------------------------------|
D|0----------------------------------|
A|-----------------------------------|
E|-----------------------------------|

e|10--1010 ------10 -------- --------|10--1010 ------10 -------- --------|
B|---------13--13---12--1213-10--1012|---------13--13---12--1213-10------|
G|-----------------------------------|-----------------------------------|
D|-----------------------------------|-----------------------------------|
A|-----------------------------------|-----------------------------------|
E|-----------------------------------|-----------------------------------|
                                    Arrive     without  travelling


                                        HP\ /    HP\ H    HPP H
e|-------- -----7/8 7-1078-- 5-7-3-5-|3-532-3- 5-753-5- 7-875-7- 10-\-5--|
B|7/10\810/12\10---------------------|-----------------------------------|
G|-----------------------------------|-----------------------------------|
D|-----------------------------------|-----------------------------------|
A|-----------------------------------|-----------------------------------|
E|-----------------------------------|-----------------------------------|

e|--10-10- ----10-- ----10-- ----10--|----10-- ----1010 ----1010 ----10--|
B|-----------------------------------|-----------------------------------|
G|-----------------------------------|-----------------------------------|
D|-----------------------------------|-----------------------------------|
A|-----------------------------------|-----------------------------------|
E|-----------------------------------|-----------------------------------|
                                                                      See


                          HPP
e|----5-5- 3---3--- 2---2-320 ---0---|----3--- ----2-3- 0---0H2- --------|
B|-----------------------------------|---------------------------3-3-3---|
G|-----------------------------------|-----------------------------------|
D|-----------------------------------|-----------------------------------|
A|-----------------------------------|-----------------------------------|
E|-----------------------------------|-----------------------------------|
  all      without  looking      Do   all      without  doing

e|10~-10~- 8~--8~-- 7~--7~-- 5~--5~--|3~--3~-- 2~--2~-- 0-2-0-2- ----2-3-|
B|-----------------------------------|---------------------------3-------|
G|-----------------------------------|-----------------------------------|
D|-----------------------------------|-----------------------------------|
A|-----------------------------------|-----------------------------------|
E|-----------------------------------|-----------------------------------|

e|10--1010 8---8-~- 7---7-~- 5---5-~-|3---3-~- 2---2-~- 0---0--- ----2-3-|
B|-----------------------------------|---------------------------3-------|
G|-----------------------------------|-----------------------------------|
D|-----------------------------------|-----------------------------------|
A|-----------------------------------|-----------------------------------|
E|-----------------------------------|-----------------------------------|

e|5------- -------- -------- ----2-3-|5------- -------- -------- ----2-3-|
B|-----------------------------------|-----------------------------------|
G|-----------------------------------|-----------------------------------|
D|-----------------------------------|-----------------------------------|
A|-----------------------------------|-----------------------------------|
E|-----------------------------------|-----------------------------------|

e|5------- -------- -------- --------|-------- -------- -------- --------|
B|-----------------------------------|-----------------------------------|
G|-----------------------------------|-----------------------------------|
D|-----------------------------------|-----------------------------------|
A|-----------------------------------|-----------------------------------|
E|-----------------------------------|-----------------------------------|

e|-------- -------- -------- --------|-------- -------- -------- --------|
B|3----------------------------------|-----------------------------------|
G|2----------------------------------|-----------------------------------|
D|0----------------------------------|-----------------------------------|
A|-----------------------------------|-----------------------------------|
E|-----------------------------------|-----------------------------------|

e|5------- -------- -------- --------|-------- -------- -------- --------|
B|-----------------------------------|-----------------------------------|
G|-----------------------------------|-----------------------------------|
D|-----------------------------------|-----------------------------------|
A|-----------------------------------|-----------------------------------|
E|-----------------------------------|-----------------------------------|

e|-------- -------- -------- --------|-------- -------- -------- --------|
B|-----------------------------------|-----------------------------------|
G|-----------------------------------|-----------------------------------|
D|-----------------------------------|-----------------------------------|
A|-----------------------------------|-----------------------------------|
E|-----------------------------------|-----------------------------------|
  ...............Fade..................................


        B  Bend
        R  Release
        /  Slide up
        \  Slide down
        H  Hammer-on
        P  Pull-off
        ~  Vibrato
        +  Harmonic
        x  Mute note
        .  Play note like a dot in standard notation
        ^  Ties two notes together
        (.  Pause

   ----------------------------------------------------------------

   THE BEATLES - HEY JUDE (Lennon & McCartney) Released as a single
                 with REVOLUTION as B side on 30th August 1968.

   ----------------------------------------------------------------

   Tabbed by:PJVillanueva


  Hey Jude, don't make it bad.
  Take a sad song and make it better.
  Remember to let her into your heart,
  Then you can start to make it better.

  Hey Jude, don't be afraid.
  You were made to go out and get her.
  The minute you let her under your skin,
  Then you begin to make it better.

  And anytime you feel the pain, hey Jude, refrain,
  Don't carry the world upon your shoulders.
  For well you know that it's a fool who plays it cool
  By making his world a little colder.

  Hey Jude, don't let me down.
  You have found her, now go and get her.
  Remember to let her into your heart,
  Then you can start to make it better.

  So let it out and let it in, hey Jude, begin,
  You're waiting for someone to perform with.
  And don't you know that it's just you, hey Jude, you'll do,
  The movement you need is on your shoulder.

  Hey Jude, don't make it bad.
  Take a sad song and make it better.
  Remember to let her under your skin,
  Then you'll begin to make it
  Better better better better better better, oh.

  Na na na, na na na na, na na na, hey Jude...


  Use a capo on the first fret.

                                                           Hey


  E                               B                       B5  B6
e|0------ 0------ 0------ 0------|------- ------- ------- -------|
B|0-------0-------0-------0------|-------------------------------|
G|1-------1-------1-------1------|4-------4-------4-------4------|
D|2-------2-------2-------2------|4-------4-------4-------4---6--|
A|-------------------------------|6-------6-------6-------2------|
E|0-------0-------0-------0------|7-------7-------7--------------|
  Jude,               don't   it  bad.                    Take
                          make                                a


  B7      B11                     E
e|------- 0------ 0------ 0------|0------ 0------ 0------ 0------|
B|0-------0-------0-------0------|0-------0-------0-------0------|
G|2-------2-------2-------2------|1-------1-------1-------1------|
D|1-------1-------1-------1------|2-------2-------2-------2------|
A|2-------2-------2-------2------|-------------------------------|
E|-------------------------------|0-------0-------0-------0------|
  sad     song        and make    better.                    Re..
                              it


  A                               E
e|0------ 0------ 0------ 0------|0------ 0------ 0------ 0------|
B|2-------2-------2-------2------|0-------0-------0-------0------|
G|2-------2-------2-------2------|1-------1-------1-------1------|
D|2-------2-------2-------2------|2-------2-------2-------2------|
A|0-------0-------0-------0------|-------------------------------|
E|-------------------------------|0-------0-------0-------0------|
  member      to  let into    your                Then    can start
                    her           heart               you


  B                               E
e|------- ------- ------- -------|0------ 0------ 0------ -------|
B|-------------------------------|0-------0-------0--------------|
G|4-------4-------4-------4------|1-------1-------1--------------|
D|4-------4-------4-------4------|2-------2-------2--------------|
A|6-------6-------6-------6------|-------------------------------|
E|7-------7-------7-------7------|0-------0-------0--------------|
              to  make        better.                     Hey
                      it


  E                               B                       B5  B6
e|0------ 0------ 0------ 0------|------- ------- ------- -------|
B|0-------0-------0-------0------|-------------------------------|
G|1-------1-------1-------1------|4-------4-------4-------4------|
D|2-------2-------2-------2------|4-------4-------4-------4---6--|
A|2-------2-------2-------2------|6-------6-------6-------2------|
E|0-------0---0---0-------0---0--|7-------7-------7--------------|

e|------- 0---0-- 0------ 0------|------- 2---2-2 ------- 2---2--|
B|0---0---0---0---0---0---0---0-0|0---0---0---0-0---------0---0--|
G|1---1---1---1---1---1---1---1-1|2---2---2---2-2-2---2---2---2--|
D|2---2---2---2---2---2---2---2-2|1---1---1---1-1-1---1---1---1--|
A|2---2---2---2---2---2---2---2-2|2---2---2---2-2----------------|
E|0---0---0---0---0---0---0---0-0|----------------2---2----------|
  Jude,               don't   afraid.                     You were
                          be

  B7      B11                     E
e|------- 0------ 0------ 0------|0------ 0------ 0------ 0------|
B|0-------0-------0-------0------|0-------0-------0-------0------|
G|2-------2-------2-------2------|1-------1-------1-------1------|
D|1-------1-------1-------1------|2-------2-------2-------2------|
A|2-------2-------2-------2------|2-------2-------2-------2------|
E|-------------------------------|----0-------0-------0-------0--|

e|2---2-2 2---2-2 ------- 2---2--|------- 0---0-0 ------- 0---0--|
B|0---0-0-0---0-0---------0---0--|0---0---0---0-0-0---0---0---0--|
G|2---2-2-2---2-2-2---2---2---2--|1---1---1---1-1-1---1---1---1--|
D|1---1-1-1---1-1-1---1---1---1--|2---2---2---2-2-2---2---2---2--|
A|2---2-2-2---2-2----------------|2---2---2---2-2-2---2---2---2--|
E|----------------2---2----------|0---0---0---0-0-0---0---0---0--|
  made    to          go  out and get her.

  A                               E
e|0------ 0------ 0------ 0------|0------ 0------ 0------ 0------|
B|2-------2-------2-------2------|0-------0-------0-------0------|
G|2-------2-------2-------2------|1-------1-------1-------1------|
D|2-------2-------2-------2------|2-------2-------2-------2------|
A|0---0-------0-------0-------0--|-------------------------------|
E|-------------------------------|0---0-------0---0---0-------0--|

e|------- 0---0-0 ------- 0---0--|0------ 0---0-0 ------- 0---0--|
B|2---2---2---2-2-2---2---2---2--|0-------0---0-0---------0---0--|
G|2---2---2---2-2-2---2---2---2--|1---1---1---1-1---------1---1--|
D|2---2---2---2-2-2---2---2---2--|2---2---2---2-2-2---2---2---2--|
A|0---0---0---0-0-0---0---0---0--|2---2---2---2-2-2---2---2---2--|
E|----------------0---0----------|0---0---0---0-0-0---0---0---0--|
  minute      you let   under your                Then    begin
                     her          skin                you
 (Aaaaaaaaaaaaaaaaaaaaaaaaaaaaaaaaaaaaaaaaaaaaaaaaaaaaaaaaaaaaaaa


  B                               E                           Emaj7
e|------- ------- ------- -------|0------ 0------ 0------ 0---0--|
B|-------------------------------|0-------0-------0-------0---4--|
G|4-------4-------4-------4------|1-------1-------1-------1---1--|
D|4-------4-------4-------4------|2-------2-------2-------2---2--|
A|6-------6-------2-------2------|-------------------------------|
E|7---7-------7---2---2-------2--|0---0-------0-------0-------0--|

e|------- 2-----2 ------- 2-----2|------- 0------ ------- 0-----0|
B|--------0-----0---------0-----0|--------0---------------0-----0|
G|2---2---2-----2---------2-----2|--------1---------------1-----1|
D|1---1---1-----1---------1-----1|2---2---2-----------2---2-----2|
A|2---2---2-----2----------------|2---2---2-----------2---2-----2|
E|----------------2---2----------|0---0---0-----------0---0-----0|
              to  make        better.
                      it
  aaaaaaaaaaaaaaaaaaaaahhhh   better)


  E7                              A               Amaj7
e|0------ 0------ 0------ 0------|0------ 0------ ------- -------|
B|3-------3-------3-------3------|2-------2-------5-------5------|
G|1-------1-------1-------1------|2-------2-------2-------2------|
D|2-------2-------2-------2------|2-------2-------2-------2------|
A|-------------------------------|0---0---0---0------------------|
E|0---0-------0-------0-------0--|----------------4---4---4---4--|

e|------- ------- ------- -------|0---0-- 0------ ------- -------|
B|--------3---------------3------|2---2---2-------5---5---5------|
G|--------1---------------1------|2---2---2-------6---6---6------|
D|2---2---2-------2---2---2------|2---2---2-------6---6---6------|
A|2---2---2-------2---2---2------|0---0---0-------4---4---4------|
E|0---0---0-------0---0---0------|-------------------------------|
      And anytime     you feel  pain,     hey Jude,       refrain,
                              the


  F#m             F#m7            B7
e|------- ------- ------- -------|------- ------- ------- -------|
B|2---2---2-------2---2---2------|0-------0-------0-------0------|
G|2---2---2-------2---2---2------|2-------2-------2-------2------|
D|4---4---4-------4---4---4------|1-------1-------1-------1------|
A|-------------------------------|2---2---2----------------------|
E|2---2---2-------0---0---0------|----------------2---2---2------|

e|------- ------- ------- -------|------- 2-----2 ------- 2------|
B|5---5---5-------5---5---5------|--------0-----0---------0------|
G|2---2---2-------2---2---2------|2---2---2-----2-2---2---2------|
D|4---4---4-------4---4---4------|1---1---1-----1-1---1---1------|
A|4---4---4-------4---4---4------|2---2---2-----2----------------|
E|2---2---2-------0---0---0------|----------------2---2---2------|
          Don't           the world       upon            your
              carry                                           shoul..


  E                           E6  E7
e|0------ ----0-- 0---0-- 0---0--|0------ 0------ ----0-- 0------|
B|0-----------0---0---0---0---0--|3-------3-----------3---3------|
G|1-----------1---1---1---1---1--|1-------1-----------1---1------|
D|2-----------2---2---2---2---2--|2-------2-----------2---2------|
A|-------------------------------|-------------------------------|
E|0-----------0---0---0---0---0--|0-------0-----------0---0------|

e|------- 0-----0 ------- 0------|------- 0------ ------- 0------|
B|--------0-----0---------0------|--------3---------------3------|
G|--------1-----1---------1------|--------1---------------1------|
D|2---2---2-----2-2---2---2------|2---2---2-------2---2---2------|
A|2---2-----------2---2----------|2---2-----------2---2----------|
E|0---0-----------0---0----------|0---0-----------0---0----------|
  ....ders.                           For well  know  that  a fool
                                              you        it's


  A               Amaj7           F#m             F#m7
e|----0-- 0---0-- ------- -------|------- ------- ------- -------|
B|----2---2---2---5-------5---5--|2---2---2---2---2-------2---2--|
G|----2---2---2---2-------2---2--|2---2---2---2---2-------2---2--|
D|----2---2---2---2-------2---2--|4---4---4---4---4-------4---4--|
A|----0---0---0------------------|-------------------------------|
E|----------------4-------4---4--|2---2---2---2---0-------0---0--|

e|------- 0------ ------- -------|------- 2------ ------- 2------|
B|--------2---------------5------|--------5---------------5------|
G|2---2---2-------6---6---6------|2---2---2-------2---2---2------|
D|2---2---2-------6---6---6------|4---4---4-------4---4---4------|
A|0---0---0-------4---4---4------|4---4---4-------4---4---4------|
E|----------------4---4---4------|2---2---2-------0---0---0------|
          who plays       it  cool        By  making      his world
 (Ooooooooooooooooooooooooooooooooooooooooooooooooooooooooooooooo


  B7                              E
e|------- ------- ------- -------|0------ ----0-- 0------ 0------|
B|0-------0-------0-------0------|0-----------0---0-------0------|
G|2-------2-------2-------2------|1-----------1---1-------1------|
D|1-------1-------1-------1------|2-----------2---2-------2------|
A|2---2---2-------2--------------|-------------------------------|
E|------------------------2---0--|0-----------0---0-------0------|

e|------- 2-----2 ------- 2------|------- 0-----0 ------- 0------|
B|--------0-----0---------0------|--------0-----0---------0----0-|
G|2---2---2-----2-2---2---2------|--------1-----1---------1----1-|
D|1---1---1-----1-1---1---1------|2---2---2-----2-2---2---2----2-|
A|2---2---2-----2---------2------|2---2-----------2---2--------2-|
E|----------------2---2----------|0---0-----------0---0----------|

e|------- ------- ------- -------|------- ------- ------- -------|
B|-------------------------------|------------------------0---2--|
G|-------------------------------|--------------------1---1---2--|
D|-------------------------------|--------------------2----------|
A|-------------------------------|-------------------------------|
E|-------------------------------|-------------------------------|
          a   little          colder.                 Na  na  na
  oohhhhhh)                                          (Na  na  na


  E7              B7  B11 B7                      B   B6
e|0------ 0------ ----0-- 2------|2------ ------- 2---4--|
B|3-------3-------4---0---0------|0---------------4---4--|
G|1-------1-------2---2---2------|2---------------4---4--|
D|2-------2-------1---1---1------|1---------------4---4--|
A|----------------2---2---2------|2-----------2---2---2--|
E|0-------0----------------------|-----------------------|

e|0------ 0------ 2---2-- 2-----2|2------ 2------ 2------|
B|0-------0-------0---0---0-----0|0-------0-------0------|
G|1-------1-------2---2---2-----2|2-------2-------2------|
D|2-------2-------1---1---1-----1|1-------1-------1------|
A|2-------2-------2---2---2-----2|2-------2-------2------|
E|0-------0----------------------|-----------------------|

e|------- ------- ------- -------|------- ------- -------|
B|3-------3-------4---5---7------|7----------------------|
G|4-------4-------4---6---8------|8----------------------|
D|-------------------------------|-----------------------|
A|-------------------------------|-----------------------|
E|-------------------------------|-----------------------|
  Na      na      na  na  na      na
  Na      na      na  na  na      na)

              X   XXXX
  B7
e|5------ 5------ -------|
B|4-------4--------------|
G|2-------2--------------|
D|4-------4--------------|
A|2-------2--------------|
E|-----------------------|
                  Hey

  E                               B                       B5  B6
e|0------ 0------ 0------ 0------|------- ------- ------- -------|
B|0-------0-------0-------0------|-------------------------------|
G|1-------1-------1-------1------|4-------4-------4-------4------|
D|2-------2-------2-------2------|4-------4-------4-------4---6--|
A|-------------------------------|6-------6-------2-------2------|
E|0-------0---0---0-------0------|7---7---7-------2---2----------|

e|0---0-- ------- 0---0-- 0---0--|2------ 2-----2 ------- 2-----2|
B|0---0-----------0---0---0---0--|0-------0-----0---------0-----0|
G|1---1-------1---1---1---1---1--|2---2---2-----2-2---2---2-----2|
D|2---2-------2---2---2---2---2--|1---1---1-----1-1---1---1-----1|
A|2---2-------2---2---2---2---2--|2---2---2----------------------|
E|0---0-------0---0---0---0---0--|----------------2---2----------|
  Jude                don't   me                          You have
                          let   down

  B7      B11                     E
e|------- 0------ 0------ 0------|0------ 0------ 0------ 0------|
B|0-------0-------0-------0------|0-------0-------0-------0------|
G|2-------2-------2-------2------|1-------1-------1-------1------|
D|1-------1-------1-------1------|2-------2-------2-------2------|
A|2-------2-------2-------2------|-------------------------------|
E|-------------------------------|0-------0-------0---0---0---0--|

e|------- 2---2-- ------- 2-----2|------- 0------ ------- 0------|
B|--------0---0-----------0-----0|--------0---------------0------|
G|2---2---2---2---2---2---2-----2|--------1---------------1------|
D|1---1---1---1---1---1---1-----1|2---2---2-------2---2---2------|
A|2---2--------------------------|2---2-----------2---2----------|
E|----------------2---2----------|0---0-----------0---0----------|
  found   her,        now go and  get her.                    Re..
                                                             (Re..
                                          (Anyhow     remember


  A                               E
e|0------ 0------ 0------ 0------|0------ 0------ 0------ 0------|
B|2-------2-------2-------2------|0-------0-------0-------0------|
G|2-------2-------2-------2------|1-------1-------1-------1------|
D|2-------2-------2-------2------|2-------2-------2-------2------|
A|0-------0----------------------|-------------------------------|
E|----------------0-------0------|0---0---0-------0-------0------|

e|------- 0------ ------- 0------|------- 0---0-- ----0-- 0------|
B|--------2---------------2------|--------0---0-------0---0------|
G|2---2---2-------2---2---2---2--|--------1---1-------1---1------|
D|2---2---2-------2---2---2---2--|2---2---2---2---2---2---2------|
A|0---0---0-------0---0---0---0--|2---2-----------2--------------|
E|----------------0---0----------|0---0-----------0--------------|
  member      to  let into    your                then    can start
                    her           heart               you
          Hey jude)


  B                               E                           Emaj7
e|------- ------- ------- -------|0------ 0------ ------- 0------|
B|-------------------------------|0-------0---------------0---4--|
G|4-------4-------4-------4------|1-------1---------------1---1--|
D|4-------4-------4-------4------|2-------2---------------2---2--|
A|6-------6-------6-------6------|-------------------------------|
E|7---7---7-------7-------7------|0-------0---------------0---0--|

e|2---2-- 2------ ------- 2------|0------ 0------ ------- 0------|
B|0---0---0-------0---0---0------|0-------0---------------0------|
G|2---2---2-------2---2---2------|1-------1-----------1---1---1--|
D|1---1---1-------1---1---1------|2-------2-----------2---2---2--|
A|2---2---2----------------------|2-------2-----------2-------2--|
E|----------------2---2----------|0-------0-----------0-------0--|
              to  make it     better

  E7                              A                   Amaj7
e|0------ 0------ 0------ 0------|0---0-- ----0-- ------- -------|
B|3-------3-------3-------3------|2---2-------2-------5---5------|
G|1-------1-------1-------1------|2---2-------2-------2---2------|
D|2-------2-------2-------2------|2---2-------2-------2---2------|
A|-------------------------------|0---0-------0------------------|
E|0-------0-------0-------0------|--------------------4---4---4--|

e|0------ 0---0-- 0---0-- 0------|0---0-- 0------ ------- -------|
B|3-------3---3---3---3---3------|2---2---2-------4---4---4------|
G|1-------1---1---1---1---1------|2---2---2-------6---6---6------|
D|2-------2---2---2---2---2------|2---2---2-------6---6---6------|
A|2-------2---2---2---2---2------|0---0---0-------4---4---4------|
E|0-------0---0---0---0---0------|----------------4---4---4------|
      So  let out     and let in,         hey Jude,       begin,
            it              it


  F#m                     F#m7    B
e|------- ------- ------- -------|------- ------- ------- -------|
B|2---2-------2-----------2------|-------------------------------|
G|2---2-------2-----------2------|4---4---4---4---4---4---4---4--|
D|4---4-------4-----------4------|4---4---4---4---4---4---4---4--|
A|-------------------------------|6---6---6---6---6---6---2---2--|
E|2---2-------2-----------0------|7---7---7---7---7---7---2---2--|

e|2---2-- 2------ 2---2-- 2------|2---2-- 2------ ------- 2------|
B|5---5---5-------5---5---5------|0---0---0---------------0------|
G|2---2---2-------2---2---2------|2---2---2-----2-2---2---2------|
D|4---4---4-------4---4---4------|1---1---1-----1-1---1---1------|
A|4---4---4-------4---4---4------|2---2---2-----2----------------|
E|2---2---2-------0---0---0------|----------------2---2----------|
          You're          for someone         to          perform
              waiting


  E                           E6  E7
e|0------ ----0-- 0---0-- 0---0--|0---0-- 0------ 0------ 0------|
B|0-----------0---0---0---0---4--|3---3---3-------3-------3------|
G|1-----------1---1---1---1---1--|1---1---1-------1-------1------|
D|2-----------2---2---2---2---2--|2---2---2-------2-------2------|
A|-------------------------------|-------------------------------|
E|0-----------0---0---0---0---0--|0---0---0-------0-------0------|

e|------- 0------ 0------ 0------|0------ 0------ ------- 0------|
B|--------0-------0-------0------|3-------3---------------3------|
G|--------1-------1-------1------|1-------1-------1---1---1------|
D|2---2---2-------2-------2------|2-------2-------2---2---2------|
A|2---2--------------------------|2-------2-------2---2---2------|
E|0---0--------------------------|0-------0-------0---0---0------|

e|------- ------- ------- -------|------- ------- ------- -------|
B|------------------------0---2--|3------------------------------|
G|--------------------1---1---2--|4------------------------------|
D|--------------------2----------|-------------------------------|
A|-------------------------------|-------------------------------|
E|-------------------------------|-------------------------------|
      with.                             And   you   that    just
                                          don't know  it's      you


      A           Amaj7           F#m             F#m7
e|----0-- ----0-- ------- -------|------- ------- ------- -------|
B|----2-------2---5---5---5---5--|2---2---2---2---2-------2------|
G|----2-------2---2---2---2---2--|2---2---2---2---2-------2------|
D|----2-------2---2---2---2---2--|4---4---4---4---4-------4------|
A|----0-------0------------------|-------------------------------|
E|----------------4---4---4---4--|2---2---2---2---0-------0------|

e|------- 0------ ------- -------|------- 2------ ------- 2------|
B|--------2---------------5------|--------5---------------5------|
G|2---2---2---------------6------|--------2---------------2------|
D|2---2---2-------6---6---6------|4---4---4-------4---4---4------|
A|0---0---0-------4---4---4------|4---4---4-------4---4---4------|
E|----------------4---4---4------|2---2---2-------0---0---0------|
          hey Jude,       you'll          The movement    you need
                              do


  B                               E                           E6
e|------- ------- ------- -------|0------ 0---0-- 0---0-- 0---0--|
B|-------------------------------|0-------0---0---0---0---0---2--|
G|4-------4-------4---4-------4--|1-------1---1---1---1---1---1--|
D|4-------4-------4---4-------4--|2-------2---2---2---2---2---2--|
A|6-------6-------6---6-------2--|-------------------------------|
E|7-------7-------7---7-------2--|0-------0---0---0---0---0---0--|

e|------- 2------ ------- 2---2--|0------ 0------ ------- 0---0--|
B|--------0---------------0---0--|0-------0---------------0---0--|
G|2---2---2-------2---2---2---2--|1-------1---------------1---1--|
D|1---1---1-------1---1---1---1--|2---2---2-------2---2---2---2--|
A|2---2--------------------------|2---2---2-------2---2----------|
E|----------------2---2----------|0---0---0-------0---0----------|

e|------- ------- ------- -------|------- ------- ------- -------|
B|-------------------------------|------------------------0---2--|
G|-------------------------------|--------------------1---1---2--|
D|-------------------------------|--------------------2----------|
A|-------------------------------|-------------------------------|
E|-------------------------------|-------------------------------|
          is  on          your
                              shoulder

  E7              B7  B11 B7                          B6
e|0------ 0------ ----0-- 2------|2------ ------- 2---4--|
B|3-------3-------4---0---0------|0---------------4---4--|
G|1-------1-------2---2---2------|2---------------4---4--|
D|2-------2-------1---1---1------|1---------------4---4--|
A|----------------2---2---2------|2-----------2---2---2--|
E|0-------0----------------------|-----------------------|
  Na      na      na  na  na      na
  Na      na      na  na  na      na)
e|0------ 0------ ------- -------|------- ------- -------|
B|0-------0-------0--------------|--------0-------0------|
G|1-------1-------2--------------|--------2-------2------|
D|2-------2-------1--------------|--------1-------1------|
A|2-------2-------2--------------|--------2-------2------|
E|0-------0----------------------|-----------------------|

e|------- ------- ------- -------|------- ------- -------|
B|3-------3-------4---5---7------|-----------------------|
G|4-------4-------4---6---8------|-----------------------|
D|-------------------------------|-----------------------|
A|-------------------------------|-----------------------|
E|-------------------------------|-----------------------|


              X   X  xX
  B7
e|5------ 5------ -------|
B|4-------4--------------|
G|2-------2--------------|
D|4-------4--------------|
A|2-------2--------------|
E|-----------------------|
                  Hey

  E                               B                       B5  B6
e|0------ 0------ 0------ 0------|------- ------- ------- -------|
B|0-------0-------0-------0------|-------------------------------|
G|1-------1-------1-------1------|4-------4-------4-------4------|
D|2-------2-------2-------2------|4-------4-------4-------4---6--|
A|-------------------------------|6-------6-------6-------2------|
E|0-------0-------0-------0------|7-------7-------7--------------|

e|--0-0-- 0------ 0------ 0------|----2-- ------- ------- -------|
B|0-0-0---0-------0---0---0------|0---0-------------------0------|
G|1-1-1---1-------1---1---1------|2---2---2-------2---2---2------|
D|2-2-2---2---2---2---2---2------|1---1---1-------1---1---1------|
A|2-2-2---2---2---2---2---2------|2---2---2----------------------|
E|0-0-0---0---0---0---0---0------|----------------2---2----------|
 Jude,                don't   it  bad.                    Take
                          make                                a


  B7      B11                     E
e|------- 0------ 0------ 0------|0------ 0------ 0------ 0------|
B|0-------0-------0-------0------|0-------0-------0-------0------|
G|2-------2-------2-------2------|1-------1-------1-------1------|
D|1-------1-------1-------1------|2-------2-------2-------2------|
A|2-------2-------2-------2------|-------------------------------|
E|-------------------------------|0-------0-------0-------0------|

e|------- 2-----2 ------- 2------|------- 0------ ------- 0------|
B|--------0-----0---------0------|--------0---------------0------|
G|2---2---2-----2-2---2---2------|--------1---------------1------|
D|1---1---1-----1-1---1---1------|2-------2-------2---2---2------|
A|2---2---2-----2----------------|2-------2-------2---2---2------|
E|----------------2---2----------|0-------0-------0---0---0------|
  sad     song        and make it better.                    Re..

  A                               E
e|0------ 0------ 0------ 0------|0------ 0------ 0------ 0------|
B|2-------2-------2-------2------|0-------0-------0-------0------|
G|2-------2-------2-------2------|1-------1-------1-------1------|
D|2-------2-------2-------2------|2-------2-------2-------2------|
A|0-------0-------0-------0------|-------------------------------|
E|-------------------------------|0-------0-------0-------0------|

e|------- 0------ ------- 0------|------- 0---0-- ------- 0------|
B|--------2---------------2------|--------0---0-----------0------|
G|2---2---2-------2---2---2------|--------1---1-----------1------|
D|2---2---2-------2---2---2------|2---2---2---2---2---2---2------|
A|0---0---0-------0---0---0------|2---2---2-------2---2---2------|
E|-------------------------------|0---0---0-------0---0---0------|
  member      to  let   under your                Then you
                    her           skin                you begin


  B                               E
e|------- ------- ------- -------|0------ 0------ 0------ 0------|
B|-------------------------------|0-------0-------0-------0------|
G|4-------4-------4-------4------|1-------1-------1-------1------|
D|4-------4-------4-------4------|2-------2-------2-------2------|
A|6-------6-------6-------6------|-------------------------------|
E|7-------7-------7-------7------|0-------0-------0-------0------|

e|2---2-- 2------ ------- 2------|------- 0-----0 ------- 0------|
B|0---0---0---------------0------|--------0-----0---------0------|
G|2---2---2-------2---2---2---2--|--------1-----1---------1------|
D|1---1---1-------1---1---1---1--|2---2---2-----2-2-------2---2--|
A|2---2---2----------------------|2---2-----------2-----------2--|
E|----------------2---2-------2--|0---0-----------0-----------0--|
              to  make        better      better  better  better
                      it

                          x

e|0------ 0------ 0------ -------|
B|0-------0-------0--------------|
G|1-------1-------1--------------|
D|2-------2-------2--------------|
A|-------------------------------|
E|0-------0-------0--------------|
  Better  better, Oh           Oh
  Better  better, Oh)
e|0------ 0------ 0------ -------|
B|0-------0-------0--------------|
G|1-------1-------1--------------|
D|2-------2-------2--------------|
A|2-------2-------2--------------|
E|0-------0-------0--------------|

    CODA
  E                               D
e|0------ 0------ 0------ 0------|0---0-- 0------ 0---0-- 0---0--|
B|0-------0-------0-------0------|3---3---3-------3---3---3---3--|
G|1-------1-------1-------1------|2---2---2-------2---2---2---2--|
D|2-------2-------2-------2------|0---0---0-------0---0---0---0--|
A|-------------------------------|-------------------------------|
E|0-------0-------0-------0------|-------------------------------|

e|0------ 0---0-- 0---0-- 0---0--|2---2-- 2---2-- ------- 2---2--|
B|0-------0---0---0---0---0---0--|3---3---3---3-----------3---3--|
G|1-------1---1---1---1---1---1--|2---2---2---2-----------2---2--|
D|2-------2---2---2---2---2---2--|0---0---0---0-----------0---0--|
A|2-------2---2---2---2---2---2--|-------------------------------|
E|0-------0---0---0---0---0---0--|-------------------------------|
  Yeah      yeah yeah yeah yeah yeah
 (Na              na      na      nanana  na


  A                               E
e|0---0-- 0---0-- 0---0-- 0---0--|0------ 0---0-- ------- 0---0--|
B|2---2---2---2---2---2---2---2--|0-------0---0-----------0---0--|
G|2---2---2---2---2---2---2---2--|1-------1---1-----------1---1--|
D|2---2---2---2---2---2---2---2--|2-------2---2-----------2---2--|
A|0---0---0---0---0---0---0---0--|-------------------------------|
E|-------------------------------|0-------0---0-----------0---0--|

e|0---0-- 0---0-- ----0-- 0---0-0|0---0-- 0-----0 0---0-- 0---0-0|
B|2---2---2---2-------2---2---2-2|0---0---0-----0-0---0---0---0-0|
G|2---2---2---2-------2---2---2-2|1---1---1-----1-1---1---1---1-1|
D|2---2---2---2-------2---2---2-2|2---2---2-----2-2---2---2---2-2|
A|0---0---0---0-------0---0---0-0|2---2---2-----2-2---2---2---2-2|
E|-------------------------------|-------------------------------|
  Nanana  na              Hey Jude)


                                  D
e|0---0-- 0---0-- 0------ 0------|0---0-- 0------ 0---0-- 0---0--|
B|0---0---0---0---0-------0------|3---3---3-------3---3---3---3--|
G|1---1---1---1---1-------1------|2---2---2-------2---2---2---2--|
D|2---2---2---2---2-------2------|0---0---0-------0---0---0---0--|
A|-------------------------------|-------------------------------|
E|0---0---0---0---0-------0------|-------------------------------|

e|0---0-- 0---0-0 0---0-- 0---0-0|2---2-- 2---2-2 2------ 2---2-2|
B|0---0---0---0-0-0---0---0---0-0|3---3---3---3-3-3-------3---3-3|
G|1---1---1---1-1-1---1---1---1-1|2---2---2---2-2-2---2---2---2-2|
D|2---2---2---2-2-2---2---2---2-2|0---0---0---0-0-0---0---0---0-0|
A|2---2---2---2-2-2---2---2---2-2|-------------------------------|
E|0---0---0---0-0-0---0---0---0-0|-------------------------------|
 (Na              na      na      nanana  na


  A                               E
e|0---0-- 0---0-- 0---0-- 0---0--|0---0-- 0---0-- 0---0-- 0---0--|
B|2---2---2---2---2---2---2---2--|0---0---0---0---0---0---0---0--|
G|2---2---2---2---2---2---2---2--|1---1---1---1---1---1---1---1--|
D|2---2---2---2---2---2---2---2--|2---2---2---2---2---2---2---2--|
A|0---0---0---0---0---0---0---0--|-------------------------------|
E|-------------------------------|0---0---0---0---0---0---0---0--|

e|0---0-- 0---0-- 0---0-- 0---0-0|------- 0-----0 --0---0 --0-0-0|
B|2---2---2---2---2---2---2---2-2|--------0-----0---0---0---0-0-0|
G|2---2---2---2---2---2---2---2-2|--------1-----1---1---1---1-1-1|
D|2---2---2---2---2---2---2---2-2|2---2---2-----2---2---2-2-2-2-2|
A|0---0---0---0---0---0---0---0-0|2---2---2-----2---2---2-2-2-2-2|
E|-------------------------------|0---0---0-----0---0---0-0-0-0-0| ....
  Nanana  na              Hey Jude)


        B  Bend
        R  Release
        /  Slide up
        \  Slide down
        H  Hammer-on
        P  Pull-off
        ~  Vibrato
        +  Harmonic
        x  Mute note
        .  Play note like a dot in standard notation
        ^  Ties two notes together
        (. Pause

  ------------------------------------------------------------

  THE BEATLES - REVOLUTION (Lennon & McCartney) First released
                on 30th, August 1968 as the B side of HEY JUDE
                single.

  ------------------------------------------------------------

  Tabbed by:PJVillanueva


  You say you want a revolution
  Well, you know
  We all want to change the world
  You tell me that it's evolution
  Well, you know
  We all want to change the world

  But when you talk about destruction
  Don't you know that you can count me out

  Don't you know it's gonna be all right
  All right, all right

  You say you got a real solution
  Well, you know
  We'd all love to see the plan
  You ask me for a contribution
  Well, you know
  We're doing what we can

  But when you want money
  for people with minds that hate
  All I can tell is brother you have to wait

  Don't you know it's gonna be all right
  All right, all right
  Ah

  Ah, ah, ah, ah, ah...

  You say you'll change the constitution
  Well, you know
  We all want to change your head
  You tell me it's the institution
  Well, you know
  You better free you mind instead

  But if you go carrying pictures of chairman Mao
  You ain't going to make it with anyone anyhow

  Don't you know it's gonna be all right
  All right, all right
  All right, all right, all right
  All right, all right, all right

              Use a capo on the second fret


  12/8


e/5-5-5- 5-5-5- 5-5-5- 5-5-5-/5-5-5- 5-5-5- 5-5-5- 5-5-5-|
B/5-5-5--5-5-5--5-5-5--5-5-5-/5-5-5--5-5-5--5-5-5--5-5-5-|
G|---------------------------|---------------------------|
D|---------------------------|---------------------------|
A|---------------------------|---------------------------|
E|---------------------------|---------------------------|

  X
  x
e/5-5-5- 5-5-5- 5-5-5- 5-5-5-|------ ------ --12-- ------|
B/5-5-5--5-5-5--5-5-5--5-5-5-|8B--------8-1012-------0-3-|
G|---------------------------|---------9----B------------|
D|---------------------------|---------------------------|
A|---------------------------|---------------------------|
E|---------------------------|---------------------------|
                   Aaaaaaaaaaaaaaaaaaaaaaaaaaaahhh     You


  00:08
  A5       A6 ...
e|------ ------ ------ ------|------ ------ ------ ------|
B|---------------------------|---------------------------|
G|---------------------------|---------------------------|
D|2---2--2H4----2---2--2H4---|2---2--2H4----2---2--2H4---|
A|0---0--0---0--0---0--0---0-|0---0--0---0--0---0--0---0-|
E|---------------------------|---------------------------|
  A        A6A7 ...
e|------ ------ ------ ------|------ ------ ------ ------|
B|---------------------------|---------------------------|
G|-----------0---------------|-----------0---------------|
D|2---2--2H4-2---------------|----2--2H4-2---------------|
A|0---0--0---0---------------|----0--0---0---------------|
E|---------------------------|---------------------------|
  Say you     a revolution                         Well
         want

e|------ ------|
B|-------------|
G|-------------|
D|2---2--2H4---|
A|0---0--0---0-|
E|-------------|
         You know


  D5       D6 ....
e|------ ------ ------ ------|------ ------ ------ ------|
B|---------------------------|---------------------------|
G|2---2--2H4----2---2--2H4---|2---2--2H4----2---2--2H4---|
D|0---0--0---0--0---0--0---0-|0---0--0---0--0---0--0---0-|
A|---------------------------|---------------------------|
E|---------------------------|---------------------------|
             D7
e|------ ------ ------ ------|------ ------ ------ ------|
B|-----------1---------------|-----------1---------------|
G|-------2H4-2---------------|-------2H4-2---------------|
D|-------0---0---------------|-------0---0---------------|
A|---------------------------|---------------------------|
E|---------------------------|---------------------------|
                                  We all want   to change
                                                       the


  A
e|------ ------ ------ ------|------ ------ ------ ------|
B|---------------------------|---------------------------|
G|---------------------------|---------------------------|
D|2---2--2H4----2---2--2H4---|2---2--2H4----2---2--2H4---|
A|0---0--0---0--0---0--0---0-|0---0--0---0--0---0--0---0-|
E|---------------------------|---------------------------|

e|------ ------ ------ ------|------ ------ ------ ------|
B|---------------------------|---------------------------|
G|-----------0---------------|-----------0---------------|
D|----2--2H4-2---------------|----2--2H4-2---------------|
A|----0--0---0---------------|----0--0---0---------------|
E|---------------------------|---------------------------|
  world                                                You


  0:21

e|------ ------ ------ ------|------ ------ ------ ------|
B|---------------------------|---------------------------|
G|---------------------------|---------------------------|
D|2---2--2H4----2---2--2H4---|2---2--2H4----2---2--2H4---|
A|0---0--0---0--0---0--0---0-|0---0--0---0--0---0--0---0-|
E|---------------------------|---------------------------|

e|------ ------ ------ ------|------ ------ ------ ------|
B|---------------------------|---------------------------|
G|-----------0---------------|-----------0---------------|
D|2---2--2H4-2---------------|----2--2H4-2---------------|
A|0---0--0---0---------------|----0--0---0---------------|
E|---------------------------|---------------------------|
  Tell   that   evolution                          Well
      me     it's

e|------ ------|
B|-------------|
G|-------------|
D|2---2--2H4---|
A|0---0--0---0-|
E|-------------|
         You know

  D
e|------ ------ ------ ------|------ ------ ------ ------|
B|---------------------------|---------------------------|
G|2---2--2H4----2---2--2H4---|2---2--2H4----2---2--2H4---|
D|0---0--0---0--0---0--0---0-|0---0--0---0--0---0--0---0-|
A|---------------------------|---------------------------|
E|---------------------------|---------------------------|

e|------ ------ ------ ------|------ ------ ------ ------|
B|-----------1---------------|-----------1---------------|
G|----2--2H4-2---------------|----2--2H4-2---------------|
D|----0--0---0---------------|----0--0---0---------------|
A|---------------------------|---------------------------|
E|---------------------------|---------------------------|
                                  We all want   to change
                                                       the


  E
e|------ ------ ------ ------|------ ------ ------ ------|
B|---------------------------|---------------------------|
G|---------------------------|---------------------------|
D|---------------------------|---------------------------|
A|2---2--2H4----2---2--2H4---|2---2--2H4----2---2--2H4---|
E|0---0--0---0--0---0--0---0-|0---0--0---0--0---0--0---0-|

e|------ ------ ------ ------|------ ------ ------ ------|
B|---------------------------|---------------------------|
G|---------------------------|---------------------------|
D|-----------0---------------|-----------0---------------|
A|----2--2H4-2---------------|----2--2H4-2---------------|
E|----0--0---0---------------|----0--0---0---------------|
  world


  00:35
  Bm
e|2----- ------ ------ ------|0----- ------ ------ ------|
B|3--------------------------|0--------------------------|
G|4--------------------------|1--------------------------|
D|4--------------------------|2--------------------------|
A|2--------------------------|2--------------------------|
E|2--------------------------|0--------------------------|
      But    you    about  destruction
         when   talk


  Bm                          G5  A5     F#
e|2----- ------ ------ ------|------ ------ ------ ------|
B|3--------------------------|---------------------------|
G|4--------------------------|-----------3---------3-----|
D|4--------------------------|5---7------4---------4-----|
A|2--------------------------|5---7------4---------4-----|
E|2--------------------------|3---5------2---------2-----|
         Don't  know   you can    me     out
             you    that      count


                E
e|------ ------|------ ------ ------ ------|
B|-------------|---------------------------|
G|3------3-----|1------1------1------1-----|
D|4------4-----|2------2------2------2-----|
A|4------4-----|2------2------2------2-----|
E|2------2-----|0------0------0------0-----|
                         Don't    it's   be
                           you       gonna
                              know

  00:45
  A                           D
e|------ ------ ------ ------|------ ------ ------ ------|
B|---------------------------|---------------------------|
G|---------------------------|2---2--2H4----2---2--2H4---|
D|2---2--2H4----2---2--2H4---|0---0--0---0--0---0--0---0-|
A|0---0--0---0--0---0--0---0-|---------------------------|
E|---------------------------|---------------------------|

e|------ ------ ------ ------|------ ------ ------ ----9-|
B|--------H------------------|-------------------------10|
G|-------911-9---------------|-------------------------9-|
D|-------7---7---------------|-------7H9-7--7---7--7H9---|
A|-------0---0---------------|-------5---5--5H9-5--5-----|
E|---------------------------|---------------------------|
                    Allright

  A                           D
e|------ ------ ------ ------|------ ------ ------ ------|
B|---------------------------|---------------------------|
G|---------------------------|2---2--2H4----2---2--2H4---|
D|2---2--2H4----2---2--2H4---|0---0--0---0--0---0--0---0-|
A|0---0--0---0--0---0--0---0-|---------------------------|
E|---------------------------|---------------------------|

e|------ ------ ------ ------|------ ------ ------ ----9-|
B|--------H------------------|-------------------------10|
G|----9--911-9---------------|-------------------------9-|
D|----7--7---7---------------|----7--7H9-7--7---7--7H9---|
A|----0--0---0---------------|----5--5---5--5H9-5--5-----|
E|---------------------------|---------------------------|
                    Allright

  A                           D
e|------ ------ ------ ------|------ ------ ------ ------|
B|---------------------------|---------------------------|
G|---------------------------|2---2--2H4----2---2--2H4---|
D|2---2--2H4----2---2--2H4---|0---0--0---0--0---0--0---0-|
A|0---0--0---0--0---0--0---0-|---------------------------|
E|---------------------------|---------------------------|

e|------ ------ ------ ------|------ ------ ------ ------|
B|--------B------------------|---------------------------|
G|----9--911-9---------------|---------------------------|
D|----7--7---7---------------|----7--7H9-7--7---7--7H9P7-|
A|----0--0---0---------------|----5--5---5--5H9-5--5---5-|
E|---------------------------|---------------------------|
                    Allright


e|------ ------ ------ ------|------ ------ ------ ------|
B|---------------------------|---------------------------|
G|---------------------------|---------------------------|
D|-----------0--------------2|-----------0-------------0-|
A|-------0H2-----------2H4---|-------0H2-----------2H4---|
E|0---0-------------0--------|----0-------------0--------|
                                                       You


  01:02
  A5       A6 ...
e|------ ------ ------ ------|------ ------ ------ ------|
B|---------------------------|---------------------------|
G|---------------------------|---------------------------|
D|2---2--2H4----2---2--2H4---|2---2--2H4----2---2--2H4---|
A|0---0--0---0--0---0--0---0-|0---0--0---0--0---0--0---0-|
E|---------------------------|---------------------------|
  A        A6A7 ...
e|------ ------ ------ ------|------ ------ ------ ------|
B|--------H------------------|--------H------------------|
G|-------911-9---------------|-------911-9---------------|
D|-------7---7---------------|-------7---7---------------|
A|-------0---0---------------|-------0---0---------------|
E|---------------------------|---------------------------|
  Say you    a  real                               Well
         got        solution

e|------ ------|
B|-------------|
G|-------------|
D|2---2--2H4---|
A|0---0--0---0-|
E|-------------|
         You know


  D5       D6 ....
e|------ ------ ------ ------|------ ------ ------ ------|
B|---------------------------|---------------------------|
G|2---2--2H4----2---2--2H4---|2---2--2H4----2---2--2H4---|
D|0---0--0---0--0---0--0---0-|0---0--0---0--0---0--0---0-|
A|---------------------------|---------------------------|
E|---------------------------|---------------------------|
             D7
e|------ ------ ------ ------|------ ------ ------ ------|
B|---------------------------|---------------------------|
G|-----------5---------------|-----------5---------------|
D|-------7H9-7---------------|-------7H9-7---------------|
A|-------5---5---------------|-------5---5---------------|
E|---------------------------|---------------------------|
                                  We'd   love   to see plan
                                     all             the


  A
e|------ ------ ------ ------|------ ------ ------ ------|
B|---------------------------|---------------------------|
G|---------------------------|---------------------------|
D|2---2--2H4----2---2--2H4---|2---2--2H4----2H4-2--2H4---|
A|0---0--0---0--0---0--0---0-|0---0--0---0--0---0--0---0-|
E|---------------------------|---------------------------|

e|------ ------ ------ ------|------ ------ ------ ------|
B|--------H------------------|--------H------------------|
G|----9--911-9---------------|----9--911-9---------------|
D|----7--7---7---------------|----7--7---7---------------|
A|----0--0---0---------------|----0--0---0---------------|
E|---------------------------|---------------------------|
                                                       You


  01:14

e|------ ------ ------ ------|------ ------ ------ ------|
B|---------------------------|---------------------------|
G|---------------------------|---------------------------|
D|2---2--2H4----2---2--2H4---|2---2--2H4----2---2--2H4---|
A|0---0--0---0--0---0--0---0-|0---0--0---0--0---0--0---0-|
E|---------------------------|---------------------------|

e|------ ------ ------ ------|------ ------ ------ ------|
B|--------H------------------|--------H------------------|
G|-------911-9---------------|-------911-9-------------9-|
D|-------7---7---------------|-------7---7-------------7-|
A|-------0---0---------------|-------0---0-------------0-|
E|---------------------------|---------------------------|
  Ask me for a  contribution                       Well


e|------ ------|
B|-------------|
G|-------------|
D|2---2--2H4---|
A|0---0--0---0-|
E|-------------|
         You know

  D
e|------ ------ ------ ------|------ ------ ------ ------|
B|---------------------------|---------------------------|
G|2---2--2H4----2---2--2H4---|2---2--2H4----2---2--2H4---|
D|0---0--0---0--0---0--0---0-|0---0--0---0--0---0--0---0-|
A|---------------------------|---------------------------|
E|---------------------------|---------------------------|

e|------ ------ ------ ------|------ ------ ------ ------|
B|---------------------------|---------------------------|
G|-----------5---------------|-----------5---------------|
D|-------7H9-7---------------|-------7H9-7---------------|
A|-------5---5---------------|-------5---5---------------|
E|---------------------------|---------------------------|
                                  We are doing     what
                                                     we
                                                       can

  E
e|------ ------ ------ ------|------ ------ ------ ------|
B|---------------------------|---------------------------|
G|---------------------------|---------------------------|
D|---------------------------|---------------------------|
A|2---2--2H4----2---2--2H4---|2---2--2H4----2---2--2H4---|
E|0---0--0---0--0---0--0---0-|0---0--0---0--0---0--0---0-|

e|------ ------ ------ ------|------ 0----- ------ ------|
B|---------------------------|-------0-------------------|
G|4------4H6-4---------------|-------4-------------------|
D|2------2---2---------------|-------2-------------------|
A|---------------------------|---------------------------|
E|0---0--0---0---------------|-------0-------------------|

  01:28
  Bm
e|2----- ------ ------ ------|0----- ------ ------ ------|
B|3--------------------------|0--------------------------|
G|4--------------------------|1--------------------------|
D|4--------------------------|2--------------------------|
A|2--------------------------|2--------------------------|
E|2--------------------------|0--------------------------|
      But  you  money  people minds      hate
         If  want   for    with   that

  Bm                          G5  A5     F#
e|2----- ------ ------ ------|------ ------ ------ ------|
B|3--------------------------|---------------------------|
G|4--------------------------|-----------3---------3-----|
D|4--------------------------|5---7------4---------4-----|
A|2--------------------------|5---7------4---------4-----|
E|2--------------------------|3---5------2---------2-----|
         All can  you  brother    to     wait
           I    tell       you
                    is        have


                E
e|------ ------|------ ------ ------ ------|
B|-------------|---------------------------|
G|3------3-----|1------1------1------1-----|
D|4------4-----|2------2------2------2-----|
A|4------4-----|2------2------2------2-----|
E|2------2-----|0------0------0------0-----|
                         Don't    it's   be
                           you       gonna
                              know

  01:38
  A                           D
e|------ ------ ------ ------|------ ------ ------ ------|
B|---------------------------|---------------------------|
G|---------------------------|2---2--2H4----2---2--2H4---|
D|2---2--2H4----2---2--2H4---|0---0--0---0--0---0--0---0-|
A|0---0--0---0--0---0--0---0-|---------------------------|
E|---------------------------|---------------------------|

e|------ ------ ------ ------|------ ------ ------ ----9-|
B|--------H------------------|-------------------------10|
G|-------911-9---------------|-------------------------9-|
D|-------7---7---------------|-------7H9-7--7---7--7H9---|
A|-------0---0---------------|-------5---5--5H9-5--5-----|
E|---------------------------|---------------------------|
                    Allright

  A                           D
e|------ ------ ------ ------|------ ------ ------ ------|
B|---------------------------|---------------------------|
G|---------------------------|2---2--2H4----2---2--2H4---|
D|2---2--2H4----2---2--2H4---|0---0--0---0--0---0--0---0-|
A|0---0--0---0--0---0--0---0-|---------------------------|
E|---------------------------|---------------------------|

e|------ ------ ------ ------|------ ------ ------ ----9-|
B|--------H------------------|-------------------------10|
G|----9--911-9---------------|-------------------------9-|
D|----7--7---7---------------|----7--7H9-7--7---7--7H9---|
A|----0--0---0---------------|----5--5---5--5H9-5--5-----|
E|---------------------------|---------------------------|
                    Allright

  A                           D
e|------ ------ ------ ------|------ ------ ------ ------|
B|---------------------------|---------------------------|
G|---------------------------|2---2--2H4----2---2--2H4---|
D|2---2--2H4----2---2--2H4---|0---0--0---0--0---0--0---0-|
A|0---0--0---0--0---0--0---0-|---------------------------|
E|---------------------------|---------------------------|

e|------ ------ ------ ------|------ ------ ------ ------|
B|--------H------------------|---------------------------|
G|----9--911-9---------------|------------------7--------|
D|----7--7---7---------------|----7--7H9-7--9---7--------|
A|----0--0---0---------------|----5--5---5--5---5--------|
E|---------------------------|---------------------------|
                    Allright


e|------ ------ ------ ------|------ ------ ------ ------|
B|---------------------------|---------------------------|
G|---------------------------|---------------------------|
D|-----------0--------------2|-----------0-------------0-|
A|-------0H2-----------2H4---|-------0H2-----------2H4---|
E|0---0-------------0--------|----0-------------0--------|

e|------ ------ ------ ---12-|------12----- --12-- -----12
B|------------------------12-B-13-R-12-B-13-R-12-B-13-R-12-|..
G|---------------------------|-----------------------------|
D|---------------------------|-----------------------------|
A|---------------------------|-----------------------------|
E|---------------------------|-----------------------------|


  PIANO SOLO
  01:54
  A
e|------ ------ ------ ------|------ ------ ------ ------|
B|---------------------------|---------------------------|
G|---------------------------|---------------------------|
D|2---2--2H4----2---2--2H4---|2---2--2H4----2---2--2H4---|
A|0---0--0---0--0---0--0---0-|0---0--0---0--0---0--0---0-|
E|---------------------------|---------------------------|

e|------ ------|
B|-------------|
G|-------------|
D|2---2--2H4-2-|
A|0---0--0---0-|
E|-------------|


  D
e|------ ------ ------ ------|------ ------ ------ ------|
B|---------------------------|---------------------------|
G|2---2--2H4----2---2--2H4---|2---2--2H4----2---2--2H4---|
D|0---0--0---0--0---0--0---0-|0---0--0---0--0---0--0---0-|
A|---------------------------|---------------------------|
E|---------------------------|---------------------------|

e|------ ----5- ------ 2-----|0----- ------ ------ 5-----|
B|---------------------------|----3---------5---7--------|
G|-----/-5-------------------|-----------4---------------|
D|---------------------------|---------------------------|
A|---------------------------|---------------------------|
E|---------------------------|---------------------------|


  E
e|------ ------ ------ ------|------ ------ ------ ------|
B|---------------------------|---------------------------|
G|---------------------------|---------------------------|
D|---------------------------|---------------------------|
A|2---2--2H4----2---2--2H4---|2---2--2H4----2---2--2H4---|
E|0---0--0---0--0---0--0---0-|0---0--0---0--0---0--0---0-|

e|------ ------ ------ ------|------ ------ ------ ------|
B|---------------------------|---------------------------|
G|---------------------------|---------------------------|
D|-----------0--------------2|-----------0-------------2-|
A|-------0H2-----------2H4---|-------0H2-----------2H4---|
E|0---0-------------0--------|----0-------------0--------|

e|------ ------ ------ ------|------ ------ ------ ------|
B|4B5-4B5--4B5--4B5-4B5--4B5-|4B5-4B5--4B5-4B5--4B5--4B5-|
G|---------------------------|---------------------------|
D|---------------------------|---------------------------|
A|---------------------------|---------------------------|
E|---------------------------|---------------------------|

e|------ ------ ------ ------|------ ------ ------ ------|
B|---------------------------|---------------------------|
G|---------------------------|---------------------------|
D|-----------0--------------2|-----------0-------------2-|
A|-------0H2-----------2H4---|-------0H2-----------2H4---|
E|0---0-------------0--------|----0-------------0--------|

e|------ ------ ------ ------|------ ------ ------ ------|
B|4B5-4B5--6R5--6R5-6R5--6R5-|6R5-6R5--6R5-6R5B6R5B6R5B6R|
G|---------------------------|---------------------------|
D|---------------------------|---------------------------|
A|---------------------------|---------------------------|
E|---------------------------|---------------------------|
                                                       You


  02:11
  A
e|------ ------ ------ ------|------ ------ ------ ------|
B|---------------------------|---------------------------|
G|---------------------------|---------------------------|
D|2---2--2H4----2---2--2H4---|2---2--2H4----2---2--2H4---|
A|0---0--0---0--0---0--0---0-|0---0--0---0--0---0--0---0-|
E|---------------------------|---------------------------|

e|------ ------ ------ ------|------ ------ ------ ------|
B|--------H------------------|--------H------------------|
G|-------911-9---------------|-------911-9---------------|
D|-------7---7---------------|-------7---7---------------|
A|-------0---0---------------|-------0---0---------------|
E|---------------------------|---------------------------|
  say you'll the                                   Well
         change constitution

e|------ ------|
B|-------------|
G|-------------|
D|2---2--2H4---|
A|0---0--0---0-|
E|-------------|
         You know

  D
e|------ ------ ------ ------|------ ------ ------ ------|
B|---------------------------|---------------------------|
G|2---2--2H4----2---2--2H4---|2---2--2H4----2---2--2H4---|
D|0---0--0---0--0---0--0---0-|0---0--0---0--0---0--0---0-|
A|---------------------------|---------------------------|
E|---------------------------|---------------------------|

e|------ ------ ------ ------|------ ------ ------ ------|
B|-------------------------7-|---------------------------|
G|---------------------------|-----------5---------------|
D|-------7H9-7---------------|-----------7---------------|
A|-------5---5---------------|-----------5---------------|
E|---------------------------|---------------------------|
                                  We all want   to change
                                                       your


  A
e|------ ------ ------ ------|------ ------ ------ ------|
B|---------------------------|---------------------------|
G|---------------------------|---------------------------|
D|2---2--2H4----2---2--2H4---|2---2--2H4----2---2--2H4---|
A|0---0--0---0--0---0--0---0-|0---0--0---0--0---0--0---0-|
E|---------------------------|---------------------------|

e|------ ------ ------ ------|------ ------ ------ ------|
B|---------------------------|---------------------------|
G|-----9-9H119---------------|-------9H119--9------------|
D|-----7-7---7---------------|-------7---7--7------------|
A|-----0-0---0---------------|-------0---0--0------------|
E|---------------------------|---------------------------|
  head                                                 You


  02;24
  A
e|------ ------ ------ ------|------ ------ ------ ------|
B|---------------------------|---------------------------|
G|---------------------------|---------------------------|
D|2---2--2H4----2---2--2H4---|2---2--2H4----2---2--2H4---|
A|0---0--0---0--0---0--0---0-|0---0--0---0--0---0--0---0-|
E|---------------------------|---------------------------|

e|------ ------ ------ ------|------ ------ ------ ------|
B|---------------------------|---------------------------|
G|----9--9H119---------------|----9--9H119-------------9-|
D|----7--7---7---------------|----7--7---7-------------7-|
A|----0--0---0---------------|----0--0---0-------------0-|
E|---------------------------|---------------------------|
  tell   it's   institution                        Well
      me     the

e|------ ------|
B|-------------|
G|-------------|
D|2---2--2H4---|
A|0---0--0---0-|
E|-------------|
         You know

  D
e|------ ------ ------ ------|------ ------ ------ ------|
B|---------------------------|---------------------------|
G|2---2--2H4----2---2--2H4---|2---2--2H4----2---2--2H4---|
D|0---0--0---0--0---0--0---0-|0---0--0---0--0---0--0---0-|
A|---------------------------|---------------------------|
E|---------------------------|---------------------------|

e|------ ------ ------ ------|------ ------ ------ ------|
B|---------------------------|---------------------------|
G|-----------5---------------|-----------5---------------|
D|-------7H9-7---------------|-------7H9-7---------------|
A|-------5---5---------------|-------5---5---------------|
E|---------------------------|---------------------------|
                                  You    free your     instead
                                     better     mind


  E
e|------ ------ ------ ------|------ ------ ------ ------|
B|---------------------------|---------------------------|
G|---------------------------|---------------------------|
D|---------------------------|---------------------------|
A|2---2--2H4----2---2--2H4---|2---2--2H4----2---2--2H4---|
E|0---0--0---0--0---0--0---0-|0---0--0---0--0---0--0---0-|

e|------ ------ ------ ------|------ ------ ------ ------|
B|---------------------------|---------------------------|
G|---------------------------|---------------------------|
D|-------2---2---------2---2-|-------2---2---------2---2-|
A|-------2H4-2---------2H4-2-|-------2H4-2---------2H4-2-|
E|-------0---0------0--0---0-|----0--0---0------0--0---0-|

  02:36
  Bm
e|2----- ------ ------ ------|0----- ------ ------ ------|
B|3--------------------------|0--------------------------|
G|4--------------------------|1--------------------------|
D|4--------------------------|2--------------------------|
A|2--------------------------|2--------------------------|
E|2--------------------------|0--------------------------|
      But  you  carrying   of chairman   Mao
         If  go        pictures

  Bm                          G5  A5     F#
e|2----- ------ ------ ------|------ ------ ------ ------|
B|3--------------------------|---------------------------|
G|4--------------------------|-----------3---------3-----|
D|4--------------------------|5---7------4---------4-----|
A|2--------------------------|5---7------4---------4-----|
E|2--------------------------|3---5------2---------2-----|

e|------ ------ ------ ------|------12----- --12-- ----12|
B|---------------------------|12B14----12B14-----12B14---|
G|---------------------------|---------------------------|
D|---------------------------|---------------------------|
A|---------------------------|---------------------------|
E|---------------------------|---------------------------|
      You  gonna  it   anyone anyhow
         ain't  make
                    with

                E
e|------ ------|------ ------ ------ ------|
B|-------------|---------------------------|
G|3------3-----|1------1------1------1-----|
D|4------4-----|2------2------2------2-----|
A|4------4-----|2------2------2------2-----|
E|2------2-----|0------0------0------0-----|

e|------ 12----|---12- ------12----- --12--|
B|12B14-----12B14-----12B14-----12B14------|
G|-------------|---------------------------|
D|-------------|---------------------------|
A|-------------|---------------------------|
E|-------------|---------------------------|
                         Don't    it's   be
                            you      gonna
                              know
  02:47
  A                           D
e|------ ------ ------ ------|------ ------ ------ ------|
B|---------------------------|---------------------------|
G|---------------------------|2---2--2H4----2---2--2H4---|
D|2---2--2H4----2---2--2H4---|0---0--0---0--0---0--0---0-|
A|0---0--0---0--0---0--0---0-|---------------------------|
E|---------------------------|---------------------------|

e|------ ------ ------ ------|------ ------ ------ ----9-|
B|--------H------------------|-------------------------10|
G|-------911-9---------------|-------------------------9-|
D|-------7---7---------------|-------7H9-7--7---7--7H9---|
A|-------0---0---------------|-------5---5--5H9-5--5-----|
E|---------------------------|---------------------------|

e|------ ------ ------ ------|------ ------ ------ ------|
B12B13-12B13-12B13-12B13-12B13-12B13-12B13R12B13R12-10---|
G|---------------------------|-------------------------9-|
D|---------------------------|---------------------------|
A|---------------------------|---------------------------|
E|---------------------------|---------------------------|
                    Allright

  A                           D
e|------ ------ ------ ------|------ ------ ------ ------|
B|---------------------------|---------------------------|
G|---------------------------|2---2--2H4----2---2--2H4---|
D|2---2--2H4----2---2--2H4---|0---0--0---0--0---0--0---0-|
A|0---0--0---0--0---0--0---0-|---------------------------|
E|---------------------------|---------------------------|

e|------ ------ ------ ------|------ ------ ------ ----9-|
B|--------H------------------|-------------------------10|
G|----9--911-9---------------|-------------------------9-|
D|----7--7---7---------------|----7--7H9-7--7---7--7H9---|
A|----0--0---0---------------|----5--5---5--5H9-5--5-----|
E|---------------------------|---------------------------|
                    Allright

  A                           D
e|------ ------ ------ ------|------ ------ ------ ------|
B|---------------------------|---------------------------|
G|---------------------------|2---2--2H4----2---2--2H4---|
D|2---2--2H4----2---2--2H4---|0---0--0---0--0---0--0---0-|
A|0---0--0---0--0---0--0---0-|---------------------------|
E|---------------------------|---------------------------|

e|------ ------ ------ ------|------ ------ ------ ------|
B|--------H------------------|---------------------------|
G|----9--911-9---------------|------------------7--------|
D|----7--7---7---------------|----7--7H9-7--9---7--------|
A|----0--0---0---------------|----5--5---5--5---5--------|
E|---------------------------|---------------------------|
                    Allright


e|------ ------ ------ ------|------ ------ ------ ------|
B|---------------------------|---------------------------|
G|---------------------------|---------------------------|
D|-----------0--------------2|-----------0-------------0-|
A|-------0H2-----------2H4---|-------0H2-----------2H4---|
E|0---0-------------0--------|----0-------------0--------|
                                                Allright


  03:03
  A                           D
e|------ ------ ------ ------|------ ------ ------ ------|
B|---------------------------|---------------------------|
G|---------------------------|2---2--2H4----2---2--2H4---|
D|2---2--2H4----2---2--2H4---|0---0--0---0--0---0--0---0-|
A|0---0--0---0--0---0--0---0-|---------------------------|
E|---------------------------|---------------------------|

e|------ ------ ------ ------|------ ------ ------ ----9-|
B|--------H------------------|-------------------------10|
G|-------911-9---------------|-------------------------9-|
D|-------7---7---------------|-------7H9-7--7---7--7H9---|
A|-------0---0---------------|-------5---5--5H9-5--5-----|
E|---------------------------|---------------------------|

e|------ ------ ------ ------|------ ------ ------ ------|
B|------------------121212121212121212---------1212121212|
G|---------------------------|---------------------------|
D|---------------------------|---------------------------|
A|---------------------------|---------------------------|
E|---------------------------|---------------------------|
                    Allright                    Allright

  A                           D
e|------ ------ ------ ------|------ ------ ------ ------|
B|---------------------------|---------------------------|
G|---------------------------|2---2--2H4----2---2--2H4---|
D|2---2--2H4----2---2--2H4---|0---0--0---0--0---0--0---0-|
A|0---0--0---0--0---0--0---0-|---------------------------|
E|---------------------------|---------------------------|
                     Allright                   Allright
e|------ ------ ------ ------|------ ------ ------ ----9-|
B|--------H------------------|-------------------------10|
G|----9--911-9---------------|-------------------------9-|
D|----7--7---7---------------|----7--7H9-7--7---7--7H9---|
A|----0--0---0---------------|----5--5---5--5H9-5--5-----|
E|---------------------------|---------------------------|

e|------ ------ ------ ------|------ ------ ------ ------|
B|12121212--------12121212121212121212--------121212121212-|
G|---------------------------|-----------------------------|
D|---------------------------|-----------------------------|
A|---------------------------|-----------------------------|
E|---------------------------|-----------------------------|


  A                           D
e|------ ------ ------ ------|------ ------ ------ ------|
B|---------------------------|---------------------------|
G|---------------------------|2---2--2H4----2---2--2H4---|
D|2---2--2H4----2---2--2H4---|0---0--0---0--0---0--0---0-|
A|0---0--0---0--0---0--0---0-|---------------------------|
E|---------------------------|---------------------------|
                    Allright                    Allright
e|------ ------ ------ ------|------ ------ ------ ------|
B|--------H------------------|---------------------------|
G|----9--911-9---------------|------------------7--------|
D|----7--7---7---------------|----7--7H9-7--9---7--------|
A|----0--0---0---------------|----5--5---5--5---5--------|
E|---------------------------|---------------------------|

e|------ ------ ------ ------|------ ------ ------ ------|
B|12121212121212121212121212121212121212B1312B1312B1312B13
G|---------------------------|---------------------------|
D|---------------------------|---------------------------|
A|---------------------------|---------------------------|
E|---------------------------|---------------------------|

                                         (.
  E                                  Bb7 A7
e|------ ------ ------ ------|------ ------ ------ ------|
B|---------------------------|---------------------------|
G|---------------------------|-------7---6---------------|
D|---------------------------|-------6---5---------------|
A|2---2--2H4----2---2--2H4---|2---2--8---7---------------|
E|0---0--0---0--0---0--0---0-|0---0--6---5---------------|
                All    right

e|------ ------ ------ ------|------ ------ ------ ------|
B|12B1312B1312B1312B13121212121212121212-----------------|
G|---------------------------|---------------------------|
D|---------------------------|---------------------------|
A|---------------------------|---------------------------|
E|---------------------------|---------------------------|


        B  Bend
        R  Release
        /  slide up
        \  slide down
        H  hammer-on
        P  pull-off
        ~  vibrato
        +  harmonic
        x  Mute note
        .  Play note like a dot in standard notation
        ^  Ties two notes together
        (. Pause

  ----------------------------------------------------------------

  THE BEATLES - GET BACK (Lennon & McCartney) Released in the U.K.
                as a single (With DON'T LET ME DOWN as B side) on
                April 11th 1969.

  ----------------------------------------------------------------

  Tabbed by:PJVillanueva


  Jojo was a man who thought he was a loner
  But he knew it wouldn't last.
  Jojo left his home in Tucson, Arizona
  For some California grass.

  Get back, get back.
  Get back to where you once belonged
  Get back, get back.
  Get back to where you once belonged.
  Get back Jojo. Go home

  Get back, get back.
  Back to where you once belonged
  Get back, get back.
  Back to where you once belonged.
  Get back Jo.

  Sweet Loretta Martin thought she was a woman
  But she was another man
  All the girls around her say she's got it coming
  But she gets it while she can

  Get back, get back.
  Get back to where you once belonged
  Get back, get back.
  Get back to where you once belonged.
  Get back Loretta. Go home

  Get back, get back.
  Get back to where you once belonged
  Get back, get back.
  Get back to where you once belonged.
  Get back Loretta
  Your mother's waiting for you
  Wearing her high-heel shoes
  And her low-neck sweater
  Get on home Loretta
  Get back, get back.
  Get back to where you once belonged.

  4/4 Time

  A5
e|------- ------- ------- -------|------- ------- ------- -------|
B|-------------------------------|-------------------------------|
G|-------------------------------|-------------------------------|
D|2-------2---2---2---2---2---2--|2-------2-------2---2---2---2--|
A|0-------0---0---0---0---0---0--|0-------0-------0---0---0---0--|
E|-------------------------------|-------------------------------|

e|------- ------- ------- -------|------- ------- ------- -------|
B|-------------------------------|-------------------------------|
G|----2-------2-------2-------2--|----2-------2-------2-------2--|
D|----2-------2-------2-------2--|----2-------2-------2-------2--|
A|----0-------0-------0-------0--|----0-------0-------0-------0--|
E|-------------------------------|-------------------------------|


                                                  G       D
e|------- ------- ------- -------|------- ------- ------- -------|
B|-------------------------------|-------------------------------|
G|-------------------------------|-------------------------------|
D|2---2---2-------2---2---2---2--|2---2---2-------0-------0------|
A|0---0---0-------0---0---0---0--|0---0---0-------2-------0------|
E|-------------------------------|----------------3-------2------|

e|------- ------- ------- -------|------- ------- 3------ 2------|
B|-------------------------------|----------------3-------3------|
G|----2-------2-------2-------2--|2---2---2-------0-------2------|
D|----2-------2-------2-------2--|2---2---2-------0-------0------|
A|----0-------0-------0-------0--|0---0---0-------2--------------|
E|-------------------------------|----------------3--------------|


  A5      A6      A5 ...
e|------- ------- ------- -------|------- ------- ------- -------|
B|-------------------------------|-------------------------------|
G|-------------------------------|-------------------------------|
D|2-------4-------2-------4------|2-------4-------2-------4---/--|
A|0-------0-------0-------0------|0-------0-------0-------0------|
E|-------------------------------|-------------------------------|

e|------- ------- ------- -------|------- ------- ------- -------|
B|-------------------------------|-------------------------------|
G|2-------2-------2-------2---2--|--------2---2-----------2------|
D|2-------2-------2-------2---2--|--------2---2-----------2------|
A|0-------0-------0-------0---0--|--------0---0-----------0------|
E|-------------------------------|-------------------------------|
  Jojo    was a   man     who thought he  was a   loner       But

  D5      D6      D5 ...          A5
e|------- ------- ------- -------|------- ------- ------- -------|
B|-------------------------------|-------------------------------|
G|2-------4-------2-------4------|-------------------------------|
D|0-------0-------0-------0------|-------------------------------|
A|-------------------------------|-------------------------------|
E|-------------------------------|-------------------------------|

e|------- ------- ------- -------|------- ------- ------- -------|
B|----3-------3-------3-------3--|-------------------------------|
G|----2-------2-------2-------2--|2-----------2---------------2--|
D|----0-------0-------0-------0--|2-----------2---------------2--|
A|-------------------------------|0-----------0---------------0--|
E|-------------------------------|-------------------------------|
      he  knew    wouldn't    last.
              it


  A
e|------- ------- ------- -------|------- ------- ------- -------|
B|-------------------------------|-------------------------------|
G|-------------------------------|-------------------------------|
D|----2---4-------2-------4------|2-------4-------2-------4---2-/|
A|----0---0-------0-------0------|0-------0-------0-------0---0-/|
E|----0--------------------------|-------------------------------|

e|------- ------- ------- -------|------- ------- ------- -------|
B|-------------------------------|----------------------------3--|
G|----2-------2---------------2--|----2-------2-------2-------2--|
D|----2-------2---------------2--|----2-------2-------2-------0--|
A|----0-------0---------------0--|----0-------0-------0----------|
E|-------------------------------|-------------------------------|
  Jojo    left    home    in  Tucson,     Arizona             for
              his


  D                               A
e|------- ------- ------- -------|------- ----12- ------- -------|
B|-------------------------------|----10--12B14---14R1210--------|
G|2-------4-------2--------------/11----------------------11-----|
D|0-------0-------0-------4------|-------------------------------|
A|------------------------0------|-------------------------------|
E|-------------------------------|-------------------------------|

e|------- ------- ------- -------|------- ------- ------- -------|
B|----3-------3-------3----------|-------------------------------|
G|----2-------2-------2-------2--|----2-------2-------2----------|
D|----0-------0-------0-------2--|----2-------2-------2----------|
A|----------------------------0--|----0-------0-------0----------|
E|-------------------------------|-------------------------------|
     some California          grass.                      Get back

                     (A7)
e|------- ------- ----9-9 9-9-9--|------- ------- ----9-9 9-9-9--|
B|--------------------8-8-8-8-8--|--------------------8-8-8-8-8--|
G|--------------------9-9-9-9-9--|--------------------9-9-9-9-9--|
D|------------7------------------|------------7------------------|
A|----7---9----------------------|-----7--9----------------------|
E/9------------------------------/9------------------------------|

e|------- ------- ------- -------|------- ------- ------- -------|
B|-------------------------------|-------------------------------|
G|----2-------2------------------|2-------2-------2-------2------|
D|----2-------2------------------|2-------2-------2-------2------|
A|----0-------0------------------|0-------0-------0-------0------|
E|-------------------------------|-------------------------------|
                          Get back                        Get back

                     (D7)                            (A7)
e|------- ------- ----8-8 8-8-8--|------- ------- ----9-9 9-9-9--|
B|--------------------7-7-7-7-7--|--------------------8-8-8-8-8--|
G|--------------------7-7-7-7-7--|--------------------9-9-9-9-9--|
D|------------7------------------|------------7------------------|
A|----7---9----------------------|----7---9----------------------|
E/9------------------------------/9------------------------------|

e|------- ------- ------- -------|------- ------- --3---- 2------|
B|3-------3-------3-------3------|------------------3-----3------|
G|2-------2-------2-------2------|2---2-------2-----0-----2------|
D|0-------0-------0-------0------|2---2-------2-----0-----0------|
A|-------------------------------|0---0-------0-----2------------|
E|-------------------------------|------------------3------------|
      to  where   once    belonged                        Get back
              you

e|------- ------- ----9-9 9-9-9--|------- ------- ----9-9 9-9-9--|
B|--------------------8-8-8-8-8--|--------------------8-8-8-8-8--|
G|--------------------9-9-9-9-9--|--------------------9-9-9-9-9--|
D|------------7------------------|------------7------------------|
A|----7---9----------------------|-----7--9----------------------|
E/9------------------------------/9------------------------------|

e|------- ----3-- ------- -------|------- ----3-- ------- -------|
B|------------2------------------|------------2------------------|
G|------------0------------------|------------0------------------|
D|------------2------------------|2---2-------2------------------|
A|------------0------------------|0---0-------0------------------|
E|-------------------------------|-------------------------------|

e|------- ------- ------- -------|------- ------- ------- -------|
B|-------------------------------|-------------------------------|
G|------------5------------------|------------5------------------|
D|------------5------------------|------------5------------------|
A|------------0------------------|------------0------------------|
E|-------------------------------|-------------------------------|
                          Get back                        Get back

                      D7          A
e|------- ------- ----8-8 8-8-8--|------- ------- ------- -------|
B|--------------------7-7-7-7-7--|-------------------------------|
G|--------------------7-7-7-7-7--|-------------------------------|
D|------------7------------------|------------7------------------|
A|----7---9----------------------|----7---9----------------------|
E/9------------------------------/9------------------------------|

e|------- ------- ------- -------|------- ------- ------- -------|
B|3---3-------3-------3----------|-------------------------------|
G|2---2-------2-------2-------2--|----2------2--------2-------2--|
D|0---0-------0-------0-------2--|----2------2--------2-------2--|
A|----------------------------0--|----0------0--------0-------0--|
E|-------------------------------|-------------------------------|
      to  where   once    belonged           Get  back  Jo
              you                                     Jo

e|------- ------- ------- -------|----12- ------- ------- -------|
B|----10--10--10------10--12--12B|14----------14-R12--10------10-\-|
G|11-----------------------------|------------------------11-------|
D|-------------------------------|---------------------------------|
A|-------------------------------|---------------------------------|
E|-------------------------------|---------------------------------|

e|------- ------- ------- -------|------- ------- ------- -------|
B|-------------------------------|-------------------------------|
G|2-------2-------2-------2------|2-------2-------2-------2------|
D|2-------2-------2-------2------|2-------2-------2-------2------|
A|0-------0-------0-------0------|0-------0-------0-------0------|
E|-------------------------------|-------------------------------|


  D                               A               G       D
e|------- ------- ------- -------|------- ------- ------- -------|
B|-------------------------------|-------------------------------|
G|------------7-------5-------5--B---6---------------------------|
D|----7-------------------7------|-------------------------------|
A|9-------9----------------------|-------------------------------|
E|-------------------------------|-------------------------------|

e|------- ------- ------- -------|------- ------- 3------ 2------|
B|--------3---------------3------|----------------3-------3------|
G|--------2---------------2------|--------2-------0-------2------|
D|--------0---------------0------|--------2-------0-------0------|
A|-------------------------------|--------0-------2--------------|
E|-------------------------------|----------------3--------------|


  A
e|------- ------- ------- -------|----12- ------- ------- -------|
B|--10---10---10---10---------12-12B14--------14-R12--10------10-\-|
G/11-----------------------------|------------------------11-------|
D|-------------------------------|---------------------------------|
A|-------------------------------|---------------------------------|
E|-------------------------------|---------------------------------|

e|------- ------- ------- -------|------- ------- ------- -------|
B|-------------------------------|-------------------------------|
G|2-------2-------2-------2------|2-------2-------2-------2------|
D|2-------2-------2-------2------|2-------2-------2-------2------|
A|0-------0-------0-------0------|0-------0-------0-------0------|
E|-------------------------------|-------------------------------|


  D                               A               G       D
e|------- ------- ------- -------|------- ------- ------- -------|
B|-------------------------------|----7B8-5----------------------|
G|------------7-------5-------5--B-6----------5---7B9-5---5------|
D|----7---9---------------7------|----------7-----------7--------|
A|9------------------------------|-------------------------------|
E|-------------------------------|-------------------------------|

e|------- ------- ------- -------|------- ------- 3------ 2------|
B|3-------3-------3--------------|----------------3-------3------|
G|2-------2-------2--------------|2-------2-------0-------2------|
D|0-------0-------0--------------|2-------2-------0-------0------|
A|-------------------------------|0-------0-------2--------------|
E|-------------------------------|----------------3--------------|
                                                          Get back

  A
e|------- ------- ------- -------|------- ------- ------- -------|
B|-------------------------------|-------------------------------|
G|-------------------------------|-------------------------------|
D|2-------4-------5-------4------|--------4-------5-------4------|
A|0-------0-------0-------0------|--------0-------0-------0---/--|
E|-------------------------------|-------------------------------|

e|------- ------- ------- -------|------- ------- ------- -------|
B|-------------------------------|-------------------------------|
G|--------2-------2--------------|----2-------2-------2-------2--|
D|--------2-------2--------------|----2-------2-------2-------2--|
A|--------0-------0--------------|----0-------0-------0-------0--|
E|-------------------------------|-------------------------------|

e|------- ------- ------- -------|------- ------- ------- -------|
B|-------------------------------|-------------------------------|
G|------------5------------------|------------5------------------|
D|------------5------------------|------------5------------------|
A|------------0------------------|------------0------------------|
E|-------------------------------|-------------------------------|
                          Get back                        Get back

  D                               A               G       D
e|------- ------- ------- -------|------- ------- ------- -------|
B|-------------------------------|-------------------------------|
G|2-------4-------2-------2------|-------------------------------|
D|0-------0-------0-------0------|2-------4-------5--------------|
A|-------------------------------|0-------0-------0--------------|
E|-------------------------------|-------------------------------|

e|------- ------- ------- -------|------- ------- 3------ 2------|
B|----3-------3-------3-------3--|----------------3-------3------|
G|----2-------2-------2-------2--|2---------------0-------2------|
D|----0-------0-------0-------0--|2---------------0-------0------|
A|-------------------------------|0---------------2--------------|
E|-------------------------------|----------------3--------------|
      to  where   once    belonged                        Get back
              you


  A
e|------- ------- ------- -------|------- ------- ------- -------|
B|-------------------------------|-------------------------------|
G|-------------------------------|-------------------------------|
D|2-------4-------5-------4------|2-------4-------2-------4------|
A|0-------0-------0-------0------|0-------0-------0-------0------|
E|-------------------------------|-------------------------------|

e|------- ----5-- ------- -------|------- ----5-- ------- -------|
B|------------8------------------|------------5------------------|
G|------------6------------------|------------6------------------|
D|------------5------------------|------------5------------------|
A|------------7------------------|------------7------------------|
E|------------5------------------|----5---5---5------------------|

e|------- ------- ------- -------|------- ------- ------- -------|
B|-------------------------------|-------------------------------|
G|------------5------------------|------------5------------------|
D|------------5------------------|------------5------------------|
A|------------0------------------|------------0------------------|
E|-------------------------------|-------------------------------|
                          Get back                        Get back

                          C   D
e|------- ------- ------- -------|------- ------- ------- -------|
B|------------------------5-/-7--|-------------------------------|
G|------------------------5-/-7--|-------------------------------|
D|2-------4-------2-------5-/-7--|-------------------------------|
A|0-------0-------0-------3-/-5--|-------------------------------|
E|-------------------------------|-------------------------------|

e|------- ------- ------- ----2--|------- ------- ------- -------|
B|----------------------------3--|-------------------------------|
G|----2-------2---------------2--|-------------------------------|
D|----2-------2---------------0--|-------------------------------|
A|----0-------0------------------|-------------------------------|
E|-------------------------------|-------------------------------|

e|------- ------- ------- -------|------- ------- ------- -------|
B|-------------------------------|--------7-----------5----------|
G|-------------------------------|-------------------------------|
D|------------------------------5/7-----------5-----------4------|
A|-------------------------------|-------------------------------|
E|-------------------------------|-------------------------------|
      To  where   once    belonged
               you

e|------- ------- ------- -------|
B|3-----------1-------0----------|
G|----------------------------2--|
D|----2-----------0--------------|
A|------------------------3------|
E|-------------------------------|

  PIANO SOLO
  A
e|------- ------- ------- -------|------- ------- ------- -------|
B|-------------------------------|-------------------------------|
G|-------------------------------|-------------------------------|
D|2-------4-------2-------4------|2-------4-------2-------4---2-/|
A|0-------0-------0-------0------|0-------0-------0-------0---0--|
E|-------------------------------|-------------------------------|

e|------- ------- ------- -------|------- ------- ------- -------|
B|---10-----10----10--10--10-10--|---10-----10-------------------|
G|----9------9-11--9---9-/11--9--|----9------9--9---------9---9--|
D|-------------------------------|--------------9H10P9P7------7--|
A|-------------------------------|------------------------9------|
E|-------------------------------|-------------------------------|


  D                               A               G       D
e|------- ------- ------- -------|------- ------- ----9-9 9-9-9--|
B|-------------------------------|--------------------8-8-8-8-8--|
G|2-------4---2---2-------4------|--------------------9-9-9-9-9--|
D|0-------0---0---0-------0------|------------7------------------|
A|-------------------------------|----7---9----------------------|
E|-------------------------------/9------------------------------|

e|------- ------- ------- -------|------- ------- 0------ -------|
B|-------------------------------|--------2-------0-------3------|
G|-------------------------------|--------2-------0-------2------|
D|-------------------------------|--------2-------0-------0------|
A|-------------------------------|--------0-------2--------------|
E|-------------------------------|----------------3--------------|

e|------- ------- ------- -------|------- ------- ------- -------|
B|----7-------7------------------|-------------------------------|
G|----7--------7--7-------5------|-------------------------------|
D|--------------7-7---5---5---7--|----7--------------------------|
A|----------------------------7--|----7--------------------------|
E|-------------------------------|-------------------------------|


  A
e|------- ------- ------- -------|------- ------- ------- -------|
B|-------------------------------|-------------------------------|
G|-------------------------------|-------------------------------|
D|2-------4-------2-------4------|2-------4-------2-------4---/--|
A|0-------0-------0-------0------|0-------0-------0-------0------|
E|-------------------------------|-------------------------------|

e|------- ------- ------- -------|------- ------- ------- -------|
B|----10--10---10---10-10----10--|---10------10------------------|
G|9-11-9---9----9----9--9/11--9--|----9H11----9-9---------9---9--|
D|-------------------------------|--------------9H10P9P7------7--|
A|-------------------------------|------------------------9------|
E|-------------------------------|-------------------------------|


  D                               A               G       D
e|------- ------- ------- -------|------- ------- ----9-9 9-9-9--|
B|-------------------------------|--------------------8-8-8-8-8--|
G|2-------4-------2-------4------|--------------------9-9-9-9-9--|
D|0-------0-------0-------0------|------------7------------------|
A|-------------------------------|----7---9----------------------|
E|-------------------------------/9------------------------------|

e|------- ------- ------- -------|------- ------- 0------ 0------|
B|3-------3---3---3--------------|----------------0-------3------|
G|2-------2---2---2--------------|----------------0-------2------|
D|0-------0---0---0--------------|----------------0-------0------|
A|-------------------------------|----------------2--------------|
E|-------------------------------|----------------3--------------|

e|------- ------- ------- -------|------- ------- ------- -------|
B|----7-------7------------------|---10-----------8--------------|
G|----7--------7--7-------5------|----9-----------7--------------|
D|--------------7-7---5---5---7--|----------------7--------------|
A|----------------------------7--|----------------7--------------|
E|-------------------------------|-------------------------------|

  A
e|------- ------- ------- -------|------- ------- ------- -------|
B|-------------------------------|-------------------------------|
G|-------------------------------|-------------------------------|
D|2-------4-------2-------4------|2-------4-------2---2---4---2--|
A|0-------0-------0-------0------|0-------0-------0---0---0---0--|
E|-------------------------------|-------------------------------|

e|------- ------- ------- -------|------- ------- ------- -------|
B|-------------------------------|----------------------------3--|
G|2-------2-------2-------2---2--|--------2---2---------------2--|
D|2-------2-------2-------2---2--|--------2---2---------------0--|
A|0-------0-------0-------0---0--|--------0---0------------------|
E|-------------------------------|-------------------------------|
  Sweet           Martin      thought she was a   woman       but
      Loretta


  D                               A
e|------- ------- ------- -------|------- ----12- ------- -------|
B|-------------------------------|----10--12B14---14R1210--------|
G|2-------4-------2--------------/11----------------------11-----|
D|0-------0-------0-------4------|-------------------------------|
A|------------------------0------|-------------------------------|
E|-------------------------------|-------------------------------|

e|------- ------- ------- -------|------- ------- ------- -------|
B|----3-------3-------3----------|-------------------------------|
G|----2-------2-------2-------2--|----2---2---------------2------|
D|----0-------0-------0-------2--|----2---2---------------2------|
A|----------------------------0--|----0---0---------------0------|
E|-------------------------------|-------------------------------|
      she was another         man                             All


e|------- ------- ------- -------|------- ------- ------- -------|
B|-------------------------------|-------------------------------|
G|-------------------------------|-------------------------------|
D|----2---4-------2-------4------|2-------4-------2-------4---2-/|
A|----0---0-------0-------0------|0-------0-------0-------0---0-/|
E|-------------------------------|-------------------------------|

e|------- ------- ------- -------|------- ------- ------- -------|
B|-------------------------------|-------------------------------|
G|2-------2---------------2------|2-------2-------2-------2------|
D|2-------2---------------2------|2-------2-------2-------2------|
A|0-------0---------------0------|0-------0-------0-------0------|
E|-------------------------------|-------------------------------|
      the girls           her say    she's    it  coming      but
              around                      got


  D                               A               G6/9
e|------- ------- ------- -------|------- ------- ------- -------|
B|-------------------------------|----7B8-5----------------------|
G|2-------4-------2-------4------|------------5---7B9-5---5------|
D|0-------0-------0-------0------|----------7-----------7--------|
A|-------------------------------|----------------------------5--|
E|-------------------------------|-------------------------------|

e|------- ------- ------- -------|------- ------- 0------ -------|
B|3-------3---------------3------|----------------0--------------|
G|2-------2---------------2------|--------2-------0--------------|
D|0-------0---------------0------|--------2-------0--------------|
A|-------------------------------|--------0-------0--------------|
E|-------------------------------|-------------------------------|
      she gets    while   she can                         Get back
              it


  A
e|------- ------- ----9-9 9-9-9--|------- ------- ----9-9 9-9-9--|
B|--------------------8-8-8-8-8--|--------------------8-8-8-8-8--|
G|--------------------9-9-9-9-9--|--------------------9-9-9-9-9--|
D|------------7------------------|------------7------------------|
A|----7---9----------------------|-----7--9----------------------|
E/9------------------------------/9------------------------------|

e|------- ------- ------- -------|------- ------- ------- -------|
B|-------------------------------|-------------------------------|
G|----2-------2------------------|-------------------------------|
D|----2-------2------------------|-------------------------------|
A|----0-------0------------------|-------------------------------|
E|-------------------------------|-------------------------------|
                          Get back                        Get back

  D
e|------- ------- ----8-8 8-8-8--|------- ------- ----9-9 9-9-9--|
B|--------------------7-7-7-7-7--|--------------------8-8-8-8-8--|
G|--------------------7-7-7-7-7--|--------------------9-9-9-9-9--|
D|------------7------------------|------------7------------------|
A|----7---9----------------------|----7---9----------------------|
E/9------------------------------/9------------------------------|

e|------- ------- ------- -------|------- ------- 0------ -------|
B|----3-------3-------3----------|----------------0--------------|
G|----2-------2-------2----------|----2-------2---0--------------|
D|----0-------0-------0----------|----2-------2---0--------------|
A|-------------------------------|----0-------0---0--------------|
E|-------------------------------|----------------0--------------|
      to  where   once    belonged                        Get back
              you


  A           A7
e|------- ------- ----9-9 9-9-9--|------- ------- ----9-9 9-9-9--|
B|--------------------8-8-8-8-8--|--------------------8-8-8-8-8--|
G|--------------------9-9-9-9-9--|--------------------9-9-9-9-9--|
D|------------7------------------|------------7------------------|
A|----7---9----------------------|-----7--9----------------------|
E/9------------------------------/9------------------------------|

e|------- ------- ------- -------|------- ------- ------- -------|
B|------------2------------------|------------2-----------2------|
G|---2--------0------------------|------------0-----------0------|
D|---2--------2------------------|------------2-----------2------|
A|---0--------0------------------|------------0-----------0------|
E|-------------------------------|-------------------------------|

e|------- ------- ------- -------|------- ------- ------- -------|
B|-------------------------------|-------------------------------|
G|------------5------------------|------------5------------------|
D|------------5------------------|------------5------------------|
A|------------0------------------|------------0------------------|
E|-------------------------------|-------------------------------|
                          Get back                        Get back

  D                               A
e|------- ------- ----8-8 8-8-8--|------- ------- ----9-9 9-9-9--|
B|--------------------7-7-7-7-7--|--------------------8-8-8-8-8--|
G|--------------------7-7-7-7-7--|--------------------9-9-9-9-9--|
D|------------7------------------|------------7------------------|
A|----7---9----------------------|----7---9----------------------|
E/9------------------------------/9------------------------------|

e|------- ------- ------- -------|------- ------- ------- -------|
B|3-------------------3-------3--|-------------------------------|
G|2-------------------2-------2--|2---2-------2-------2----------|
D|0-------------------0-------0--|2---2-------2-------2----------|
A|-------------------------------|0---0-------0-------0----------|
E|-------------------------------|-------------------------------|
      to  where   once     belonged           Get back
                                                      Loretta

e|------- ------- ------- -------|----12- ------- ------- -------|
B|-10--10-10-1010---1010--12--12-12B14-------14-R-12--10------10-\-|
G/11-----------------------------|-----------------------/11-------|
D|-------------------------------|---------------------------------|
A|-------------------------------|---------------------------------|
E|-------------------------------|---------------------------------|

e|------- ------- ------- -------|------- ------- ------- -------|
B|-------------------------------|-------------------------------|
G|2-------2-------2-------2------|2---------------2-------2------|
D|2-------2-------2-------2------|2---------------2-------2------|
A|0-------0-------0-------0------|0---------------0-------0------|
E|-------------------------------|-------------------------------|


  D                               A               G       D
e|------- ------- ------- -------|------- ------- ------- -------|
B|-------------------------------|----7B8-5----------------------|
G|------------7-------5-------5-B|6-----------5---7B9-5---5---7--|
D|----7-------------------7------|----------7-----------7--------|
A|9-------9----------------------|-------------------------------|
E|-------------------------------|-------------------------------|

e|------- ------- ------- -------|------- ------- 3------ 2------|
B|3---------------3-------3------|----------------3-------3------|
G|2---------------2-------2------|2-------2-------0-------2------|
D|0---------------0-------0------|2-------2-------0-------0------|
A|-------------------------------|0-------0-------2--------------|
E|-------------------------------|----------------3--------------|

  A
e|------- ------- ------- -------|------- ------- ------- -------|
B|----10--10--10-----10-H-12--12-|12B14------14---14R1210---12B14|
G|11-----------------------------|------------------------11-----|
D|-------------------------------|-------------------------------|
A|-------------------------------|-------------------------------|
E|-------------------------------|-------------------------------|

e|------- ------- ------- -------|------- ------- ------- -------|
B|-------------------------------|-------------------------------|
G|2-------2-------2-------2------|2---------------2-------2------|
D|2-------2-------2-------2------|2---------------2-------2------|
A|0-------0-------0-------0------|0---------------0-------0------|
E|-------------------------------|-------------------------------|


  D                               A               G6/9
e|------- ------- ------- -------|------- ------- ------- -------|
B|----10--12B1410-12B1410-12B1410|--12B14-10-12--12B1410--10--12-|
G|-------------------------------|----------12----------11-------|
D|-------------------------------|-------------------------------|
A|-------------------------------|-------------------------------|
E|-------------------------------|-------------------------------|

e|------- ------- ------- -------|------- ------- 0------ -------|
B|3-------3-------3-------3------|----------------0--------------|
G|2-------2-------2-------2------|2-------2-------0--------------|
D|0-------0-------0-------0------|2-------2-------0--------------|
A|-------------------------------|0-------0-------0--------------|
E|-------------------------------|-------------------------------|
                                     Go home

  A           A7                  A           A7
e|------- ------- ----9-9 9-9-9--|------- ------- ----9-9 9-9-9--|
B|--------------------8-8-8-8-8--|--------------------8-8-8-8-8--|
G|--------------------9-9-9-9-9--|--------------------9-9-9-9-9--|
D|------------7------------------|------------7------------------|
A|----7---9----------------------|-----7--9----------------------|
E/9------------------------------/9------------------------------|

e|------- ----3-- ------- -------|------- ----3-- ------- -------|
B|------------2------------------|------------2------------------|
G|------------0------------------|------------0------------------|
D|2-------2---2------------------|2---2---2---2------------------|
A|0-------0---0------------------|0---0---0---0------------------|
E|-------------------------------|-------------------------------|

e|------- ------- ------- -------|------- ------- ------- -------|
B|-------------------------------|-------------------------------|
G|------------5------------------|------------5------------------|
D|------------5------------------|------------5------------------|
A|------------0------------------|------------0------------------|
E|-------------------------------|-------------------------------|
                          Get back                        Get back

  D                               A
e|------- ------- ----8-8 8-8-8--|------- ------- ----9-9 9-9-9--|
B|--------------------7-7-7-7-7--|--------------------8-8-8-8-8--|
G|--------------------7-7-7-7-7--|--------------------9-9-9-9-9--|
D|------------7------------------|------------7------------------|
A|----7---9----------------------|----7---9----------------------|
E/9------------------------------/9------------------------------|

e|------- ------- ------- -------|------- ------- ------- -------|
B|------------3------------------|----2-------2-------2----------|
G|------------2------------------|----2-------0-------2----------|
D|------------0------------------|----2-------2-------2----------|
A|-------------------------------|----0-------0-------0----------|
E|-------------------------------|-------------------------------|
      to  where   once    belonged                        Get back
              you

  A           A7                  A           A7
e|------- ------- ----9-9 9-9-9--|------- ------- ----9-9 9-9-9--|
B|--------------------8-8-8-8-8--|--------------------8-8-8-8-8--|
G|--------------------9-9-9-9-9--|--------------------9-9-9-9-9--|
D|------------7------------------|------------7------------------|
A|----7---9----------------------|-----7--9----------------------|
E/9------------------------------/9------------------------------|

e|------- ----3-- ------- -------|------- ----3-- ------- -------|
B|------------2------------------|------------2------------------|
G|------------0------------------|------------0------------------|
D|2-------2---2------------------|2-------2---2------------------|
A|0-------0---0------------------|0-------0---0------------------|
E|-------------------------------|-------------------------------|

e|------- ------- ------- -------|------- ------- ------- -------|
B|-------------------------------|-------------------------------|
G|------------5------------------|------------5------------------|
D|------------5------------------|------------5------------------|
A|------------0------------------|------------0------------------|
E|-------------------------------|-------------------------------|
                          Get back                        Get back


                              (.
                          C   D
e|------- ------- ------- -------|------- ------- ------- -------|
B|------------------------5-/-7--|-------------------------------|
G|------------------------5-/-7--|-------------------------------|
D|x-------x-------x-------5-/-7--|-------------------------------|
A|x-------x-------x-------3-/-5--|-------------------------------|
E|-------------------------------|-------------------------------|

e|------- ------- ------- ----2--|------- ------- ------- -------|
B|----------------------------3--|-------------------------------|
G|----------------------------2--|-------------------------------|
D|----------------------------0--|-------------------------------|
A|----0--------------------------|-------------------------------|
E|-------------------------------|-------------------------------|
                                                          (.
e|------- ------- ------- -------|------- ------- ------- -------|
B|-------------------------------|--------7-----------5---3------|
G|-------------------------------|------------------------5------|
D|------------------------------5/7-----------5-----------4------|
A|-------------------------------|-------------------------------|
E|-------------------------------|-------------------------------|
      to where    once    belonged                      Oooooooh
             you

e|------- ------- ------- -------|------- ------- ------- -------|
B|-------------------------------|-------------------------------|
G|-------------------------------|-------------------------------|
D|-------------------------------|-------------------------------|
A|-------------------------------|-------------------------------|
E|-------------------------------|-------------------------------|

  x x  x  X   X

e|------- -------|
B|---------------|
G|---------------|
D|---------------|
A|---------------|
E|---------------|

  A
e|------- ------- ------- -------|------- ------- ------- -------|
B|-------------------------------|-------------------------------|
G|-------------------------------|-------------------------------|
D|--------4-------2-------4------|2-------4-------2-------4---2-/|
A|--------0-------0-------0------|0-------0-------0-------0---0--|
E|-------------------------------|-------------------------------|

e|------- ------- ------- -------|------- ------- ------- -------|
B|-------------------------------|-------------------------------|
G|--------2-------2-------2------|2-------2-------2-------2------|
D|--------2-------2-------2------|2-------2-------2-------2------|
A|--------0-------0-------0------|0-------0-------0-------0------|
E|-------------------------------|-------------------------------|
                                            Get back Loretta

  D                               A               G       D
e|------- ------- ------- -------|------- ------- ----9-9 9-9-9--|
B|-------------------------------|--------------------8-8-8-8-8--|
G|2-------4-------2-------4------|--------------------9-9-9-9-9--|
D|0-------0-------0-------0------|------------7------------------|
A|-------------------------------|----7---9----------------------|
E|-------------------------------/9------------------------------|

e|------- ------- ------- -------|------- ------- 3------ 2------|
B|3---------------3-------3------|----------------3-------3------|
G|2---------------2-------2------|2---------------0-------2------|
D|0---------------0-------0------|2---------------0-------0------|
A|-------------------------------|0---------------2--------------|
E|-------------------------------|----------------3--------------|
                    Your mama's waiting for you      wearing her
                                                               high


  A
e|------- ------- ----9-9 9-9----|------- ------- ----9-9 9------|
B|--------------------8-8-8-8----|--------------------8-8-8------|
G|--------------------9-9-9-9----|--------------------9-9-9------|
D|------------7------------------|------------7------------------|
A|----7---9----------------------|-----7--9----------------------|
E/9------------------------------/9------------------------------|

e|------- ------- ------- -------|------- ------- ------- -------|
B|-------------------------------|-------------------------------|
G|2---------------2--------------|2-------2-------2-------2------|
D|2---------------2--------------|2-------2-------2-------2------|
A|0---------------0--------------|0-------0-------0-------0------|
E|-------------------------------|-------------------------------|
      heeled  shoes                         and her low neck sweater

  D                               A               G       D
e|------- ------- ----8-8 8-8----|------- ------- ----9-9 9-9----|
B|--------------------7-7-7-7----|--------------------8-8-8-8----|
G|--------------------7-7-7-7----|--------------------9-9-9-9----|
D|------------7------------------|------------7------------------|
A|----7---9----------------------|----7---9----------------------|
E/9------------------------------/9------------------------------|

e|------- ------- ------- -------|------- ------- 3------ 2------|
B|3---------------3-------3------|----------------3-------3------|
G|2---------------2-------2------|2-------2---2---0-------2------|
D|0---------------0-------0------|2-------2---2---0-------0------|
A|-------------------------------|0-------0---0---2--------------|
E|-------------------------------|----------------3--------------|
                    Get back home    Loretta              Get back

  A           A7                  A           A7
e|------- ------- ----9-9 9-9----|------- ------- ----9-9 9-9----|
B|--------------------8-8-8-8----|--------------------8-8-8-8----|
G|--------------------9-9-9-9----|--------------------9-9-9-9----|
D|------------7------------------|------------7------------------|
A|----7---9----------------------|-----7--9----------------------|
E/9------------------------------/9------------------------------|

e|------- ----3-- ------- -------|------- ----3-- ------- -------|
B|------------2------------------|------------2------------------|
G|------------0------------------|------------0------------------|
D|--------2---2------------------|2-------2---2------------------|
A|--------0---0------------------|0-------0---0------------------|
E|-------------------------------|-------------------------------|

e|------- ------- ------- -------|------- ------- ------- -------|
B|-------------------------------|-------------------------------|
G|------------5------------------|------------5------------------|
D|------------5------------------|------------5------------------|
A|------------0------------------|------------0------------------|
E|-------------------------------|-------------------------------|
                          Get back                        Get back

  D                           A                   G6/9
e|------- ------- ----8-8 8-8----|------- ------- ----9-9 9-9----|
B|--------------------7-7-7-7----|--------------------8-8-8-8----|
G|--------------------7-7-7-7----|--------------------9-9-9-9----|
D|------------7------------------|------------7------------------|
A|----7---9----------------------|----7---9----------------------|
E/9------------------------------/9------------------------------|

e|------- ------- ------- -------|------- ------- 0------ -------|
B|3-------3---3---3-------3------|----------------0--------------|
G|2-------2---2---2-------2---2--|----2-------2---0--------------|
D|0-------0---0---0-------0---2--|----2-------2---0--------------|
A|----------------------------0--|----0-------0---0--------------|
E|-------------------------------|----------------0--------------|
      to  where once belonged                         Oh  Get back
              you


  A           A7                  A           A7
e|------- ------- ----9-9 9-9----|------- ------- ----9-9 9--9---|
B|--------------------8-8-8-8----|--------------------8-8-8--8---|
G|--------------------9-9-9-9----|--------------------9-9-9--9---|
D|------------7------------------|------------7------------------|
A|----7---9----------------------|-----7--9----------------------|
E/9------------------------------/9------------------------------|

e|------- ----3-- ------- 3------|------- ----3-- ------- 3---3--|
B|------------2-----------2------|------------2-----------2---2--|
G|------------0-----------0------|------------0-----------0---0--|
D|2-------2---2-----------2------|2---2-------2-----------2---2--|
A|0-------0---0-----------0------|0---0-------0-----------0---0--|
E|-------------------------------|-------------------------------|
                      Get back                            Get back
  .............................Fade..............................


  D                               A
e|------- ------- ----8-8 8--8---|------- ------- ----9-9 9--9---|
B|--------------------7-7-7--7---|--------------------8-8-8--8---|
G|--------------------7-7-7--7---|--------------------9-9-9--9---|
D|------------7------------------|------------7------------------|
A|----7---9----------------------|----7---9----------------------|
E/9------------------------------/9------------------------------|

e|------- ------- ------- -------|------- ------- ------- -------|
B|------------3-------3-------3--|-------------------------------|
G|------------2-------2-------2--|----2---2-----------2-------2--|
D|------------0-------0-------0--|----2---2-----------2-------2--|
A|-------------------------------|----0---0-----------0-------0--|
E|-------------------------------|-------------------------------|
                      Oh  yeah                               JoJo
  ...............................................................

e|------- ------- ----9-9 9--9---|
B|--------------------8-8-8--8---|
G|--------------------9-9-9--9---|
D|------------7------------------|
A|----7---9----------------------|
E/9------------------------------|

e|------- ------- ------- -------|
B|-------------------------------|
G|----2-------2-------2-------2--|
D|----2-------2-------2-------2--|
A|----0-------0-------0-------0--|
E|-------------------------------|
  ..............................

        B  Bend
        R  Release
        /  slide up
        \  slide down
        H  hammer-on
        P  pull-off
        ~  vibrato
        +  harmonic
        x  Mute note
        . - play note like a dot in standard notation
        ^ - ties two notes together
        (.  Pause

    -----------------------------------------------------------

    THE BEATLES -  DON'T LET ME DOWN (Lennon & McCartney). From
                   LET IT BE NAKED album. Released 18th November
                   2003.

    -----------------------------------------------------------

    Tabbed by:PJVillanueva


    Don't let me down  don't let me down
    Don't let me down  don't let me down

    Nobody ever loved me like she does
    Ooh she does  yeah she does

    And if somebody ever loved me like she does
    Ohh she do me  yeah she does.

    Don't let me down  don't let me down
    Don't let me down  don't let me down

    I'm in love for the first time
    Don't you know it's gonna last
    It's a love that lasts forever
    It's a love that has no past

    Don't let me down  don't let me down
    Don't let me down  don't let me down

    And from the first time that she really done me
    Ooh she done me  she done me good.

    I guess nobody ever really done me
    Ooh she done me  she done me good

    Don't let me down  don't let me down
    Don't let me down  don't let me down

    Please ....

    4/4 time
                                            X
                                   (.

  e|------- ------- ------- -------|------- ------- ------- -------|
  B|-------------------------------|-------------------------------|
  G|------------9---9---9----------|-------------------------------|
  D|------------9---911-9----------|-------------------------------|
  A|11------9H11-----H------9---12-|11-----------------------------|
  E|-------------------------------|-------------------------------|
                                                    Don't let   me

    F#m7
  e|2-----2 2-----2 2-2-2-2 2---2-2|2---2-2 2-2-2-2 2-----2 2-2-2--|
  B|2-----2-2-----2-2-2-2-2-2---2-2|2---2-2-2-2-2-2-2-----2-2-2-2--|
  G|2-----2-2-----2-2-2-2-2-2---2-2|2---2-2-2-2-2-2-2-----2-2-2-2--|
  D|2-----2-2-----2-2-2-2-2-2---2-2|2---2-2-2-2-2-2-2-----2-2-2-2--|
  A|4-----4-4-----4-4-4-4-4-4---4-4|4---4-4-4-4-4-4-4-----4-4-4-4--|
  E|2-----2-2-----2-2-2-2-2-2---2-2|2---2-2-2-2-2-2-2-----2-2-2-2--|

  e|-9----- -9----- -9----- -9-----|-9----- -9----- -9----- -------|
  B|10------10------10------10-----|10------10------10-------------|
  G|11------11------11------11-----|11------11------11-------------|
  D|11------11------11------11-----|11------11------11-------------|
  A|-9-------9-------9-------9-----|-9-------9-------9-------------|
  E|-------------------------------|-------------------------------|

  e|------- 14---12 1412--- 12-1412/14-14-- ------- ------- -------|
  B|--------14---12-141214--12-1412/14-1214------------------------|
  G|--------------------14---------|-----H-------------------------|
  D|-------------------------------|-------------------------------|
  A|-------------------------------|-------------------------------|
  E|-------------------------------|-------------------------------|
    down                                            Don't let   me

    E               Esus4           E
  e|0-----0 0---0-0 0-0-0-0 --0-0--|0---0-0 0-0-0-0 0---0-0 0-0-0--|
  B|0-----0-0---0-0-0-0-0-0---0-0--|0---0-0-0-0-0-0-0---0-0-0-0-0--|
  G|1-----1-1---1-1-2-2-2-2---2-2--|1---1-1-1-1-1-1-1---1-1-1-1-1--|
  D|2-----2-2---2-2-2-2-2-2---2-2--|2---2-2-2-2-2-2-2---2-2-2-2-2--|
  A|2-----2-2---2-2-2-2-2-2---2-2--|2---2-2-2-2-2-2-2---2-2-2-2-2--|
  E|0-----0-0---0-0-0-0-0-0---0-0--|0---0-0-0-0-0-0-0---0-0-0-0-0--|

  e|------- ------- ------- -------|------- ------- ------- -------|
  B|----------------9---9----------|-------------------------------|
  G|-9--------------9---9--------9-|----x----9-------9-------------|
  D|-9--------------9---9--------9-|----x----9-------9-------------|
  A|11--------------------------11-|----x---11------11-------------|
  E|-------------------------------|-------------------------------|

  e|------- 7H9---7 0--0--- -------|------- ------- ------- -------|
  B|--------9-------89-97---5---5--|5------------------------------|
  G|----------------/---\-------6--|4------------------------------|
  D|----------------------------7--|6------------------------------|
  A|-------------------------------|-------------------------------|
  E|-------------------------------|-------------------------------|
    down                                            Don't let   me

    F#m7
  e|2---2-2 2---2-2 2-2-2-- 2-2-2--|2-----2 2-2-2-2 2---2-- 2-2-2--|
  B|2---2-2-2---2-2-2-2-2---2-2-2--|2-----2-2-2-2-2-2---2---2-2-2--|
  G|2---2-2-2---2-2-2-2-2---2-2-2--|2-----2-2-2-2-2-2---2---2-2-2--|
  D|2---2-2-2---2-2-2-2-2---2-2-2--|2-----2-2-2-2-2-2---2---2-2-2--|
  A|4---4-4-4---4-4-4-4-4---4-4-4--|4-----4-4-4-4-4-4---4---4-4-4--|
  E|2---2-2-2---2-2-2-2-2---2-2-2--|2-----2-2-2-2-2-2---2---2-2-2--|

  e|------- -9----- -9----9 ----9-9|------- -9----- ------- -------|
  B|--------10------10---10----1010|--------10--------------10-----|
  G|--------11------11---11----1111|--------11--11----------11-----|
  D|--------11------11---11----1111|--------11---------------------|
  A|---------9-------9----9-----9-9|---------9---------------------|
  E|-------------------------------|-------------------------------|

  e|------- 14---12 1412--- 12-1412|14--14- ------- ------- -------|
  B|--------14---12-141214--12-1412|14--14-------------------------|
  G|--------------------14---------|-------------------------------|
  D|-------------------------------|-------------------------------|
  A|-------------------------------|-------------------------------|
  E|-------------------------------|-------------------------------|
    down                                            Don't let   me

    E               Esus4
  e|0-----0 0-0---- 0-0-0-0 --0-0--|
  B|0-----0-0-0-----0-0-0-0---0-0--|
  G|1-----1-1-1-----2-2-2-2---2-2--|
  D|2-----2-2-2-----2-2-2-2---2-2--|
  A|2-----2-2-2-----2-2-2-2---2-2--|
  E|0-----0-0-0-----0-0-0-0---0-0--|

  e|------- ------- ------- -------|
  B|-------------------------------|
  G|-9----------9---9---9----------|
  D|-9----------9---911-9----------|
  A|11------9H11-----H------9---12-|
  E|-------------------------------|

  e|------- 7H9---7 0--0--- -------|
  B|--------9-------89-97-5-----5--|
  G|----------------/---\-------6--|
  D|----------------------------7--|
  A|-------------------------------|
  E|-------------------------------|
    down


    5/4
   (.
    E
  e|0------ ------- ------- ------- -------|
  B|0--------------------------------------|
  G|1--------------------------------------|
  D|2--------------------------------------|
  A|2--------------------------------------|
  E|0--------------------------------------|

  e|------- ------- ------- ------- -------|
  B|---------------------------------------|
  G|---------------------------------------|
  D|---------------------------------------|
  A|11-------------------------------------|
  E|---------------------------------------|

  e|------- ------- ------- ------- -------|
  B|5--------------------------------------|
  G|4--------------------------------------|
  D|6--------------------------------------|
  A|---------------------------------------|
  E|---------------------------------------|
        Nobody      ever    loved   like  does,
                                me      she

    4/4
    00:30
    F#m                             F#m7
  e|2---2-2 2-2-2-2 2---2-- 2-2-2-2|2---2-2 2---2-2 2-2-2-2 2-2-2--|
  B|2---2-2-2-2-2-2-2---2---2-2-2-2|2---2-2-2---2-2-2-2-2-2-2-2-2--|
  G|2---2-2-2-2-2-2-2---2---2-2-2-2|2---2-2-2---2-2-2-2-2-2-2-2-2--|
  D|4---4-4-4-4-4-4-4---4---4-4-4-4|2---2-2-2---2-2-2-2-2-2-2-2-2--|
  A|4---4-4-4-4-4-4-4---4---4-4-4-4|4---4-4-4---4-4-4-4-4-4-4-4-4--|
  E|2---2-2-2-2-2-2-2---2---2-2-2-2|2---2-2-2---2-2-2-2-2-2-2-2-2--|

  e|14-\12- 12--12- -9---9- -9-----|------- ------- ------- -------|
  B|14-\10--10--10--------------10-|10-\7---7---7-\-5---5-\-2-H-5--|
  G|---------------H11--11--11---9-|-9-\6---6---6-\-4---4-\-2------|
  D|-------------------------------|-------------------------------|
  A|-------------------------------|-------------------------------|
  E|-------------------------------|-------------------------------|

  e|14--12- 12--12- -9---9- 9------|------- ------- ------- -------|
  B|10------10--10------10-10---10-|10------10------10------10-----|
  G|11------11--11------11-11------|11--11--11--9----9-------9--9--|
  D|-------------------------------|11------11------11--11--11-----|
  A|-------------------------------|-------------------------------|
  E|-------------------------------|-------------------------------|
                            Ooh she                         yeah  does.
                                  does,                         she


    Emaj7
  e|0---0-0 0---0-0 0---0-0 0-0-0-0|
  B|0---0-0-0---0-0-0---0-0-0-0-0-0|
  G|1---1-1-1---1-1-1---1-1-1-1-1-1|
  D|1---1-1-1---1-1-1---1-1-1-1-1-1|
  A|2---2-2-2---2-2-2---2-2-2-2-2-2|
  E|0---0-0-0---0-0-0---0-0-0-0-0-0|

  e|4------ ----4-- ------- ----4--|
  B|4-------4---5-------4----------|
  G|4-----------4---------4---4----|
  D|2-----------------------2------|
  A|-------------------------------|
  E|-------------------------------|

  e|4------ ------- ------- -------|
  B|4------------------------------|
  G|4-------------------------9----|
  D|------------------------7---7--|
  A|6-------------------6----------|
  E|-------------------------------|

   (.

  e|0------ ------- ------- ------- -------|
  B|0--------------------------------------|
  G|1--------------------------------------|
  D|1--------------------------------------|
  A|2--------------------------------------|
  E|0--------------------------------------|

  e|------- ------- ------- ------- -------|
  B|---------------------------------------|
  G|---------------------------------------|
  D|---------------------------------------|
  A|---------------------------------------|
  E|---------------------------------------|

  e|------- ------- ------- ------- -------|
  B|5--------------------------------------|
  G|4--------------------------------------|
  D|6--------------------------------------|
  A|---------------------------------------|
  E|---------------------------------------|
        And if  somebody    loved   like  does
                                me      she

    00:42

  e|2---2-2 2---2-- 2-2-2-2 2-2-2-2|2---2-2 2-2-2-2 2-2-2-2 2---2--|
  B|2---2-2-2---2---2-2-2-2-2-2-2-2|2---2-2-2-2-2-2-2-2-2-2-2---2--|
  G|2---2-2-2---2---2-2-2-2-2-2-2-2|2---2-2-2-2-2-2-2-2-2-2-2---2--|
  D|4---4-4-4---4---4-4-4-4-4-4-4-4|2---2-2-2-2-2-2-2-2-2-2-2---2--|
  A|4---4-4-4---4---4-4-4-4-4-4-4-4|4---4-4-4-4-4-4-4-4-4-4-4---4--|
  E|2---2-2-2---2---2-2-2-2-2-2-2-2|2---2-2-2-2-2-2-2-2-2-2-2---2--|

  e|14-\12- 12--12- -9---9- -9-----|------- ------- ------- -------|
  B|14-\10--10--10--------------10-|10-\7---7---7-\-5---5-\-2-H-5--|
  G|---------------H11--11--11---9-|-9-\6---6---6-\-4---4-\-2------|
  D|-------------------------------|-------------------------------|
  A|-------------------------------|-------------------------------|
  E|-------------------------------|-------------------------------|

  e|14--12- 12--12- -9---9- 9------|------- ------- ------- -------|
  B|10------10--10------10-10---10-|10------10------10------10-----|
  G|11------11--11------11-11------|11--11--11--9----9-------9--9--|
  D|-------------------------------|11------11------11--11--11-----|
  A|-------------------------------|-------------------------------|
  E|-------------------------------|-------------------------------|
                            Ooh she     me                  yeah  does.
                                  do                            she


                                   (.       x       X     X     X

  e|0---0-0 0---0-0 0---0-0 --0-0--|0------ ------- ------- -------|
  B|0---0-0-0---0-0-0---0-0-0-0-0--|0------------------------------|
  G|1---1-1-1---1-1-1H2-2-2-2-2-2--|1------------------------------|
  D|2---2-2-2---2-2-2---2-2-2-2-2--|2------------------------------|
  A|2---2-2-2---2-2-2---2-2-2-2-2--|2------------------------------|
  E|0---0-0-0---0-0-0---0-0-0-0-0--|0------------------------------|

  e|------- 7------ ------- -------|------- ------- ------- -------|
  B|--------9-------9-----9---9-9--|9------------------------------|
  G|--------9-------9-----9---9-9--|9------------------------------|
  D|--------9-------9H11-11--1111--|9------------------------------|
  A|--------7----------------------|-------------------------------|
  E|-------------------------------|-------------------------------|

  e|------- ------- ------- -------|------- ------- ------- -------|
  B|5---------------5-----5-----5--|5------------------------------|
  G|4---------------4-----4-----4--|4------------------------------|
  D|6---------------6H7---7-----7--|6------------------------------|
  A|-------------------------------|-------------------------------|
  E|-------------------------------|-------------------------------|
                                                    Don't let   me

    00:54

  e|2---2-2 2-2-2-- 2-2-2-2 2-2-2--|2---2-2 2-2-2-2 2---2-2 2------|
  B|2---2-2-2-2-2---2-2-2-2-2-2-2--|2---2-2-2-2-2-2-2---2-2-2------|
  G|2---2-2-2-2-2---2-2-2-2-2-2-2--|2---2-2-2-2-2-2-2---2-2-2------|
  D|4---4-4-4-4-4---4-4-4-4-4-4-4--|2---2-2-2-2-2-2-2---2-2-2------|
  A|4---4-4-4-4-4---4-4-4-4-4-4-4--|4---4-4-4-4-4-4-4---4-4-4------|
  E|2---2-2-2-2-2---2-2-2-2-2-2-2--|2---2-2-2-2-2-2-2---2-2-2------|

  e|-9----9 -9----- 1212-12 -1212--|---12-- 12----- -9----9 -------|
  B|10---10-10------1010-10--1010--|---10---10------10---10--------|
  G|11---11-11-------9-9--9---9-9--|---11---11------11---11--------|
  D|11---11-11------1111-11--1111--|---11---11------11---11--------|
  A|-9----9--9-------9-9------9-9--|----9----9-------9----9--------|
  E|-------------------------------|-------------------------------|

  e|------- 14---12 1412--- 12-1412/14-14-- ------- ------- -------|
  B|--------14---12-141214--12-1412/14-1214------------------------|
  G|--------------------14---------|-----H-------------------------|
  D|-------------------------------|-------------------------------|
  A|-------------------------------|-------------------------------|
  E|-------------------------------|-------------------------------|
    down                                            Don't let   me

    E               Esus4           E
  e|0---0-0 0---0-0 0-0-0-0 0-0-0-0|0---0-0 0-0-0-- 0---0-- 0-0-0--|
  B|0---0-0-0---0-0-0-0-0-0-0-0-0-0|0---0-0-0-0-0---0---0---0-0-0--|
  G|1---1-1-1---1-1-2-2-2-2-2-2-2-2|1---1-1-1-1-1---1---1---1-1-1--|
  D|2---2-2-2---2-2-2-2-2-2-2-2-2-2|2---2-2-2-2-2---2---2---2-2-2--|
  A|2---2-2-2---2-2-2-2-2-2-2-2-2-2|2---2-2-2-2-2---2---2---2-2-2--|
  E|0---0-0-0---0-0-0-0-0-0-0-0-0-0|0---0-0-0-0-0---0---0---0-0-0--|

  e|------- ------- ------- -------|------- ------- ------- -------|
  B|-------------------------------|-------------------------------|
  G|-9----------9---9---9----------|-------------------------------|
  D|-9----------9---911-9----------|-9------9---9---9--------------|
  A|11------9H11-----H------9---12-|11-----11--11--11--------------|
  E|-------------------------------|-------------------------------|

  e|------- 7H9---7 0-----0 -------|------- ------- ------- -------|
  B|--------9-------7H9P7\5-----5--|5------------------------------|
  G|----------------/---\-------6--|4------------------------------|
  D|----------------------------7--|6------------------------------|
  A|-------------------------------|-------------------------------|
  E|-------------------------------|-------------------------------|
    down                                            Don't let   me

    F#m7
  e|2---2-2 2---2-- 2-2-2-2 2-2-2--|2---2-2 2-2-2-- 2---2-- 2-2-2--|
  B|2---2-2-2---2---2-2-2-2-2-2-2--|2---2-2-2-2-2---2---2---2-2-2--|
  G|2---2-2-2---2---2-2-2-2-2-2-2--|2---2-2-2-2-2---2---2---2-2-2--|
  D|4---4-4-4---4---4-4-4-4-4-4-4--|2---2-2-2-2-2---2---2---2-2-2--|
  A|4---4-4-4---4---4-4-4-4-4-4-4--|4---4-4-4-4-4---4---4---4-4-4--|
  E|2---2-2-2---2---2-2-2-2-2-2-2--|2---2-2-2-2-2---2---2---2-2-2--|

  e|-9----9 -9----- -9----9 --9-9--|------- -9----- 9------ -------|
  B|10---10-10--x---10---10--1010--|--------10-----10--------------|
  G|11---11-11--x---11---11--1111--|--------11--11-11--------------|
  D|11---11-11--x---11---11--1111--|--------11-----11--------------|
  A|-9----9--9-------9----9---9-9--|---------9------9--------------|
  E|-------------------------------|-------------------------------|

  e|------- 14---12 1412--- 12-1412|14--14- ------- ------- -------|
  B|--------14---12-141214--12-1412|14--14-------------------------|
  G|--------------------14---------|-------------------------------|
  D|-------------------------------|-------------------------------|
  A|-------------------------------|-------------------------------|
  E|-------------------------------|-------------------------------|
    down                                            Don't let   me


                                   (.
    E               Esus4
  e|0---0-0 0---0-- 0-0-0-0 --0-0--|0------ ------- ------- -------|
  B|0---0-0-0---0---0-0-0-0---0-0--|0------------------------------|
  G|1---1-1-1---1---2-2-2-2---2-2--|1------------------------------|
  D|2---2-2-2---2---2-2-2-2---2-2--|2------------------------------|
  A|2---2-2-2---2---2-2-2-2---2-2--|2------------------------------|
  E|0---0-0-0---0---0-0-0-0---0-0--|0------------------------------|

  e|------- ------- ------- -------|------- ------- ------- -------|
  B|-------------------------------|-------------------------------|
  G|-9----------9---9---9----------|-9-----------------------------|
  D|-9----------9---911-9----------|-9-----------------------------|
  A|11------9H11-----H------9---12-|11-----------------------------|
  E|-------------------------------|-------------------------------|

  e|------- 7H9---7 ------- -------|------- ------- ------- -------|
  B|--------9-------79-97-5-----5--|5------------------------------|
  G|----------------/---\-------6--|4------------------------------|
  D|----------------------------7--|6------------------------------|
  A|-------------------------------|-------------------------------|
  E|-------------------------------|-------------------------------|
    down                                    I'm in  love    for the
                                                                  first

    01:18
    E
  e|0---0-- 0-----0 0---0-- 0-----0|0---0-- 0-----0 0---0-- ----0--|
  B|0---0---0-----0-0---0---0-----0|0---0---0-----0-0---0-------0--|
  G|1---1---1-----1-1---1---1-----1|1---1---1-----1-1---1-------1--|
  D|2---2---2-----2-2---2---2-----2|2---2---2-----2-2---2-------2--|
  A|2---2---2-----2-2---2---2-----2|2---2---2-----2-2---2-------2--|
  E|0---0---0-----0-0---0---0-----0|0---0---0-----0-0---0-------0--|

  e|------- ------- ------- -------|------- ------- ------- -------|
  B|-------------------------------|-------------------------------|
  G|-------------------------------|-------------------------------|
  D|2-------2---1-------2----------|2-----------2-------2-------2--|
  A|------------------------4------|----2--------------------------|
  E|-------------------------------|----------------4-------2------|

  e|4------ 4------ 4------ 4------|4------ 4------ 4------ 4------|
  B|5-------5-------5-------5------|5-------5-------5-------5------|
  G|4-------4-------4-------4------|4-------4-------4-------4------|
  D|-------------------------------|-------------------------------|
  A|-------------------------------|-------------------------------|
  E|-------------------------------|-------------------------------|
        time                                Don't know  it's     last
                                                you         gonna


    B7
  e|2------ 2-----2 2---2-- 2-----2|2---2-- 2---2-- 2-----2 2---2--|
  B|0-------0-----0-0---0---0-----0|0---0---0---0---0-----0-0---0--|
  G|2-------2-----2-2---2---2-----2|2---2---2---2---2-----2-2---2--|
  D|1-------1-----1-1---1---1-----1|1---1---1---1---1-----1-1---1--|
  A|2-------2-----2-2---2---2-----2|2---2---2---2---2-----2-2---2--|
  E|-------------------------------|-------------------------------|

  e|------- ------- ------- -------|------- ------- ------- -------|
  B|-------------------------------|-------------------------------|
  G|--------------------2----------|1------------------------------|
  D|--------4---1-----------4------|----2-------4---1---2-------1--|
  A|2------------------------------|------------------------4------|
  E|-------------------------------|-------------------------------|

  e|2------ 2------ 2------ 2------|2------ 2------ 2------ 2------|
  B|4-------4-------4-------4------|4-------4-------4-------4------|
  G|4-------4-------4-------4------|4-------4-------4-------4------|
  D|-------------------------------|-------------------------------|
  A|-------------------------------|-------------------------------|
  E|-------------------------------|-------------------------------|
                                            It's  love  that    forever
                                                a           lasts

  e|2---2-- 2---2-2 2---2-- 2---2-2|2---2-- ----2-- ----2-2 2---2--|
  B|0---0---0---0-0-0---0---0---0-0|0---0-------0-------0-0-0---0--|
  G|2---2---2---2-2-2---2---2---2-2|2---2-------2-------2-2-2---2--|
  D|1---1---1---1-1-1---1---1---1-1|1---1-------1-------1-1-1---1--|
  A|2---2---2---2-2-2---2---2---2-2|2---2-------2-------2-2-2---2--|
  E|-------------------------------|-------------------------------|

  e|------- ------- ------- -------|------- ------- ------- -------|
  B|-------------------------------|-------------------------------|
  G|--------------------2----------|1------------------------------|
  D|--------4---0H1---------4------|----2-------4---1---2-------2--|
  A|2------------------------------|------------------------2H4----|
  E|-------------------------------|-------------------------------|

  e|2------ 2------ 2------ 2------|2------ 2------ 2------ 2------|
  B|4-------4-------4-------4------|4-------4-------4-------4------|
  G|4-------4-------4-------4------|4-------4-------4-------4------|
  D|-------------------------------|-------------------------------|
  A|-------------------------------|-------------------------------|
  E|-------------------------------|-------------------------------|
                                            It's  love  that      no
                                                a           has


    E               Esus4           E
  e|0---0-0 0-0-0-- 0---0-0 0-0-0--|0------ ------- ------- -------|
  B|0---0-0-0-0-0---0---0-0-0-0-0--|0------------------------------|
  G|1---1-1-1-1-1---2---2-2-2-2-2--|1------------------------------|
  D|2---2-2-2-2-2---2---2-2-2-2-2--|2------------------------------|
  A|2---2-2-2-2-2---2---2-2-2-2-2--|2------------------------------|
  E|0---0-0-0-0-0---0---0-0-0-0-0--|0------------------------------|

  e|------- ------- ------- -------|------- ------- ------- -------|
  B|-------------------------------|-------------------------------|
  G|------------9---9---9----------|-------------------------------|
  D|------------9---911-9-------11-|-9-----------------------------|
  A|2-------9H11-----H------9---12-|11-----------------------------|
  E|0------------------------------|-------------------------------|

  e|4------ 4------ ------- -------|------- ------- ------- -------|
  B|5-------5-------5-------5---5--|5------------------------------|
  G|4-------4-------4-------4---4--|4------------------------------|
  D|----------------7-------7---7--|6------------------------------|
  A|-------------------------------|-------------------------------|
  E|-------------------------------|-------------------------------|
        past                                        Don't       me
                                                        let


    01:41
    down  don't let me down
    Don't let me down  don't let me down

                                              02:06
    And from the first time that she really done me
    Ooh she done me  she done me good.

                                 02:18
    I guess nobody ever really done me
    Ooh she done me  she done me good

                 02:30
    Don't let me down  don't let me down
    Don't let me down  don't let me down

    Please ....

  e|------- ------- ------- -------|------- ------- ----7-- -------|
  B|-------------------------------|----------------79----97--5---5|
  G|-------------------------------|----------------/------\----6--|
  D|-------------------------------|-------------------------------|
  A|-------------------------------|-------------------------------|
  E|-------------------------------|-------------------------------|

    02:52 PIANO CODA

  e|------- ------- ------- -------|------- ------- --7-7-9 -------|
  B|5H7-----7-9-7-------7-9-7-9----|7-7---9-7------/9-------97-5--5|
  G|--------------9-6-----------9-6|----------9-6-6----------\--6--|
  D|-------------------------------|-------------------------------|
  A|-------------------------------|-------------------------------|
  E|-------------------------------|-------------------------------|

  e|------- ------- ------- -7-9-12|12----- 7/9---- 9---7-- -------|
  B|5-----------------5--5-79------|------------------------9-7-5--|
  G|------------4---6------/-------|-------------------------------|
  D|-------------------------------|-------------------------------|
  A|-------------------------------|-------------------------------|
  E|-------------------------------|-------------------------------|

  e|------- ------- ------- -------|------- ------- ------7 -------|
  B|7---7-9-7-------7-9-7-------7-9|7-------7-9-7-------9---987--7-|
  G|----------9-6---------9-6------|--9-6---------9----------\-----|
  D|-------------------------------|-------------------------------|
  A|-------------------------------|-------------------------------|
  E|-------------------------------|-------------------------------|

                                   (.

  e|------- 12--12- 7-7---- ----0--|0------ ------- ------- -------|
  B|5-------121412--7997--5\3---2--|0------------------------------|
  G|---------H------/--P--2-----2--|1------------------------------|
  D|-------------------------------|-------------------------------|
  A|-------------------------------|-------------------------------|
  E|-------------------------------|-------------------------------|

     I have transcribbed this piano coda an octave lower so that it
     can be played on any type of guitar. Of course, Billy Preston's
     roulades are necessarily slides here.


        B  Bend
        R  Release
        /  Slide up
        \  Slide down
        H  Hammer-on
        P  Pull-off
        ~  Vibrato
        +  Harmonic
        x  Mute note
        .  Play note like a dot in standard notation
        ^  Ties two notes together
        (. Pause

  --------------------------------------------------------------

  THE BEATLES - THE BALLAD OF JOHN & YOKO  (Lennon & McCartney).
                Released as a single on 30th May 1969 with OLD
                BRONW SHOE as B side.

  --------------------------------------------------------------

  Tabbed by:PJVillanueva


  I have always admired John (and sure I always will) for his enormous
  talent and also for his quick and sharp tongue. He had too, I think,
  an all but imperialist mind. But when he wrote in the lyrics of this
  song "you can get married in Gibraltar NEAR Spain", which he had done
  on March 20th, although not at all in a planned way, he surely didn't
  realize that Gibraltar could never be near Spain, but just bordering
  on it the same way as France or Portugal are.
  Not to talk about the known fact that the english have been constantly
  cheating and using the lowest trickery to steal territory since the
  Utretch treaty was signed in 1714, so that a great part of what the
  english consider today a Crown Colony is nothing but some shamelessly
  invaded spanish soil and it might be said that most of Gibraltar is
  part of Spain -another reason against the idea that it is near Spain.
  Ask any spaniard and they'll say that "the rock" is Spain.


  Standing in the dock at Southampton,
  Trying to get to Holland or France.
  The man in the mac said, "You've got to go back".
  You know they didn't even give us a chance.
  Christ you know it ain't easy,
  You know how hard it can be.
  The way things are going
  They're gonna crucify me.

  Finally made the plane into Paris,
  Honey mooning down by the Seine.
  Peter Brown called to say,
 "You can make it O.K.,
  You can get married in Gibraltar, near Spain".
  Christ you know it ain't easy,
  You know how hard it can be.
  The way things are going
  They're gonna crucify me.

  Drove from Paris to the Amsterdam Hilton,
  Talking in our beds for a week.
  The newspaper said, "Say what you doing in bed?"
  I said, "We're only trying to get us some peace".
  Christ you know it ain't easy,
  You know how hard it can be.
  The way things are going
  They're gonna crucify me.

  Saving up your money for a rainy day,
  Giving all your clothes to charity.
  Last night the wife said,
 "Oh boy, when you're dead
  You don't take nothing with you
  But your soul - think!"

  Made a lightning trip to Vienna,
  Eating chocolate cake in a bag.
  The newspaper said, "She's gone to his head,
  They look just like two gurus in drag".
  Christ you know it ain't easy,
  You know how hard it can be.
  The way things are going
  They're gonna crucify me.

  Caught an early plane back to London.
  Fifty acorns tied in a sack.
  The men from the press said, "We wish you success,
  It's good to have the both of you back".
  Christ you know it ain't easy,
  You know how hard it can be.
  The way things are going
  They're gonna crucify me.
  The way things are going
  They're gonna crucify me.

  E
e|0---0-- 0---0-- ----0-- 0---0--|0---0-- 0---0-- ----0-- 0---0--|
B|0---0---0---0-------0---0---0--|0---0---0---0-------0---0---0--|
G|1---1---1---1-------1---1---1--|1---1---1---1-------1---1---1--|
D|2---2---2---2-------2---2---2--|2---2---2---2-------2---2---2--|
A|2---2---2---2-------2---2---2--|2---2---2---2-------2---2---2--|
E|0---0---0---0-------0---0---0--|0---0---0---0-------0---0---0--|

e|0---0-- 0---0-- ----0-- 0------|0---0-- 0---0-- ----0-- 0---0--|
B|0---0---0---0-------0---0------|0---0---0---0-------0---0---0--|
G|1---1---1---1-------1---1------|1---1---1---1-------1---1---1--|
D|2---2---2---2-------2---2------|2---2---2---2-------2---2---2--|
A|2---2---2---2-------2---2------|2---2---2---2-------2---2---2--|
E|0---0---0---0-------0---0------|0---0---0---0-------0---0---0--|

e|------- ------- ------- -------|------- ---12-- ------- -------|
B|-------------------------------|----------------14R12----------|
G|-------------------------------|-------------------------------|
D|-------------------------------|-------------------------------|
A|-------------------------------|-------------------------------|
E|-------------------------------|-------------------------------|

e|------- ------- ------- -------|------- ------- ------- 14R12--|
B|-------------------------------|-------------------------------|
G|-------------------------------|-------------------------------|
D|-------------------------------|-------------------------------|
A|-------------------------------|-------------------------------|
E|-------------------------------|-------------------------------|
  Standing    the dock    Southampton,
          in          at

e|0---0-- 0---0-- ----0-- 0------|0---0-- 0---0-- 0---0-- 0------|
B|0---0---0---0-------0---0------|0---0---0---0---0---0---0------|
G|1---1---1---1-------1---1------|1---1---1---1---1---1---1------|
D|2---2---2---2-------2---2------|2---2---2---2---2---2---2------|
A|2---2---2---2-------2---2------|2---2---2---2---2---2---2------|
E|0---0---0---0-------0---0------|0---0---0---0---0---0---0------|

e|------- ------- ------- -------|----12- ------- ------- -------|
B|-------------------------------|--------14R12---14R12----------|
G|-------------------------------|-------------------------------|
D|-------------------------------|-------------------------------|
A|-------------------------------|-------------------------------|
E|-------------------------------|-------------------------------|

e|------- ------- ------- -------|------- ------- ------- 14R12--|
B|-------------------------------|-------------------------------|
G|-------------------------------|-------------------------------|
D|-------------------------------|-------------------------------|
A|-------------------------------|-------------------------------|
E|-------------------------------|-------------------------------|
  Trying  get to  Holland or  France.                         The
      to


  E7
e|0---0-- 0---0-- ----0-- 0------|----0-- 0---0-- 0------ 0---0--|
B|3---3---3---3-------3---3------|----3---3---3---3-------3---3--|
G|1---1---1---1-------1---1------|----1---1---1---1-------1---1--|
D|2---2---2---2-------2---2------|----2---2---2---2-------2---2--|
A|2---2---2---2-------2---2------|----2---2---2---2-------2---2--|
E|0---0---0---0-------0---0------|----0---0---0---0-------0---0--|
  man in  the mac     said,  "You've  to  go  back".  You know
                                  got                         they


e|0---0-- 0---0-- 0---0-- 0---0--|----0-- 0---0-- 0---0-- 0---0--|
B|3---3---3---3---3---3---3---3--|----3---3---3---3---3---3---3--|
G|1---1---1---1---1---1---1---1--|----1---1---1---1---1---1---1--|
D|2---2---2---2---2---2---2---2--|----2---2---2---2---2---2---2--|
A|2---2---2---2---2---2---2---2--|----2---2---2---2---2---2---2--|
E|0---0---0---0---0---0---0---0--|----0---0---0---0---0---0---0--|
  didn't  even    give    a   chance. Christ  you know    ain't
                      us                              it      easy

  A
e|0---0-- 0------ 0---0-- 0---0--|0---0-- 0---0-- ----0-- ----0--|
B|2---2---2-------2---2---2---2--|2---2---2---2-------2-------2--|
G|2---2---2-------2---2---2---2--|2---2---2---2-------2-------2--|
D|2---2---2-------2---2---2---2--|2---2---2---2-------2-------2--|
A|0---0---0-------0---0---0---0--|0---0---0---0-------0-------0--|
E|-------------------------------|-------------------------------|

e|------- ----9-- ----8-- ----7--|5------ ------- ------- -------|
B|-------------------------------|-------------------------------|
G|------------9-------8-------7--|6------------------------------|
D|-------------------------------|-------------------------------|
A|-------------------------------|-------------------------------|
E|-------------------------------|-------------------------------|
                                      You know    hard    can be.
                                              how     it


  E
e|0---0-- 0---0-- ----0-- 0---0--|0---0-- 0---0-- ----0-- 0---0--|
B|0---0---0---0-------0---0---0--|0---0---0---0-------0---0---0--|
G|1---1---1---1-------1---1---1--|1---1---1---1-------1---1---1--|
D|2---2---2---2-------2---2---2--|2---2---2---2-------2---2---2--|
A|2---2---2---2-------2---2---2--|2---2---2---2-------2---2---2--|
E|0---0---0---0-------0---0---0--|0---0---0---0-------0---0---0--|

e|------- ----4-- ----3-- ----2--|0------ ------- ------- -------|
B|-------------------------------|-------------------------------|
G|------------4-------3-------2--|1------------------------------|
D|-------------------------------|-------------------------------|
A|-------------------------------|-------------------------------|
E|-------------------------------|-------------------------------|
                                              The way things  going
                                                          are


  B7
e|2---2-- 2---2-- ----2-- 2---2--|2---2-- 2---2-- ----2-- 2------|
B|0---0---0---0-------0---0---0--|0---0---0---0-------0---0------|
G|2---2---2---2-------2---2---2--|2---2---2---2-------2---2------|
D|1---1---1---1-------1---1---1--|1---1---1---1-------1---1------|
A|2---2---2---2-------2---2---2--|2---2---2---2-------2---2------|
E|-------------------------------|-------------------------------|

e|------- ---11-- ---10-- ----9--|7------ ------- ------- -------|
B|-------------------------------|-------------------------------|
G|-----------11------10-------9--|8------------------------------|
D|-------------------------------|-------------------------------|
A|-------------------------------|-------------------------------|
E|-------------------------------|-------------------------------|
                                      They're     crucify
                                          gonna


  E
e|0---0-- 0---0-- ----0-- ----0--|0---0-- 0---0-- ----0-- 0------|
B|0---0---0---0-------0-------0--|0---0---0---0-------0---0------|
G|1---1---1---1-------1-------1--|1---1---1---1-------1---1------|
D|2---2---2---2-------2-------2--|2---2---2---2-------2---2------|
A|2---2---2---2-------2-------2--|2---2---2---2-------2---2------|
E|0---0---0---0-------0-------0--|0---0---0---0-------0---0------|

e|------- ----4-- ----3-- ----2--|0---/-- ------- ------- -------|
B|-------------------------------|-------------------------------|
G|------------4-------3-------2--|1---/--------------------------|
D|-------------------------------|-------------------------------|
A|-------------------------------|-------------------------------|
E|-------------------------------|-------------------------------|

e|---12-- 12-12-- 12-12-- 12-12--|12-12-- 12-12-- 12-12-- 12-12--|
B|---12---12-12---12-12---12-12--|12-12---12-12---12-12---12-12--|
G|---13---13-13---13-13---13-13--|13-13---13-13---13-13---13-13--|
D|-------------------------------|-------------------------------|
A|-------------------------------|-------------------------------|
E|-------------------------------|-------------------------------|
  me


e|0---0-- 0------ 0---0-- ----0--|0---0-- 0---0-- ----0-- 0---0--|
B|0---0---0-------0---0-------0--|0---0---0---0-------0---0---0--|
G|1---1---1-------1---1-------1--|1---1---1---1-------1---1---1--|
D|2---2---2-------2---2-------2--|2---2---2---2-------2---2---2--|
A|2---2---2-------2---2-------2--|2---2---2---2-------2---2---2--|
E|0---0---0-------0---0-------0--|0---0---0---0-------0---0---0--|

e|------- ------- ------- -------|------- ---12-- ------- -------|
B|-------------------------------|----------------14R12----------|
G|-------------------------------|-------------------------------|
D|-------------------------------|-------------------------------|
A|-------------------------------|-------------------------------|
E|-------------------------------|-------------------------------|

e|------- ------- ------- -------|------- ------- ------- 14R12--|
B|-------------------------------|-------------------------------|
G|-------------------------------|-------------------------------|
D|-------------------------------|-------------------------------|
A|-------------------------------|-------------------------------|
E|-------------------------------|-------------------------------|
  Finally made    plane       Paris,
              the     into

e|0---0-- 0---0-- ----0-- 0---0--|0---0-- 0---0-- 0---0-- 0------|
B|0---0---0---0-------0---0---0--|0---0---0---0---0---0---0------|
G|1---1---1---1-------1---1---1--|1---1---1---1---1---1---1------|
D|2---2---2---2-------2---2---2--|2---2---2---2---2---2---2------|
A|2---2---2---2-------2---2---2--|2---2---2---2---2---2---2------|
E|0---0---0---0-------0---0---0--|0---0---0---0---0---0---0------|

e|------- ------- ------- -------|------- ---12-- --R-B-R B-R----|
B|-------------------------------|----------------141214121412---|
G|-------------------------------|-------------------------------|
D|-------------------------------|-------------------------------|
A|-------------------------------|-------------------------------|
E|-------------------------------|-------------------------------|
  Honeymooning    down    the Seine.                  Peter   Brown
                      by


  E7
e|0---0-- 0---0-- ----0-- ----0--|0---0-- ------- 0---0-- 0---0--|
B|3---3---3---3-------3-------3--|3---3-----------3---3---3---3--|
G|1---1---1---1-------1-------1--|1---1-----------1---1---1---1--|
D|2---2---2---2-------2-------2--|2---2-----------2---2---2---2--|
A|2---2---2---2-------2-------2--|2---2-----------2---2---2---2--|
E|0---0---0---0-------0-------0--|0---0-----------0---0---0---0--|

e|------- ------- ------- -------|------- ------- ------- -------|
B|14R12--------------------------|-------------------------------|
G|-------------------------------|-------------------------------|
D|-------------------------------|-------------------------------|
A|-------------------------------|-------------------------------|
E|-------------------------------|-------------------------------|
    called    say        "You can make    O.  K.,     You  can
          to                          it                      get

e|0---0-- 0------ 0---0-- 0------|0---0-- 0---0-- 0---0-- 0---0--|
B|3---3---3-------3---3---3------|3---3---3---3---3---3---3---3--|
G|1---1---1-------1---1---1------|1---1---1---1---1---1---1---1--|
D|2---2---2-------2---2---2------|2---2---2---2---2---2---2---2--|
A|2---2---2-------2---2---2------|2---2---2---2---2---2---2---2--|
E|0---0---0-------0---0---0------|0---0---0---0---0---0---0---0--|
  married in  Gibraltar,  near        Christ  you know    ain't
                              Spain                   it      easy

  A
e|0---0-- 0------ 0---0-- 0------|0------ 0------ ----0-- 0---0--|
B|2---2---2-------2---2---2------|2-------2-----------2---2---2--|
G|2---2---2-------2---2---2------|2-------2-----------2---2---2--|
D|2---2---2-------2---2---2------|2-------2-----------2---2---2--|
A|0---0---0-------0---0---0------|0-------0-----------0---0---0--|
E|-------------------------------|-------------------------------|

e|------- ----9-- ----8-- ----7--|5------ ------- ------- -------|
B|-------------------------------|-------------------------------|
G|------------9-------8-------7--|6------------------------------|
D|-------------------------------|-------------------------------|
A|-------------------------------|-------------------------------|
E|-------------------------------|-------------------------------|
                                      You know    hard    can be.
                                              how     it


  E
e|0---0-- 0------ 0---0-- 0---0--|0---0-- 0------ 0---0-- ----0--|
B|0---0---0-------0---0---0---0--|0---0---0-------0---0-------0--|
G|1---1---1-------1---1---1---1--|1---1---1-------1---1-------1--|
D|2---2---2-------2---2---2---2--|2---2---2-------2---2-------2--|
A|2---2---2-------2---2---2---2--|2---2---2-------2---2-------2--|
E|0---0---0-------0---0---0---0--|0---0---0-------0---0-------0--|

e|------- ----4-- ----3-- ----2--|0------ ------- ------- -------|
B|-------------------------------|-------------------------------|
G|------------4-------3-------2--|1------------------------------|
D|-------------------------------|-------------------------------|
A|-------------------------------|-------------------------------|
E|-------------------------------|-------------------------------|

e|------- ------- ---12-- ---12--|---12-- ------- ---12-- -------|
B|-------------------12------12--|---12--------------12----------|
G|-------------------13------13--|---13--------------13----------|
D|-------------------------------|-------------------------------|
A|-------------------------------|-------------------------------|
E|-------------------------------|-------------------------------|
                                              The way things  going
                                                          are


  B7
e|2---2-- 2---2-- ----2-- ----2--|----2-- ------- 2------ 2---2--|
B|0---0---0---0-------0-------0--|----0-----------0-------0---0--|
G|2---2---2---2-------2-------2--|----2-----------2-------2---2--|
D|1---1---1---1-------1-------1--|----1-----------1-------1---1--|
A|2---2---2---2-------2-------2--|----2-----------2-------2---2--|
E|-------------------------------|-------------------------------|

e|------- ---11-- ---10-- ----9--|7------ ------- ------- -------|
B|-------------------------------|-------------------------------|
G|-----------11------10-------9--|8------------------------------|
D|-------------------------------|-------------------------------|
A|-------------------------------|-------------------------------|
E|-------------------------------|-------------------------------|
                                      They're     crucify
                                          gonna


  E
e|0---0-- 0---0-- ----0-- 0---0--|0---0-- 0---0-- ----0-- ----0--|
B|0---0---0---0-------0---0---0--|0---0---0---0-------0-------0--|
G|1---1---1---1-------1---1---1--|1---1---1---1-------1-------1--|
D|2---2---2---2-------2---2---2--|2---2---2---2-------2-------2--|
A|2---2---2---2-------2---2---2--|2---2---2---2-------2-------2--|
E|0---0---0---0-------0---0---0--|0---0---0---0-------0-------0--|
  me.
e|------- ----4-- ----3-- ----2--|0------ ------- ------- -------|
B|-------------------------------|-------------------------------|
G|------------4-------3-------2--|1------------------------------|
D|-------------------------------|-------------------------------|
A|-------------------------------|-------------------------------|
E|-------------------------------|-------------------------------|

e|------- 12-12-- 12-12-- 12-12--|12-12-- 12-12-- 12-12-- 12-12--|
B|--------12-12---12-12---12-12--|12-12---12-12---12-12---12-12--|
G|--------13-13---13-13---13-13--|13-13---13-13---13-13---13-13--|
D|-------------------------------|-------------------------------|
A|-------------------------------|-------------------------------|
E|-------------------------------|-------------------------------|
  me                                                  Drove   from


e|0---0-- 0------ 0---0-- 0------|0---0-- 0------ 0---0-- 0------|
B|0---0---0-------0---0---0------|0---0---0-------0---0---0------|
G|1---1---1-------1---1---1------|1---1---1-------1---1---1------|
D|2---2---2-------2---2---2------|2---2---2-------2---2---2------|
A|2---2---2-------2---2---2------|2---2---2-------2---2---2------|
E|0---0---0-------0---0---0------|0---0---0-------0---0---0------|

e|------- ------- ------- -------|------- ---12-- -R-B-R- -------|
B|-------------------------------|---------------14121412--------|
G|-------------------------------|-------------------------------|
D|-------------------------------|-------------------------------|
A|-------------------------------|-------------------------------|
E|-------------------------------|-------------------------------|

e|------- ------- ------- -------|------- ------- ------- --B-R--|
B|-------------------------------|------------------------121412-|
G|-------------------------------|-------------------------------|
D|-------------------------------|-------------------------------|
A|-------------------------------|-------------------------------|
E|-------------------------------|-------------------------------|
  Paris   to  the Amsterdam   Hilton


e|0---0-- 0------ 0---0-- ----0--|0---0-- 0------ 0---0-- ----0--|
B|0---0---0-------0---0-------0--|0---0---0-------0---0-------0--|
G|1---1---1-------1---1-------1--|1---1---1-------1---1-------1--|
D|2---2---2-------2---2-------2--|2---2---2-------2---2-------2--|
A|2---2---2-------2---2-------2--|2---2---2-------2---2-------2--|
E|0---0---0-------0---0-------0--|0---0---0-------0---0-------0--|

e|------- ------- ------- -------|------- ---12-- ----12- --B-R--|
B|-------------------------------|----------------13R12---121412-|
G|-------------------------------|-------------------------------|
D|-------------------------------|-------------------------------|
A|-------------------------------|-------------------------------|
E|-------------------------------|-------------------------------|
  Talking in our  beds    a   week.                           The
                      for


  E7
e|0---0-- 0------ 0------ 0------|0---0-- 0------ 0------ 0---0--|
B|3---3---3-------3-------3------|3---3---3-------3-------3---3--|
G|1---1---1-------1-------1------|1---1---1-------1-------1---1--|
D|2---2---2-------2-------2------|2---2---2-------2-------2---2--|
A|2---2---2-------2-------2------|2---2---2-------2-------2---2--|
E|0---0---0-------0-------0------|0---0---0-------0-------0---0--|

e|--B-R-- ------- ------- -------|------- ------- ------- -------|
B|121412-------------------------|-------------------------------|
G|-------------------------------|-------------------------------|
D|-------------------------------|-------------------------------|
A|-------------------------------|-------------------------------|
E|-------------------------------|-------------------------------|
  newspaper   said,  "Say what    doing   in bed?"    I   said
                              you                             we're

e|0------ 0---0-- 0------ 0---0--|0---0-- 0------ 0---0-- ----0--|
B|3-------3---3---3-------3---3--|3---3---3-------3---3-------3--|
G|1-------1---1---1-------1---1--|1---1---1-------1---1-------1--|
D|2-------2---2---2-------2---2--|2---2---2-------2---2-------2--|
A|2-------2---2---2-------2---2--|2---2---2-------2---2-------2--|
E|0-------0---0---0-------0---0--|0---0---0-------0---0-------0--|
  only    trying  get us  some        Christ  you know    ain't
              to              peace                   it      easy

  A
e|0------ 0------ ----0-- ----0--|0------ 0------ 0---0-- 0------|
B|2-------2-----------2-------2--|2-------2-------2---2---2------|
G|2-------2-----------2-------2--|2-------2-------2---2---2------|
D|2-------2-----------2-------2--|2-------2-------2---2---2------|
A|0-------0-----------0-------0--|0-------0-------0---0---0------|
E|-------------------------------|-------------------------------|

e|------- ----9-- ----8-- ----7--|5------ ------- ------- -------|
B|-------------------------------|-------------------------------|
G|------------9-------8-------7--|6------------------------------|
D|-------------------------------|-------------------------------|
A|-------------------------------|-------------------------------|
E|-------------------------------|-------------------------------|
                                      You know    hard    can be.
                                              how     it


  E
e|0---0-- 0---0-- ----0-- 0---0--|0---0-- 0---0-- ----0-- 0---0--|
B|0---0---0---0-------0---0---0--|0---0---0---0-------0---0---0--|
G|1---1---1---1-------1---1---1--|1---1---1---1-------1---1---1--|
D|2---2---2---2-------2---2---2--|2---2---2---2-------2---2---2--|
A|2---2---2---2-------2---2---2--|2---2---2---2-------2---2---2--|
E|0---0---0---0-------0---0---0--|0---0---0---0-------0---0---0--|

e|------- ----4-- ----3-- ----2--|0------ ------- ------- -------|
B|-------------------------------|-------------------------------|
G|------------4-------3-------2--|1------------------------------|
D|-------------------------------|-------------------------------|
A|-------------------------------|-------------------------------|
E|-------------------------------|-------------------------------|
                                              The way things  going
                                                          are


  B7
e|2------ 2---2-- ----2-- ----2--|2------ 2---2-- 2---2-- 2------|
B|0-------0---0-------0-------0--|0-------0---0---0---0---0------|
G|2-------2---2-------2-------2--|2-------2---2---2---2---2------|
D|1-------1---1-------1-------1--|1-------1---1---1---1---1------|
A|2-------2---2-------2-------2--|2-------2---2---2---2---2------|
E|-------------------------------|-------------------------------|

e|------- ---11-- ---10-- ----9--|7------ ------- ------- -------|
B|-------------------------------|-------------------------------|
G|-----------11------10-------9--|8------------------------------|
D|-------------------------------|-------------------------------|
A|-------------------------------|-------------------------------|
E|-------------------------------|-------------------------------|
                                      They're     crucify
                                          gonna

                                      x   x   x   x   x   x   x
  E
e|0---0-- 0---0-- ----0-- 0---0--|----0-- 0---0-- ----0-- 0------|
B|0---0---0---0-------0---0---0--|----0---0---0-------0---0------|
G|1---1---1---1-------1---1---1--|----1---1---1-------1---1------|
D|2---2---2---2-------2---2---2--|----2---2---2-------2---2------|
A|2---2---2---2-------2---2---2--|----2---2---2-------2---2------|
E|0---0---0---0-------0---0---0--|----0---0---0-------0---0------|

e|------- ----4-- ----3-- ----2--|0------ ------- ------- -------|
B|-------------------------------|-------------------------------|
G|------------4-------3-------2--|1------------------------------|
D|-------------------------------|-------------------------------|
A|-------------------------------|-------------------------------|
E|-------------------------------|-------------------------------|
  me

  A
e|0---0-- 0------ 0---0-- ----0--|0---0-- ----0-- ----0-- 0---0--|
B|2---2---2-------2---2-------2--|2---2-------2-------2---2---2--|
G|2---2---2-------2---2-------2--|2---2-------2-------2---2---2--|
D|2---2---2-------2---2-------2--|2---2-------2-------2---2---2--|
A|0---0---0-------0---0-------0--|0---0-------0-------0---0---0--|
E|-------------------------------|-------------------------------|

e|---12-- 12----- 12-12-- 12-12--|---12-- 12-12-- ---12-- 12-12--|
B|---14---14------14-14---14-14--|---14---14-14------14---14-14--|
G|---14---14------14-14---14-14--|---14---14-14------14---14-14--|
D|-------------------------------|-------------------------------|
A|-------------------------------|-------------------------------|
E|-------------------------------|-------------------------------|
  Saving      your        for a   rainy      day,
     up           money

e|0---0-- 0---0-- ----0-- 0---0--|0---0-- 0------ 0---0-- ----0--|
B|2---2---2---2-------2---2---2--|2---2---2-------2---2-------2--|
G|2---2---2---2-------2---2---2--|2---2---2-------2---2-------2--|
D|2---2---2---2-------2---2---2--|2---2---2-------2---2-------2--|
A|0---0---0---0-------0---0---0--|0---0---0-------0---0-------0--|
E|-------------------------------|-------------------------------|

e|---12-- ------- 12-12-- 12-12--|---12-- ------- 12-12-- ---12--|
B|---14-----------14-14---14-14--|---14-----------14-14------14--|
G|---14-----------14-14---14-14--|---14-----------14-14------14--|
D|-------------------------------|-------------------------------|
A|-------------------------------|-------------------------------|
E|-------------------------------|-------------------------------|
  Giving      your   to   charity.
      all         clothes

e|0---0-- ----0-- 0------ 0---0--|0---0-- ----0-- ----0-- ----0--|
B|2---2-------2---2-------2---2--|2---2-------2-------2-------2--|
G|2---2-------2---2-------2---2--|2---2-------2-------2-------2--|
D|2---2-------2---2-------2---2--|2---2-------2-------2-------2--|
A|0---0-------0---0-------0---0--|0---0-------0-------0-------0--|
E|-------------------------------|-------------------------------|

e|12-12-- 12-12-- ---12-- 12-12--|12-12-- 12-12-- 12-12-- 12-12--|
B|14-14---14-14------14---14-14--|14-14---14-14---14-14---14-14--|
G|14-14---14-14------14---14-14--|14-14---14-14---14-14---14-14--|
D|-------------------------------|-------------------------------|
A|-------------------------------|-------------------------------|
E|-------------------------------|-------------------------------|
  Last       the  wife    said,  "Oh  boy,   when you're  dead
     night                                                    you

  B7
e|2------ 2------ 2---2-- 2---2--|2------ 2---2-- ----2-- -------|
B|0-------0-------0---0---0---0--|0-------0---0-------0----------|
G|2-------2-------2---2---2---2--|2-------2---2-------2----------|
D|1-------1-------1---1---1---1--|1-------1---1-------1----------|
A|2-------2-------2---2---2---2--|2-------2---2-------2----------|
E|-------------------------------|-------------------------------|

e|14-14-- 14-14-- 14-14-- 14-14--|14-14-- 14-14-- 14-14-- -------|
B|16-16---16-16---16-16---16-16--|16-16---16-16---16-16----------|
G|16-16---16-16---16-16---16-16--|16-16---16-16---16-16----------|
D|-------------------------------|-------------------------------|
A|-------------------------------|-------------------------------|
E|-------------------------------|-------------------------------|
  don't   nothing with    But your soul    - think!"
     take            you          soul

      x   x   x
e|------- -------|
B|---------------|
G|---------------|
D|---------------|
A|---------------|
E|---------------|


  E
e|0---0-- 0------ 0---0-- 0---0--|0---0-- 0------ 0---0-- 0------|
B|0---0---0-------0---0---0---0--|0---0---0-------0---0---0------|
G|1---1---1-------1---1---1---1--|1---1---1-------1---1---1------|
D|2---2---2-------2---2---2---2--|2---2---2-------2---2---2------|
A|2---2---2-------2---2---2---2--|2---2---2-------2---2---2------|
E|0---0---0-------0---0---0---0--|0---0---0-------0---0---0------|

e|------- ------- ------- -------|------- ---12-- -R-B-R- -------|
B|-------------------------------|---------------14121412--------|
G|-------------------------------|-------------------------------|
D|-------------------------------|-------------------------------|
A|-------------------------------|-------------------------------|
E|-------------------------------|-------------------------------|

e|------- ------- ------- -------|------- ------- ------- --B-R--|
B|-------------------------------|------------------------121412-|
G|-------------------------------|-------------------------------|
D|-------------------------------|-------------------------------|
A|-------------------------------|-------------------------------|
E|-------------------------------|-------------------------------|
  Made    lightning   to  Vienna,
      a           trip

e|0---0-- 0---0-- 0---0-- -------|0---0-- 0------ ----0-- ----0--|
B|0---0---0---0---0---0----------|0---0---0-----------0-------0--|
G|1---1---1---1---1---1----------|1---1---1-----------1-------1--|
D|2---2---2---2---2---2----------|2---2---2-----------2-------2--|
A|2---2---2---2---2---2----------|2---2---2-----------2-------2--|
E|0---0---0---0---0---0----------|0---0---0-----------0-------0--|

e|------- ------- ------- -------|------- ---12-- -----R-B-R-----|
B|-------------------------------|-------------------14121412----|
G|-------------------------------|-------------------------------|
D|-------------------------------|-------------------------------|
A|-------------------------------|-------------------------------|
E|-------------------------------|-------------------------------|
  eating  chocolate   in  a   bag.                            The
                  cake       (bag

  E7
e|0---0-- 0---0-- ----0-- 0------|0---0-- 0------ 0---0-- ----0--|
B|3---3---3---3-------3---3------|3---3---3-------3---3-------3--|
G|1---1---1---1-------1---1------|1---1---1-------1---1-------1--|
D|2---2---2---2-------2---2------|2---2---2-------2---2-------2--|
A|2---2---2---2-------2---2------|2---2---2-------2---2-------2--|
E|0---0---0---0-------0---0------|0---0---0-------0---0-------0--|

e|------- ------- ------- -------|------- ------- ---12-\ -------|
B|14R12--------------------------|-------------------12-\--------|
G|-------------------------------|-------------------13-\--------|
D|-------------------------------|-------------------------------|
A|-------------------------------|-------------------------------|
E|-------------------------------|-------------------------------|
 newspaper    said,          "She's   to  his head,           they
              said                gone        head


e|0---0-- 0---0-- ----0-- ----0--|0---0-- 0---0-- ----0-- 0---0--|
B|3---3---3---3-------3-------3--|3---3---3---3-------3---3---3--|
G|1---1---1---1-------1-------1--|1---1---1---1-------1---1---1--|
D|2---2---2---2-------2-------2--|2---2---2---2-------2---2---2--|
A|2---2---2---2-------2-------2--|2---2---2---2-------2---2---2--|
E|0---0---0---0-------0-------0--|0---0---0---0-------0---0---0--|
  look    like    gurus   in  drag".  Christ  you know    ain't
      just    two             drag)                   it      easy

  A
e|0---0-- 0------ 0---0-- 0---0--|0---0-- 0------ 0---0-- ----0--|
B|2---2---2-------2---2---2---2--|2---2---2-------2---2-------2--|
G|2---2---2-------2---2---2---2--|2---2---2-------2---2-------2--|
D|2---2---2-------2---2---2---2--|2---2---2-------2---2-------2--|
A|0---0---0-------0---0---0---0--|0---0---0-------0---0-------0--|
E|-------------------------------|-------------------------------|

e|------- ----9-- ----8-- ----7--|5------ ------- ------- -------|
B|-------------------------------|-------------------------------|
G|------------9-------8-------7--|6------------------------------|
D|-------------------------------|-------------------------------|
A|-------------------------------|-------------------------------|
E|-------------------------------|-------------------------------|
                                      You know    hard    can be.
                                              how     it


  E
e|0---0-- 0------ 0---0-- ----0--|0---0-- 0------ 0---0-- -------|
B|0---0---0-------0---0-------0--|0---0---0-------0---0----------|
G|1---1---1-------1---1-------1--|1---1---1-------1---1----------|
D|2---2---2-------2---2-------2--|2---2---2-------2---2----------|
A|2---2---2-------2---2-------2--|2---2---2-------2---2----------|
E|0---0---0-------0---0-------0--|0---0---0-------0---0----------|

e|------- ----0-- ----2-- ----3--|4/5\4-- ------- ------- -------|
B|-------------------------------|-------------------------------|
G|------------1-------2-------3--|4/5\4--------------------------|
D|-------------------------------|-------------------------------|
A|-------------------------------|-------------------------------|
E|-------------------------------|-------------------------------|
                                              The way things going
                                                          are
                                              The way things going
                                                          are
  B7
e|2---2-- 2------ 2------ 2---2--|2---2-- 2------ 2------ 2---2--|
B|0---0---0-------0-------0---0--|0---0---0-------0-------0---0--|
G|2---2---2-------2-------2---2--|2---2---2-------2-------2---2--|
D|1---1---1-------1-------1---1--|1---1---1-------1-------1---1--|
A|2---2---2-------2-------2---2--|2---2---2-------2-------2---2--|
E|-------------------------------|-------------------------------|

e|------- ------- 4------ 3-\-2--|------- ------- ------- -------|
B|-------------------------------|-------------------------------|
G|------------4-------3-----\-2--|-------------------------------|
D|-------------------------------|-------------------------------|
A|-------------------------------|-------------------------------|
E|-------------------------------|-------------------------------|
                                      They're     crucify
                                          gonna
                                      They're     crucify
                                          gonna


  E
e|0---0-- 0---0-- ----0-- 0---0--|0---0-- 0------ 0---0-- 0------|
B|0---0---0---0-------0---0---0--|0---0---0-------0---0---0------|
G|1---1---1---1-------1---1---1--|1---1---1-------1---1---1------|
D|2---2---2---2-------2---2---2--|2---2---2-------2---2---2------|
A|2---2---2---2-------2---2---2--|2---2---2-------2---2---2------|
E|0---0---0---0-------0---0---0--|0---0---0-------0---0---0------|

e|------- ------- 12---R-B-R-B-R-B-R----- ------- ------- -------|
B|-----------12B14---1412141214121412----------------------------|
G|-------------------------------|-------------------------------|
D|-------------------------------|-------------------------------|
A|-------------------------------|-------------------------------|
E|-------------------------------|-------------------------------|

e|------- 12-12-- 12-12-- 12-12--|12-12-- 12-12-- 12-12-- 12-12--|
B|--------12-12---12-12---12-12--|12-12---12-12---12-12---12-12--|
G|--------13-13---13-13---13-13--|13-13---13-13---13-13---13-13--|
D|-------------------------------|-------------------------------|
A|-------------------------------|-------------------------------|
E|-------------------------------|-------------------------------|
  me
  me ....


e|0---0-- 0---0-- ----0-- 0---0--|0---0-- 0---0-- ----0-- 0---0--|
B|0---0---0---0-------0---0---0--|0---0---0---0-------0---0---0--|
G|1---1---1---1-------1---1---1--|1---1---1---1-------1---1---1--|
D|2---2---2---2-------2---2---2--|2---2---2---2-------2---2---2--|
A|2---2---2---2-------2---2---2--|2---2---2---2-------2---2---2--|
E|0---0---0---0-------0---0---0--|0---0---0---0-------0---0---0--|

e|------- ------- ------- -------|------- ---12-- -R-B-R-B-R-----|
B|-------------------------------|---------------141214121412----|
G|-------------------------------|-------------------------------|
D|-------------------------------|-------------------------------|
A|-------------------------------|-------------------------------|
E|-------------------------------|-------------------------------|

e|------- ------- ------- -------|------- ------- ---12-- -------|
B|-------------------------------|------------------------14B12--|
G|-------------------------------|-------------------------------|
D|-------------------------------|-------------------------------|
A|-------------------------------|-------------------------------|
E|-------------------------------|-------------------------------|

e|12-12-- 12----- 12-12-- 12-12--|12-12-- 12----- 12-12-- 12-12--|
B|13-13---12------12-12---12-12--|12-12---12------12-12---12-12--|
G|13-13---13------13-13---13-13--|13-13---13------13-13---13-13--|
D|-------------------------------|-------------------------------|
A|-------------------------------|-------------------------------|
E|-------------------------------|-------------------------------|
  Caught  early   plane   to  London
     the             back

e|0---0-- 0---0-- ----0-- 0---0--|0---0-- 0---0-- ----0-- 0---0--|
B|0---0---0---0-------0---0---0--|0---0---0---0-------0---0---0--|
G|1---1---1---1-------1---1---1--|1---1---1---1-------1---1---1--|
D|2---2---2---2-------2---2---2--|2---2---2---2-------2---2---2--|
A|2---2---2---2-------2---2---2--|2---2---2---2-------2---2---2--|
E|0---0---0---0-------0---0---0--|0---0---0---0-------0---0---0--|

e|------- ------- ------- -------|------- 12----- --12--- -------|
B|-------------------------------|---12B14-----12B14-------------|
G|-------------------------------|-------------------------------|
D|-------------------------------|-------------------------------|
A|-------------------------------|-------------------------------|
E|-------------------------------|-------------------------------|

e|------- ------- ------- -------|------- ------- ------- -B---R-|
B|-------------------------------|-----------------------12141412|
G|-------------------------------|-------------------------------|
D|-------------------------------|-------------------------------|
A|-------------------------------|-------------------------------|
E|-------------------------------|-------------------------------|

e|12-12-- 12----- 12-12-- 12-12--|12-12-- 12----- 12-12-- 12-12--|
B|13-13---12------12-12---12-12--|12-12---12------12-12---12-12--|
G|13-13---13------13-13---13-13--|13-13---13------13-13---13-13--|
D|-------------------------------|-------------------------------|
A|-------------------------------|-------------------------------|
E|-------------------------------|-------------------------------|
  Fifty   acorns  tied    a  sack.                            The
                     in


  E7
e|0------ 0------ 0------ 0---0--|0------ 0---0-- 0------ 0------|
B|3-------3-------3-------3---3--|3-------3---3---3-------3------|
G|1-------1-------1-------1---1--|1-------1---1---1-------1------|
D|2-------2-------2-------2---2--|2-------2---2---2-------2------|
A|2-------2-------2-------2---2--|2-------2---2---2-------2------|
E|0-------0-------0-------0---0--|0-------0---0---0-------0------|

e|------- ------- ---12-\ -------|------- ------- ---12-\ -------|
B|-------------------12-\--------|-------------------12-\--------|
G|-------------------------------|-------------------------------|
D|-------------------------------|-------------------------------|
A|-------------------------------|-------------------------------|
E|-------------------------------|-------------------------------|

e|---12-- 12----- 12-12-- 12-12--|---12-- 12----- 12-12-- 12-12--|
B|---13---12------12-12---12-12--|---12---12------12-12---12-12--|
G|---13---13------13-13---13-13--|---13---13------13-13---13-13--|
D|-------------------------------|-------------------------------|
A|-------------------------------|-------------------------------|
E|-------------------------------|-------------------------------|
  men     the press  said,  "We   wish    success            It's
     from                            you

e|0---0-- 0------ 0---0-- ----0--|0------ 0---0-- 0---0-- 0------|
B|3---3---3-------3---3-------3--|3-------3---3---3---3---3------|
G|1---1---1-------1---1-------1--|1-------1---1---1---1---1------|
D|2---2---2-------2---2-------2--|2-------2---2---2---2---2------|
A|2---2---2-------2---2-------2--|2-------2---2---2---2---2------|
E|0---0---0-------0---0-------0--|0-------0---0---0---0---0------|

e|---12-- 12----- 12-12-- 12-12--|---12-- 12----- 12-12-- 12-12--|
B|---13---12------12-12---12-12--|---12---12------12-12---12-12--|
G|---13---13------13-13---13-13--|---13---13------13-13---13-13--|
D|-------------------------------|-------------------------------|
A|-------------------------------|-------------------------------|
E|-------------------------------|-------------------------------|
  good    have    both    you back"  Christ   you know    ain't
     to       the    of                              it       easy


  A
e|0------ 0------ 0---0-- 0---0--|0---0-- 0------ 0---0-- 0------|
B|2-------2-------2---2---2---2--|2---2---2-------2---2---2------|
G|2-------2-------2---2---2---2--|2---2---2-------2---2---2------|
D|2-------2-------2---2---2---2--|2---2---2-------2---2---2------|
A|0-------0-------0---0---0---0--|0---0---0-------0---0---0------|
E|-------------------------------|-------------------------------|

e|------- ----9-- ----8-- ----7--|5------ ------- ------- -------|
B|-------------------------------|-------------------------------|
G|------------9-------8-------7--|6------------------------------|
D|-------------------------------|-------------------------------|
A|-------------------------------|-------------------------------|
E|-------------------------------|-------------------------------|

e|12-12-- 12-12-- 12-12-- 12-12--|12-12-- 12----- 12-12-- ---12--|
B|14-14---14-14---14-14---14-14--|14-14---14------14-14------14--|
G|14-14---14-14---14-14---14-14--|14-14---14------14-14------14--|
D|-------------------------------|-------------------------------|
A|-------------------------------|-------------------------------|
E|-------------------------------|-------------------------------|
                                     You  know    hard    can
                                              how    it      be


  E
e|0---0-- 0---0-- ----0-- 0---0--|0---0-- 0------ 0---0-- 0------|
B|0---0---0---0-------0---0---0--|0---0---0-------0---0---0------|
G|1---1---1---1-------1---1---1--|1---1---1-------1---1---1------|
D|2---2---2---2-------2---2---2--|2---2---2-------2---2---2------|
A|2---2---2---2-------2---2---2--|2---2---2-------2---2---2------|
E|0---0---0---0-------0---0---0--|0---0---0-------0---0---0------|

e|------- ----0-- ----2-- ----3--|4------ ----0-- ------- -------|
B|-------------------------------|-------------------------------|
G|------------1-------2-------3--|4-----------1------------------|
D|-------------------------------|-------------------------------|
A|-------------------------------|-------------------------------|
E|-------------------------------|-------------------------------|

e|---12-- 12----- 12-12-- 12-12--|---12-- 12----- 12-12-- 12-----|
B|---13---12------12-12---12-12--|---12---12------12-12---12-----|
G|---13---13------13-13---13-13--|---13---13------13-13---13-----|
D|-------------------------------|-------------------------------|
A|-------------------------------|-------------------------------|
E|-------------------------------|-------------------------------|
                                              The way     are going
                                                     things


  B7
e|2---2-- 2---2-- ----2-- 2------|2---2-- ----2-- 2---2-- 2------|
B|0---0---0---0-------0---0------|0---0-------0---0---0---0------|
G|2---2---2---2-------2---2------|2---2-------2---2---2---2------|
D|1---1---1---1-------1---1------|1---1-------1---1---1---1------|
A|2---2---2---2-------2---2------|2---2-------2---2---2---2------|
E|-------------------------------|-------------------------------|

e|------- ------- 4------ 3-\-2--|------- ------- ------- -------|
B|-------------------------------|-------------------------------|
G|------------4-------3-----\-2--|-------------------------------|
D|-------------------------------|-------------------------------|
A|-------------------------------|-------------------------------|
E|-------------------------------|-------------------------------|

e|---12-- 12-12-- 12-12-- 12-12--|12-12-- 12-12-- 12-12-- 12-----|
B|---13---12-12---12-12---12-12--|12-12---12-12---12-12---12-----|
G|---13---13-13---13-13---13-13--|13-13---13-13---13-13---13-----|
D|-------------------------------|-------------------------------|
A|-------------------------------|-------------------------------|
E|-------------------------------|-------------------------------|
                                     they're      crucify
                                          gonna


  E
e|0---0-- 0------ 0---0-- ----0--|0---0-- ----0-- 0------ 0---0--|
B|0---0---0-------0---0-------0--|0---0-------0---0-------0---0--|
G|1---1---1-------1---1-------1--|1---1-------1---1-------1---1--|
D|2---2---2-------2---2-------2--|2---2-------2---2-------2---2--|
A|2---2---2-------2---2-------2--|2---2-------2---2-------2---2--|
E|0---0---0-------0---0-------0--|0---0-------0---0-------0---0--|

e|------- ----4-- ----3-- ----2--|0-/---- ------- ------- -------|
B|-------------------------------|-------------------------------|
G|------------4-------3-------2--|1-/----------------------------|
D|-------------------------------|-------------------------------|
A|-------------------------------|-------------------------------|
E|-------------------------------|-------------------------------|

e|---12-- 12----- 12-12-- 12-12--|---12-- 12----- 12-12-- 12-----|
B|---13---12------12-12---12-12--|---12---12------12-12---12-----|
G|---13---13------13-13---13-13--|---13---13------13-13---13-----|
D|-------------------------------|-------------------------------|
A|-------------------------------|-------------------------------|
E|-------------------------------|-------------------------------|
  me                                          The way     are going
                                                     things


  B7
e|2---2-- ----2-- 2------ 2---2--|2---2-- ----2-- 2------ 2------|
B|0---0-------0---0-------0---0--|0---0-------0---0-------0------|
G|2---2-------2---2-------2---2--|2---2-------2---2-------2------|
D|1---1-------1---1-------1---1--|1---1-------1---1-------1------|
A|2---2-------2---2-------2---2--|2---2-------2---2-------2------|
E|-------------------------------|-------------------------------|

e|------- ------- 4----3- --2---2/4------ ------- ------- -------|
B|-------------------------------|-------------------------------|
G|------------4---4----3----2---2/4------------------------------|
D|-------------------------------|-------------------------------|
A|-------------------------------|-------------------------------|
E|-------------------------------|-------------------------------|

e|---12-- 12----- 12-12-- 12-12--|---12-- 12----- 12-12-- 12-12--|
B|---13---12------12-12---12-12--|---12---12------12-12---12-12--|
G|---13---13------13-13---13-13--|---13---13------13-13---13-13--|
D|-------------------------------|-------------------------------|
A|-------------------------------|-------------------------------|
E|-------------------------------|-------------------------------|
                                     they're      crucify
                                          gonna


  E
e|0---0-- 0---0-- ----0-- ----0--|0------ 0------ ----0-- ----0--|
B|0---0---0---0-------0-------0--|0-------0-----------0-------0--|
G|1---1---1---1-------1-------1--|1-------1-----------1-------1--|
D|2---2---2---2-------2-------2--|2-------2-----------2-------2--|
A|2---2---2---2-------2-------2--|2-------2-----------2-------2--|
E|0---0---0---0-------0-------0--|0-------0-----------0-------0--|

e|------- ------- ------- -------|------- ------- ------- -------|
B|-------------------------------|-------------------------------|
G|-------------------------------|------------------------1---2--|
D|-------------------------------|------------1---2---4----------|
A|-------------------------------|----2---4----------------------|
E|-------------------------------|-------------------------------|

e|---12-- 12----- 12-12-- 12-12--|12-12-- 12-12-- 12-12-- 12-12--|
B|---13---12------12-12---12-12--|12-12---12-12---12-12---12-12--|
G|---13---13------13-13---13-13--|13-13---13-13---13-13---13-13--|
D|-------------------------------|-------------------------------|
A|-------------------------------|-------------------------------|
E|-------------------------------|-------------------------------|
  me

  B7
e|2------ 2---2-- ----2-- ----2--|----2-- ----2-- 2---2-- ----2--|
B|0-------0---0-------0-------0--|----0-------0---0---0-------0--|
G|2-------2---2-------2-------2--|----2-------2---2---2-------2--|
D|1-------1---1-------1-------1--|----1-------1---1---1-------1--|
A|2-------2---2-------2-------2--|----2-------2---2---2-------2--|
E|-------------------------------|-------------------------------|

e|------- ------- ------- -------|------- ------- ------- -------|
B|4----4----4-----4----4----4----|4----2----2-----2--------------|
G|4----4----4-----4----4----4----|4----2----2-----2----1---------|
D|-------------------------------|--------------------------4----|
A|-------------------------------|-------------------------------|
E|-------------------------------|-------------------------------|

e|11-11-- 11-11-- 11-11-- 11-11--|11-11-- 11-11-- 11-11-- 11-11--|
B|12-12---12-12---12-12---12-12--|12-12---12-12---12-12---12-12--|
G|11-11---11-11---11-11---11-11--|11-11---11-11---11-11---11-11--|
D|-------------------------------|-------------------------------|
A|-------------------------------|-------------------------------|
E|-------------------------------|-------------------------------|

                                 (.
  E                               E6
e|0------ 0---0-- ----0-- ----0--|0------ ------- ------- -------|
B|0-------0---0-------0-------0--|2------------------------------|
G|1-------1---1-------1-------1--|1------------------------------|
D|2-------2---2-------2-------2--|2------------------------------|
A|2-------2---2-------2-------2--|2------------------------------|
E|0-------0---0-------0-------0--|0------------------------------|

e|------- ------- ------- -------|0------ ------- ------- -------|
B|-------------------------------|2------------------------------|
G|-------------------------------|1------------------------------|
D|2-------2-----------2----------|2------------------------------|
A|------------4-----------4------|2------------------------------|
E|-------------------------------|0------------------------------|

e|------- ------- ------- -------|------- ------- ------- -------|
B|--------12---------12----------|12-----------------------------|
G|13------13-13------13--13------|13-----------------------------|
D|14---------14----------14------|-------------------------------|
A|-------------------------------|-------------------------------|
E|-------------------------------|-------------------------------|


        B  Bend
        R  Release
        /  slide up
        \  slide down
        H  hammer-on
        P  pull-off
        ~  vibrato
        +  harmonic
        x  Mute note
        .   play note like a dot in standard notation
        ^   ties two notes together
        (.  Pause

  -----------------------------------------------------------

  THE BEATLES - OLD BROWN SHOE (Harrison) From BEATLES PAST
                MASTERS II. (First released as the B side of
                THE BALLAD OF JOHN AND YOKO single on May
                30th of 1969).

  -----------------------------------------------------------

  Tabbed by:PJVillanueva

   GUITAR RIFF


e|------ ------ ------ ------|---8--- ------ ------ -----|
B|-----------------------/---|8-----------------------/--|
G|---------------------------|---------------------------|
D|---------------------------|---------------------------|
A|---------------------------|---------------------------|
E|---------------------------|---------------------------|


e|---8-- -/--6- ------ ------|------ ------ ------ ------|
B|8-------/--8---------------|------------------------/--|
G|---------------------------|---------------------------|
D|---------------------------|---------------------------|
A|---------------------------|---------------------------|
E|---------------------------|---------------------------|


e|---10- ------ ------ ------|--10-- -/-8-- ------ ------|
B|10----------------------/--|10------/10----------------|
G|---------------------------|---------------------------|
D|---------------------------|---------------------------|
A|---------------------------|---------------------------|
E|---------------------------|---------------------------|


           C7
  I want a love that' s right,
  But right is only half of what' s wrong

           Dm7
  I want a short haired girl


  Who sometimes wears it twice as long

  F7                                       Ab
  Now I'm stepping out this old brown shoe


  Baby, I'm in love with you

      F7
  I'm so glad you came here,

       E7                       Am
  It won't be the same now I'm telling you

  C7

  C7
  You know you pick me up
  From where some tried to drag me down

             Dm7
  And when I see your smile
  Replacing every thought less frown

  F7                        Ab
  So escaping from this zoo


  Baby I'm in love with you

      F7
  I'm so glad you came here

     E7                         Am
  It won't be the same now when I'm with you

  G7
  If I grow up I'll be a singer

                  F7            G7
  Wearing rings on every finger


  Not worrying what they or you'll say

                         F7
  I'll live and love and maybe someday

   D7/F#                          G7
  Who knows baby you may comfort me

        C7

        Dm7

  SOLO  F7  Ab  F7 E7 Am  G7

  G7
  I may appear to be imperfect

                       F7            G7
  My love is something you can reject


  I'm changing faster than the weather

                 F7
  If you and me should get together

  D7/F#                            G7
  Who knows baby you may comfort me...

            C7
  I know my love is yours


  To miss that love is something I'd hate

             Dm7
  I'll make an early start

                                    F7
  I'm making sure that I'm not late


  For your sweet top lip I'm in the queue

  Ab
  Baby I'm in love with you

      F7
  I'm so glad you came here

        E7                      Am
  It won't be the same now when I'm with you....


  C7...........................................

   SOLO


e|------ ------ ------ ------|------ ------ ------ ------|
B|---------------------------|---------------------------|
G|---10-P8---x--8---------8--|10-B11-10 B11-10P8---8-----|
D|---------------------10----|------------------10-------|
A|---------------------------|---------------------------|
E|---------------------------|---------------------------|


e|------ ---8--- ------ -----|------ ------ ------ ------|
B|---------------------------|---7H9-7-------------------|
G|---------------9-----------|8--------8P6-\-5H6P5-------|
D|----10---------------------|----------------------6\5\4|
A|---------------------------|---------------------------|
E|---------------------------|---------------------------|


e|------ ------ ------ ------|------ ------ ------ ------|
B|-------1---3--1------------|-------1---3--1------------|
G|----2----------------------|----1----------------------|
D|3------------------------2-|---------------------------|
A|---------------------------|---------------------------|
E|---------------------------|---------------------------|


e|------ ------ ------ ------|------ ------ ------ ------|
B|------------------1----3---|4---5-----10---------------|
G|2--------0----2------------|--------------12B14R12-----|
D|----2----------------------|------------------------14-|
A|---------------------------|---------------------------|
E|---------------------------|---------------------------|


e|------ ------ ------ ------|
B|13B15----------------------|
G|---------------------------|
D|---------------------------|
A|---------------------------|
E|---------------------------|


  (George also doubled the bass riff with his Telecaster)


e|------ ------ ------ ------|------ ------ ------ ------|
B|---------------------------|---------------------------|
G|---------------------------|---------------------------|
D|----------------0H2-P0-----|----------------0H2-P0-----|
A|--------------2--------2P0-|---------------2-------2P0-|
E|3---3--3---3---------------|3---3--3---3---------------|


e|------ ------ ------ ------|------ ------ ------ ------|
B|---------------------------|---------------------------|
G|---------------------------|---------------------------|
D|----------------0H2-P0-----|-------------------0-------|
A|---------------2-------2P0-|--------------0-H3---3P0---|
E|3---3--3----3--------------|1---1--1----1------------1-|


e|------ ------ ------ ------|------ ------ ------ ------|
B|---------------------------|---------------------------|
G|---------------------------|---------------------------|
D|----------------0H2-P0-----|----------------0H2-P0-----|
A|--------------2--------2P0-|---------------2-------2P0-|
E|3---3--3---3---------------|3---3--3---3---------------|


e|------ ------ ------ ------|------ ------ ------ ------|
B|---------------------------|---------------------------|
G|---------------------------|---------------------------|
D|----------------0H2-P0-----|-------------------0-------|
A|---------------2-------2P0-|--------------0-H3---3P0---|
E|3---3--3----3--------------|1---1--1----1------------1/|


e|------ ------ ------ ------|------ ------ ------ ------|
B|---------------------------|---------------------------|
G|---------------------------|---------------------------|
D|-------------------0-------|-------------------0-------|
A|--------------0 H3---3P0---|--------------0-H3---3P0---|
E|2---2--2----2------------3-|2---2--2----2------------3-|


e|------ ------ ------ ------|------ ------ ------ ------|
B|---------------------------|---------------------------|
G|---------------------------|---------------------------|
D|---------------------------|---------------------------|
A|------------------5--5-----|---------------------------|
E|3---3--3----/-7------------|7-\-5--3-------------------|


        B  Bend
        R  Release
        /  slide up
        \  slide down
        H  hammer-on
        P  pull-off
        ~  vibrato
        +  harmonic
        x  Mute note
        . - play note like a dot in standard notation
        ^ - ties two notes together
        (.  Pause

  -------------------------------------------------------------------

  THE BEATLES - ACROSS THE UNIVERSE (Lennon & McCartney) This version
                was first released on a charity album for the World
                Wildlife Fund on 12th December 1969. Also released on
                9th August 1988, as part of THE BEATLES PAST MASTERS
                VOL 2.

  -------------------------------------------------------------------

  Tabbed by:PJVillanueva


  Words are flowing out like
  endless rain into a paper cup
  They slither while they pass
  They slip away across the universe
  Pools of sorrow waves of joy
  Are drifting through my open mind
  Possessing and caressing me

  Jai guru deva om
  Nothing's gonna change my world
  Nothing's gonna change my world
  Nothing's gonna change my world
  Nothing's gonna change my world

  Images of broken light which
  Dance before me like a million eyes
  That call me on and on across the universe
  Thoughts meander like a
  Restless wind inside a letter box
  They tumble blindly as
  They make their way across the universe

  Jai guru deva om
  Nothing's gonna change my world
  Nothing's gonna change my world
  Nothing's gonna change my world
  Nothing's gonna change my world

  Sounds of laughter shades of life
  Are ringing through my open ears
  Exciting and inviting me
  Limitless undying love which
  shines around me like a million suns
  It calls me on and on across the universe

  Jai guru deva om
  Nothing's gonna change my world
  Nothing's gonna change my world
  Nothing's gonna change my world
  Nothing's gonna change my world
  Jai guru deva
  Jai guru deva


  4/4


e|-------- -------- -------- --------|2-----/- 10------ 9---7--- 5-------|
B|-----------------------------------|-------------------------------7---|
G|-----------------------------------|2-----/--10-------9---7----6-------|
D|-----------------------------------|----0--------0---------------------|
A|-----------------------------------|-----------------------------------|
E|-----------------------------------|-----------------------------------|

e|-------- -------- -------- --------|5------- 10------ -9------ --------|
B|-----------------------------------|7--------10-------10--12---10--12--|
G|-----------------------------------|7--------11-------11--11---11--11--|
D|-----------------------------------|-----------------------------------|
A|-----------------------------------|-----------------------------------|
E|-----------------------------------|-----------------------------------|


  F#m F#sus4 ...                      A   Aadd9 ...
e|2---2--- 2---2--- 2---2--- 2---2---|-------- -------- -------- --------|
B|2---2----2---2----2---2----2---2---|2---2----2---2----2---2----2---2---|
G|2---4----2---4----2---4----2---4---|2---4----2---4----2---4----2---4---|
D|4---4----4---4----4---4----4---4---|2---2----2---2----2---2----2---2---|
A|-----------------------------------|0---0----0---0----0---0----0---0---|
E|-----------------------------------|-----------------------------------|

e|-------- -------- -------- --------|-------- -------- -------- --------|
B|2---2----2---2----2---2----2---2---w2--w2---w2--w2---w2--w2---w2--w2---|
G|2---4----2---4----2---4----2---4---w2--w4---w2--w4---w2--w4---w2--w4---|
D|4---4----4---4----4---4----4---4---w2--w2---w2--w2---w2--w2---w2--w2---|
A|-----------------------------------|-----------------------------------|
E|-----------------------------------|-----------------------------------|


  D                 Bm                F#m
e|2---2--- 2---2--- 2---2--- 2---2---|2---2-2- 2---2--- 2---2--- 2-------|
B|3---3----3---3----3---3----3---3-x-|2---2-2--2---2----2---2----2---0---|
G|2---2----2---2----4---4----4---4-x-|2---2-2--2---2----2---2----2---0---|
D|0---0----0---0----4---4----4---4-x-|4---4-4--4---4----4---4----4---0---|
A|------------------2---2----2---2---|4---4-4--4---4----4---4----4-------|
E|-----------------------------------|-----------------------------------|

ew2--w2---w2--w2---w2-------w2-------w2--w2---w2--w2---w2--w2---w2-------|
Bw3--w3---w3--w3---w3-------w3-------w2--w2---w2--w2---w2--w2---w2--w0---|
Gw2--w2---w2--w2---w4-------w4-------w2--w2---w2--w2---w2--w2---w2--w0---|
D|-----------------------------------|-----------------------------------|
A|-----------------------------------|-----------------------------------|
E|-----------------------------------|-----------------------------------|
  Words  flying        like  endless  rain         a     paper       they
      are      out                        into              cup


  Em7                                 A                          A7
e|0---0-0- 0---0-0- 0---0--- 0-0-0---|0---0--- 0---0--- 0---0--- 3---3---|
B|3---3-3--3---3-3--3---3----3-3-3---|2---2----2---2----2---2----2---2---|
G|0---0-0--0---0-0--0---0----0-0-0---|2---2----2---2----2---2----2---2---|
D|0---0-0--0---0-0--0---0----0-0-0---|2---2----2---2----2---2----2---2---|
A|2---2-2--2---2-2--2---2----2-2-2---|0---0----0---0----0---0----0---0---|
E|0---0-0--0---0-0--0---0----0-0-0---|-----------------------------------|

ew0--w0---w0--w0---w0-------w0-------w0------- -------- -------- --------|
Bw3--w3---w3--w3---w3-------w3-------w2----------------------------------|
Gw0--w0---w0--w0---w0-------w0-------w2----------------------------------|
Dw2--w2---w2--w2---w2-------w2-------w2----------------------------------|
A|-----------------------------------|-----------------------------------|
E|-----------------------------------|-----------------------------------|
  slither      they pass     slip away    across    the Universe
      while             they


e|3---3---|
B|2---2---|
G|2---2---|
D|2---2---|
A|0---0---|
E|--------|


  D                 Bm                F#m
e|2---2--- 2---2--- 2---2-2- 2---2-2-|2---2--- 2-2-2--- 2-2-2--- 2-------|
B|3---3----3---3----3---3-3--3---3-3-|2---2----2-2-2----2-2-2----2---0---|
G|2---2----2---2----4---4-4--4---4-4-|2---2----2-2-2----2-2-2----2---0---|
D|0---0----0---0----4---4-4--4---4-4-|4---4----4-4-4----4-4-4----4---0---|
A|------------------2---2-2--2---2-2-|4---4----4-4-4----4-4-4----4-------|
E|-----------------------------------|-----------------------------------|

e|--w10--- -------- --w10--- --------|-------- -------- -------- --------|
B|--w-7---------------w-7------------|-----------------------------------|
G|--w-7---------------w-7------------|-----------------------------------|
D|-----------------------------------|-----------------------------------|
A|-----------------------------------|-----------------------------------|
E|-----------------------------------|-----------------------------------|
  Pools     sorrow  waves  joy    Are drifting through  open mind     Pos..
      of                of                         my


  Em7               Gm
e|0---0--- 0---0--- 3---3-3- 3-3-3-3-|3---3--- 3-------|
B|3---3----3---3----3---3-3--3-3-3-3-|3---3----3-------|
G|0---0----0---0----3---3-3--3-3-3-3-|3---3----3-------|
D|0---0----0---0----5---5-5--5-5-5-5-|5---5----5-------|
A|2---2----2---2----5---5-5--5-5-5-5-|5---5----5-------|
E|-----------------------------------|-----------------|

e|-------- -------- -------- --------w3--w3---w3--w2---|
B|-----------------------------------w3--w3---w3--w3---|
G|-----------------------------------w3--w3---w3--w2---|
D|-----------------------------------|-----------------|
A|-----------------------------------|-----------------|
E|-----------------------------------|-----------------|
  sessing  and  caressing  me

  D
e|2---2--- 2---2--- 2---2--- 2---2---|2---2--- 2---2--- 2------- 2---2---|
B|3---3----3---3----3---3----3---3---|3---3----3---3----3---3----3---3---|
G|2---2----2---2----2---2----2---2---|2---2----2---2----2---2----2---2---|
D|0---0----0---0----0---0----0---0---|0---0----0---0----0---0----0---0---|
A|-------------0----0---0----0---0---|0---0----0---0----0---0----0---0---|
E|-----------------------------------|-----------------------------------|
  Jai      guru                  deva

  A                                                     A7
e|0---0--- 0------- 0------- 0-------|5---5--- 5---5--- 3------- --------|
B|2---2----2---x----2---2----2----0--|2---2----2---2----2---2----2---2-x-|
G|2---2----2---x----2---2----2----0--|2---2----2---2----2---2----2---2-x-|
D|2---2----2---x----2---2----2----0--|2---2----2---2----2---2----2---2-x-|
A|0---0----0--------0---0----0-------|0---0----0---0----0---0----0---0---|
E|----------------------0------------|-------------0----0---0----0---0---|
  Om                                  Nothing's         change   my  world
                                               gonna


  A                                   G                              D
e|0-0-0--- 0---0-0- 0---0--- 0-------|3------- 3------- 3---3--- 3---2-2-|
B|2-2-2----2---2-2--2---2----2---0---|3--------3--------3---3----3---3-3-|
G|2-2-2----2---2-2--2---2----2---0---|0--------0--------0---0----0---2-2-|
D|2-2-2----2---2-2--2---2----2---0---|0--------0--------0---0----0---0-0-|
A|0-0-0----0---0-0--0---0----0-------|2--------2--------2---2----2-------|
E|0-0-0----0---0-0--0---0----0-------|3--------3--------3---3----3-------|
                                      Nothing's         change   my   world
                                               gonna
(Aaaaaaaaaaaaaaaaaaaaaaaaaaaaaaaaaaaaaah)


                                      A                 A7
e|2---2--- 2---2-2- 2------- 2-------|5------- -------- 3------- --------|
B|3---3----3---3-3--3---3----3---x---|2---2----2---x----2---2----2-------|
G|2---2----2---2-2--2---2----2---x---|2---2----2---x----2---2----2-------|
D|0---0----0---0-0--0---0----0---x---|2---2----2---x----2---2----2-------|
A|0---0----0---0-0--0---0----0-------|0---0----0--------0---0----0-------|
E|-----------------------------------|0---0----0--------0---0----0-------|
                                      Nothing's         change   my   world
                                               gonna
(Aaaaaaaaaaaaaaaaaaaaaaaaaaaaaaaaaaaaaah)


  A                                   G
e|0---0--- 0---0-0- 0---0--- 0-------|3------- 3------- 3---3--- 3---2---|
B|2---2----2---2-2--2---2----2----0--|3--------3--------3---3----3---3---|
G|2---2----2---2-2--2---2----2----0--|0--------0--------0---0----0---2---|
D|2---2----2---2-2--2---2----2----0--|0--------0--------0---0----0---0---|
A|0---0----0---0-0--0---0----0-------|2--------2--------2---2----2-------|
E|-----------------------------------|3--------3--------3---3----3-------|
                                      Nothing's         change   my   world
                                               gonna
(Aaaaaaaaaaaaaaaaaaaaaaaaaaaaaaaaaaaaaah)


  D
e|2---2--- 2-----2- 2---2--- 2-------|
B|3---3----3---3-3--3---3----3---3---|
G|2---2----2---2-2--2---2----2---2---|
D|0---0----0---0-0--0---0----0---0---|
A|0---0----0---0-0--0---0----0---0---|
E|-----------------------------------|

(Aaaaaaaaaaaaaaaaaaaaaaaaaaaaaaaaaaaaaah)

  D                 Bm                F#m
e|2---2--- 2---2--- 2---2--- 2---2---|2---2-2- 2---2--- 2---2--- 2-------|
B|3---3----3---3----3---3----3---3---|2---2-2--2---2----2---2----2---0---|
G|2---2----2---2----4---4----4---4---|2---2-2--2---2----2---2----2---0---|
D|0---0----0---0----4---4----4---4---|4---4-4--4---4----4---4----4---0---|
A|------------------2---2----2---2---|4---4-4--4---4----4---4----4-------|
E|-----------------------------------|-----------------------------------|

e|-------- -------- -------- --------|-------- -------- --------w10------|
B|-----------------------------------|--------------------------w12------|
G|-----------------------------------|--------------------------w11------|
D|-----------------------------------|--------------------------w12------|
A|-----------------------------------|-----------------------------------|
E|-----------------------------------|-----------------w10---------------|
  Images        of  broken   light    dance         me  like a million
                                  which    before                     eyes


  Em7                                 A                          A7
e|0---0-0- 0---0-0- 0-0-0--- 0---0---|0---0--- 0---0--- 0---0--- 3---3---|
B|3---3-3--3---3-3--3-3-3----2---3---|2---2----2---2----2---2----2---2---|
G|0---0-0--0---0-0--0-0-0----0---0---|2---2----2---2----2---2----2---2---|
D|0---0-0--0---0-0--0-0-0----0---0---|2---2----2---2----2---2----2---2---|
A|2---2-2--2---2-2--2-2-2----2---2---|0---0----0---0----0---0----0---0---|
E|0---0-0--0---0-0--0-0-0----0---0---|-----------------------------------|

e|-------- -------- -------- --------|-------- -------- -------- --------|
B|-----------------------------------|------------w14--------------------|
G|-----------------------------------|---w14------w14--------------------|
Dw14---------------------------------|-----------------------------------|
A|-----------------------------------|-----------------------------------|
E|-----------------------------------|-----------------------------------|
       That     me  on  and       across   the Universe
           call            on


  D                 Bm                F#m
e|2---2--- 2---2--- 2---2-2- 2-2-2---|2---2--- 2-2-2--- 2-2-2--- 2-------|
B|3---3----3---3----3---3-3--3-3-3---|2---2----2-2-2----2-2-2----2---0---|
G|2---2----2---2----4---4-4--4-4-4---|2---2----2-2-2----2-2-2----2---0---|
D|0---0----0---0----4---4-4--4-4-4---|4---4----4-4-4----4-4-4----4---0---|
A|------------------2---2-2--2-2-2---|4---4----4-4-4----4-4-4----4-------|
E|-----------------------------------|-----------------------------------|

e|-------- -------- -------- --------|--------w5--w5---w5--w5--- --------|
B|-----------------------------------|--------w7--w7---w7--w7---w0--w0---|
G|-----------------------------------|--------w6--w6---w6--w6------------|
D|-----------------------------------|--------w7--w7---w7--w7------------|
A|-----------------------------------|-----------------------------------|
E|-----------------------------------|-----------------------------------|
  Thoughts          like a restless   wind  inside a    letter box    they
       meander


  Em7                                 A                          A7
e|0---0--- 0---0-0- 0---0--- 0-0-0---|0---0--- 0--0-0-- 0---0--- 0---0---|
B|3---3----3---3-3--3---3----3-3-3---|2---2----2--2-2---2---2----2---2---|
G|0---0----0---0-0--0---0----0-0-0---|2---2----2--2-2---2---2----2---2---|
D|0---0----0---0-0--0---0----0-0-0---|2---2----2--2-2---2---2----2---2---|
A|2---2----2---2-2--2---2----2-2-2---|0---0----0--0-0---0---0----0---0---|
E|0---0----0---0-0--0---0----0-0-0---|-----------------------------------|
  tumble blindly    as  they make     way across  the   Universe
                                 their


e|3---3---|
B|2---2---|
G|2---2---|
D|2---2---|
A|0---0---|
E|--------|


  D
e|2---2--- 2-2-2--- 2---2-2- 2---2---|2---2--- 2-2-2--- 2------- 2-------|
B|3---3----3-3-3----3---3-3--3---3---|3---3----3-3-3----3---3----3---3---|
G|2---2----2-2-2----2---2-2--2---2---|2---2----2-2-2----2---2----2---2---|
D|0---0----0-0-0----0---0-0--0---0---|0---0----0-0-0----0---0----0---0---|
A|0---0----0-0-0----0---0-0--0---0---|0---0----0-0-0----0---0----0---0---|
E|-----------------------------------|-----------------------------------|

e|-------- -------- -------- --------|-------- -------- -------- --------|
B|-----------------w7-----------w7---|---w7----------------w7---w7-------|
G|-----------------w7--w7-------w7---w7--w7-------w7---w7--w7---w7--w7---|
D|---------------------w7------------w7-----------w7---w7-----------w7---|
A|-----------------------------------|-----------------------------------|
E|-----------------------------------|-----------------------------------|
  Jai      guru                  deva

  A                                                     A7
e|0---0--- 0------- 0------- 0-------|5------- 5------- 3------- 3-------|
B|2---2----2---2----2---2----2---2---|2--------2--------2--------2-------|
G|2---2----2---2----2---2----2---2---|2--------2--------2--------2-------|
D|2---2----2---2----2---2----2---2---|2--------2--------2--------2-------|
A|0---0----0---0----0---0----0---0---|0--------0--------0--------0-------|
E|-------------0--------0--------0---|-----------------------------------|

e|-------- -------- -------- --------|-------- -------- -------- --------|
B|--------w5----------------w5-------|------------------------------w5---|
G|--------w6--w6---w6-------w6--w6---|--------w6--w6-------w6-------w6---|
D|------------w7---w7-----------w7---|--------w7--w7-------w7------------|
A|-----------------------------------|-----------------------------------|
E|-----------------------------------|-----------------------------------|
  Om                                  Nothing's         change   my   world
                                               gonna


  A                                   G                              D
e|0---0--- 0---0-0- 0---0-0- 0-------|3---3--- 3---3--- 3------- 3-------|
B|2---2----2---2-2--2---2-2--2---0---|3---3----3---3----3--------3---3---|
G|2---2----2---2-2--2---2-2--2---0---|0---0----0---0----0--------0---0---|
D|2---2----2---2-2--2---2-2--2---0---|0---0----0---0----0--------0---0---|
A|0---0----0---0-0--0---0-0--0-------|2---2----2---2----2--------2---2---|
E|-----------------------------------|3---3----3---3----3--------3---3---|

e|-------- -------- -------- --------|-------- -------- -------- --------|
B|--------w5--w5---w5--w5---w5--w3---w3-----------w3----------------w3---|
G|--------w6--w6---w6--w6---w6--w4---w4-------w4--w4----------------w4---|
D|--------w7--w7---w7--w7---w7--w5---w5-------w5-------------------------|
A|-----------------------------------|-----------------------------------|
E|-----------------------------------|-----------------------------------|
                                      Nothing's         change   my   world
                                               gonna
 (Aaaaaaaaaaaaaaaaaaaaaaaaaaaaaaaaaaaaah)


                                      A                 A7
e|2---2--- 2---2-2- 2------- 2-------|5------- -------- 3------- --------|
B|3---3----3---3-3--3---3----3---3---|2---2----2---x----2---2----2---x---|
G|2---2----2---2-2--2---2----2---2---|2---2----2---x----2---2----2---x---|
D|0---0----0---0-0--0---0----0---0---|2---2----2---x----2---2----2---x---|
A|0---0----0---0-0--0---0----0---0---|0---0----0--------0---0----0-------|
E|-----------------------------------|-----------------------------------|

e|-------- -------- -------- --------|-------- -------- -------- --------|
Bw7-------w7--w7---w7--w7---w7-------|-----------------------------------|
Gw7-------w7--w7---w7--w7---w7-------|-----------------------------------|
Dw7-------w7--w7---w7--w7---w7-------|-----------------------------------|
A|-----------------------------------|-----------------------------------|
E|-----------------------------------|-----------------------------------|
                                      Nothing's         change   my   world
                                               gonna
 (Aaaaaaaaaaaaaaaaaaaaaaaaaaaaaaaaaaaaah)


  A                                   G
e|0---0--- 0---0-0- 0---0--- 0-0-----|3---3--- 3---3-3- 3---3--- 3---3---|
B|2---2----2---2-2--2---2----2-2--0--|3---3----3---3-3--3---3----3---3---|
G|2---2----2---2-2--2---2----2-2--0--|0---0----0---0-0--0---0----0---0---|
D|2---2----2---2-2--2---2----2-2--0--|0---0----0---0-0--0---0----0---0---|
A|0---0----0---0-0--0---0----0-0-----|2---2----2---2-2--2---2----2---2---|
E|-----------------------------------|3---3----3---3-3--3---3----3---3---|

e|-------- -------- -------- --------|-------- -------- -------- --------|
B|--------w5--w5---w5-------w5--w3---|-----------------------------------|
G|--------w6--w6---w6-------w6--w4---|-----------------------------------|
D|--------w7--w7---w7-------w7--w5---|-----------------------------------|
A|-----------------------------------|-----------------------------------|
E|-----------------------------------|-----------------------------------|
                                      Nothing's         change   my   world
                                               gonna
 (Aaaaaaaaaaaaaaaaaaaaaaaaaaaaaaaaaaaaah)


  D
e|2---2-2- 2---2-2- 2------- 2-------|
B|3---3-3--3---3-3--3---3----3---3---|
G|2---2-2--2---2-2--2---2----2---2---|
D|0---0-0--0---0-0--0---0----0---0---|
A|0---0-0--0---0-0--0---0----0---0---|
E|-----------------------------------|
 (Aaaaaaaaaaaaaaaaaaaaaaaaaaaaaaaaaah)

  D                 Bm                F#m
e|2---2--- 2---2--- 2---2-2- 2-2-2---|2---2--- 2---2--- 2---2--- 2-------|
B|3---3----3---3----3---3-3--3-3-3---|2---2----2---2----2---2----2---0---|
G|2---2----2---2----4---4-4--4-4-4---|2---2----2---2----2---2----2---0---|
D|0---0----0---0----4---4-4--4-4-4---|4---4----4---4----4---4----4---0---|
A|------------------2---2-2--2-2-2---|4---4----4---4----4---4----4-------|
E|-----------------------------------|-----------------------------------|

e|-------- -------- -------- --------|-------- -------- -------- --------|
B|-----------------------------------|--------------------------+12------|
G|-----------------------------------|-----------------------------------|
D|-----------------------------------|-----------------------------------|
A|-----------------------------------|-----------------------------------|
E|-----------------------------------|-----------------------------------|
  Sounds laughter   shades life   are ringing  through  open ears     ex..
       of                of                         my


  Em7               Gm
e|0---0--- 0---0--- 3---3--- --3-3---|3---3--- 3-------|
B|3---3----3---3----3---3------3-3---|3---3----3---x---|
G|0---0----0---0----3---3------3-3---|3---3----3---x---|
D|0---0----0---0----5---5------5-5---|5---5----5---x---|
A|2---2----2---2----5---5------5-5---|5---5----5-------|
E|-----------------------------------|-----------------|

e10------- -------- -------- --------w3--w3---w3--w2---|
Bw8----------------------------------w3--w3---w3--w3---|
Gw9----------------------------------w3--w3---w3--w2---|
Dw9----------------------------------|-----------------|
A|-----------------------------------|-----------------|
E|-----------------------------------|-----------------|
  citing   and  inviting     me

  D                 Bm                F#m
e|2---2--- 2---2-2- 2---2-2- 2-2-2---|2---2--- 2---2--- 2---2--- 2-------|
B|3---3----3---3-3--3---3-3--3-3-3---|2---2----2---2----2---2----2---0---|
G|2---2----2---2-2--4---4-4--4-4-4---|2---2----2---2----2---2----2---0---|
D|0---0----0---0-0--4---4-4--4-4-4---|4---4----4---4----4---4----4---0---|
A|------------------2---2-2--2-2-2---|4---4----4---4----4---4----4-------|
E|-----------------------------------|-----------------------------------|

ew2------- -------- -------- --------|-------- -------- -------- w7------|
Bw3----------------------------------|--------------------------w8-------|
Gw2----------------------------------|-----------------------------------|
D|-----------------------------------|-----------------------------------|
A|-----------------------------------|-----------------------------------|
E|-----------------------------------|-----------------------------------|
   Limitless    undying    love   which    around   me  like a million
                                      shines


  Em7                                 A                          A7
e|0---0-0- 0-0-0-0- 0-0-0--- 0---0---|0---0--- 0-0-0--- 0-0-0--- 3-------|
B|3---3-3--3-3-3-3--3-3-0----2---3---|2---2----2-2-2----2-2-2----2---2---|
G|0---0-0--0-0-0-0--0-0-0----0---0---|2---2----2-2-2----2-2-2----2---2---|
D|0---0-0--0-0-0-0--0-0-0----0---0---|2---2----2-2-2----2-2-2----2---2---|
A|2---2-2--2-2-2-2--2-2-2----2---2---|0---0----0-0-0----0-0-0----0---0---|
E|0---0-0--0-0-0-0--0-0-0----0---0---|-----------------------------------|

e|-------- -------- -------- --------|-------- --------w7/9----- -----w9\|
Bw3--w3---w3-------------------------|-----------------------------------|
Gw4--w4---w4-------------------------|-----------------w7/9-----------w9\|
Dw5--w5---w5-------------------------|-----------------------------------|
A|-----------------------------------|-----------------------------------|
E|-----------------------------------|-----------------------------------|
  suns It  calls    on   and      across   the Universe
                me         on


  D
e|2---2--- 2---2--- 2---2--- 2---2---|2---2--- 2-2-2--- 2-2-2--- 2-------|
B|3---3----3---3----3---3----3---3---|3---3----3-3-3----3-3-3----3---3---|
G|2---2----2---2----2---2----2---2---|2---2----2-2-2----2-2-2----2---2---|
D|0---0----0---0----0---0----0---0---|0---0----0-0-0----0-0-0----0---0---|
A|0---0----0---0----0---0----0---0---|0---0----0-0-0----0-0-0----0---0---|
E|-----------------------------------|-----------------------------------|

e|-------- -------- -------- --------|-------- -------- -------- --------|
B|-----------------------------------|--------------------------w3-------|
G|-----------------------------------|---w2-------w2----------------w2---|
D|-----------------------------------w4-------w4-------------------------|
A|-----------------------------------|-----------------------------------|
E|-----------------------------------|-----------------------------------|
  Jai      guru                  deva

  A                                                     A7
e|0---0--- 0------- 0------- 0-------|5------- 5------- 3------- 3-------|
B|2---2----2---2----2---2----2---0---|2---2----2---2----2---2----2---2---|
G|2---2----2---2----2---2----2---0---|2---2----2---2----2---2----2---2---|
D|2---2----2---2----2---2----2---0---|2---2----2---2----2---2----2---2---|
A|0---0----0---0----0---0----0-------|0---0----0---0----0---0----0---0---|
E|----0----0---0----0---0----0-------|0---0----0---0----0---0----0---0---|

e|-------- -------- -------- --------|-------- -------- -------- --------|
B|--------w5--w5---w5--w5---w5-------|-----------------------------------|
G|--------w6--w6---w6--w6---w6-------|-----------------------------------|
D|--------w7--w7---w7--w7---w7-------|-----------------------------------|
A|-----------------------------------|-----------------------------------|
E|-----------------------------------|-----------------------------------|
  Om                                  Nothing's         change   my   world
                                               gonna


  A                                   G
e|0---0--- 0---0-0- 0---0-0- 0-------|3---3--- 3---3--- 3---3--- 3-------|
B|2---2----2---2-2--2---2-2--2---0---|3---3----3---3----3---3----3---0---|
G|2---2----2---2-2--2---2-2--2---0---|0---0----0---0----0---0----0---0---|
D|2---2----2---2-2--2---2-2--2---0---|0---0----0---0----0---0----0---0---|
A|0---0----0---0-0--0---0-0--0-------|2---2----2---2----2---2----2-------|
E|0---0----0---0-0--0---0-0--0-------|3---3----3---3----3---3----3-------|

e|-------- -------- -------- --------|-------- -------- -------- --------|
B|------------w5---w5--w5---w5--w3---|-----------------w2----------------|
G|------------w6---w6--w6---w6--w4---|-----------------w4----------------|
D|------------w7---w7--w7---w7--w5---|-----------------w5----------------|
A|-----------------------------------|-----------------------------------|
E|-----------------------------------|-----------------------------------|
                                      Nothing's         change   my   world
                                               gonna
(Aaaaaaaaaaaaaaaaaaaaaaaaaaaaaaaaaaah)


  D                                   A                 A7
e|2---2-2- 2---2--- 2---2--- 2---2---|5------- -------- 3------- --------|
B|3---3-3--3---3----3---3----3---3---|2---2----2---2----2---2----2---2---|
G|2---2-2--2---2----2---2----2---2---|2---2----2---2----2---2----2---2---|
D|0---0-0--0---0----0---0----0---0---|2---2----2---2----2---2----2---2---|
A|0---0-0--0---0----0---0----0---0---|0---0----0---0----0---0----0---0---|
E|-----------------------------------|-------------0----0---0----0---0---|

e|-------- -------- -------- --------|-------- -------- -------- --------|
B|--------w7--w7---w7-------w7-------w5----------------------------------|
G|--------w7--w7---w7-------w7-------w6----------------------------------|
D|--------w7--w7---w7-------w7-------w7----------------------------------|
A|-----------------------------------|-----------------------------------|
E|-----------------------------------|-----------------------------------|
                                      Nothing's         change   my   world
                                               gonna
(Aaaaaaaaaaaaaaaaaaaaaaaaaaaaaaaaaaah)


  A                                   G
e|0---0--- 0---0-0- 0---0--- 0-------|3---3--- 3---3--- 3---3-3- 3---3---|
B|2---2----2---2-2--2---2----2---0---|3---3----3---3----3---3-3--3---3---|
G|2---2----2---2-2--2---2----2---0---|0---0----0---0----0---0-0--0---0---|
D|2---2----2---2-2--2---2----2---0---|0---0----0---0----0---0-0--0---0---|
A|0---0----0---0-0--0---0----0-------|2---2----2---2----2---2-2--2---2---|
E|-----------------------------------|3---3----3---3----3---3-3--3---3---|

e|-------- -------- -------- --------|-------- -------- -------- --------|
B|---w5------------w5-------w5-------w3----------------------------------|
G|---w6------------w6-------w6-------w4----------------------------------|
D|---w7------------w7-------w7-------w5----------------------------------|
A|-----------------------------------|-----------------------------------|
E|-----------------------------------|-----------------------------------|
                                      Nothing's         change   my   world
                                               gonna
(Aaaaaaaaaaaaaaaaaaaaaaaaaaaaaaaaaaah)


  D
e|2---2--- 2---2-2- 2---2-2- 2-------|
B|3---3----3---3-3--3---3-3--3---3---|
G|2---2----2---2-2--2---2-2--2---2---|
D|0---0----0---0-0--0---0-0--0---0---|
A|0---0----0---0-0--0---0-0--0---0---|
E|-----------------------------------|
 (Aaaaaaaaaaaaaaaaaaaaaaaaaaaaaaaaaah)
e|-------- -------- -------- --------|
B|--------w7--w7---w7-------w7-------|
G|--------w7--w7---w7-------w7-------|
D|--------w7--w7---w7-------w7-------|
A|-----------------------------------|
E|-----------------------------------|

e|2---2--- 2------- 2---2--- 2---2---|2---2--- 2------- 2---2--- 2-------|
B|3---3----3---3----3---3----3---3---|3---3----3---3----3---3----3---3---|
G|2---2----2---2----2---2----2---2---|2---2----2---2----2---2----2---2---|
D|0---0----0---0----0---0----0---0---|0---0----0---0----0---0----0---0---|
A|0---0----0---0----0---0----0---0---|0---0----0---0----0---0----0---0---|
E|-----------------------------------|-----------------------------------|

e|-------- -------- -------- --------|-------- -------- -------- ---w10--|
Bw7----------------------------------|---------------------w10-----------|
Gw7----------------------------------|--------------------------w11------|
Dw7----------------------------------|-----------------------------------|
A|-----------------------------------|-----------------------------------|
E|-----------------------------------|-----------------------------------|
  Jai      guru                  deva

  D
e|2---2-2- 2---2--- 2-2-2--- 2---2---|----2--- 2------- ----2--- 2-------|
B|3---3-3--3---3----3-3-3----3---3---|3---3----3---3----3---3----3---3---|
G|2---2-2--2---2----2-2-2----2---2---|2---2----2---2----2---2----2---2---|
D|0---0-0--0---0----0-0-0----0---0---|0---0----0---0----0---0----0---0---|
A|0---0-0--0---0----0-0-0----0---0---|0---0----0---0----0---0----0---0---|
E|-----------------------------------|-----------------------------------|

e|-------- -------- -------- --------|-------- -------- -------- --------|
B|---w10-----------------------------|-----------------------------------|
G|------------w11--------------------|-----------------------------------|
D|-----------------------------------|0---0--------------------------0---|
A|-----------------------------------|------------------0---2----4-------|
E|-----------------------------------|---------2---3---------------------|
  Jai      guru                  deva
          (guru                  deva)


  D
e|2---2--- 2---2-2- 2---2--- ----2---|----2--- 2------- 2---2-2- 2-------|
B|3---3----3---3-3--3---3--------3---|----3----3---3----3---3-3--3---3---|
G|2---2----2---2-2--2---2--------2---|----2----2---2----2---2-2--2---2---|
D|0---0----0---0-0--0---0--------0---|----0----0---0----0---0-0--0---0---|
A|0---0----0---0-0--0---0--------0---|----0----0---0----0---0-0--0---0---|
E|-----------------------------------|-----------------------------------|

e|-------- -------- -------- --------|-------- -------- -------- --------|
B|-----------------------------------|-----------------------------------|
G|-----------------------------------|-----------------------------------|
D|0---0--------------------------0---|0------------------------------0---|
A|------------------0---2----4-------|------------------0---2----4-------|
E|---------2---3---------------------|---------2---3---------------------|
  Jai      guru                  deva
 (Jai      guru                  deva)
                                      .............. Fade ...............

  D
e|2-2-2--- 2---2-2- 2-2-2--- ----2---|2---2--- 2-2-2--- 2---2-2- 2-------|
B|3-3-3----3---3-3--3-3-3--------3---|3---3----3-3-3----3---3-3--3---3---|
G|2-2-2----2---2-2--2-2-2--------2---|2---2----2-2-2----2---2-2--2---2---|
D|0-0-0----0---0-0--0-0-0--------0---|0---0----0-0-0----0---0-0--0---0---|
A|0-0-0----0---0-0--0-0-0--------0---|0---0----0-0-0----0---0-0--0---0---|
E|-----------------------------------|-----------------------------------|

e|-------- -------- -------- --------|-------- -------- -------- --------|
B|-----------------------------------|-----------------------------------|
G|-----------------------------------|-----------------------------------|
D|0---0--------------------------0---|0------------------------------0---|
A|------------------0---2----4-------|------------------0---2----4-------|
E|---------2---3---------------------|---------2---3---------------------|
  Jai      guru                  deva
 (Jai      guru                  deva)
  .......................................................................

  D
e|2---2--- 2-2-2--- 2---2-2- 2-------|2---2-2- 2---2--- 2---2--- 2-------|
B|3---3----3-3-3----3---3-3--3---3---|3---3-3--3---3----3---3----3---3---|
G|2---2----2-2-2----2---2-2--2---2---|2---2-2--2---2----2---2----2---2---|
D|0---0----0-0-0----0---0-0--0---0---|0---0-0--0---0----0---0----0---0---|
A|0---0----0-0-0----0---0-0--0---0---|0---0-0--0---0----0---0----0---0---|
E|-----------------------------------|-----------------------------------|

e|-------- -------- -------- --------|-------- -------- -------- --------|
B|-----------------------------------|-----------------------------------|
G|-----------------------------------|-----------------------------------|
D|----0--------------------------0---|0------------------------------0---|
A|------------------0---2----4-------|------------------0---2----4-------|
E|---------2---3---------------------|---------2---3---------------------|
  Jai      guru                  deva
 (Jai      guru                  deva)
  .......................................................................


  D
e|2---2--- 2------- 2---2-2- 2-------|2---2--- 2---2--- 2------- 2-------|
B|3---3----3---3----3---3-3--3---3---|3---3----3---3----3---3----3---3---|
G|2---2----2---2----2---2-2--2---2---|2---2----2---2----2---2----2---2---|
D|0---0----0---0----0---0-0--0---0---|0---0----0---0----0---0----0---0---|
A|0---0----0---0----0---0-0--0---0---|0---0----0---0----0---0----0---0---|
E|-----------------------------------|-----------------------------------|

e|-------- -------- -------- --------|-------- -------- -------- --------|
B|-----------------------------------|-----------------------------------|
G|-----------------------------------|-----------------------------------|
D|----0--------------------------0---|0---0--------------------------0---|
A|------------------0---2----4-------|------------------0---2----4-------|
E|---------2---3---------------------|---------2---3---------------------|
  Jai      guru                  deva
 (Jai      guru                  deva)
  .......................................................................


        B  Bend
        R  Release
        /  Slide up
        \  Slide down
        H  Hammer-on
        P  Pull-off
        ~  Vibrato
        +  Harmonic
        x  Mute note
        .  Play note like a dot in standard notation
        ^  Ties two notes together
        (. Pause
        w  Wah


    ------------------------------------------------------------

    THE BEATLES - LET IT BE (Lennon & McCartney). Released as a
                  single w YOU KNOW MY NAME (LOOK UP THE NUMBER)
                  as the B side on 6th March 1970.

    ------------------------------------------------------------

    Tabbed by:PJVillanueva


    When I find myself in times of trouble
    Mother Mary comes to me
    Speaking words of wisdom, let it be.

    And in my hour of darkness
    She is standing right in front of me
    Speaking words of wisdom, let it be.

    Let it be, let it be.
    Let it be, let it be.
    Whisper words of wisdom, let it be.

    And when the broken hearted people
    Living in the world agree,
    There will be an answer, let it be.

    For though they may be parted there is
    Still a chance that they will see
    There will be an answer, let it be

    Let it be, let it be.
    Let, let it, let it be.
    Yeah, there will be an answer, let it be.

    Let it be, let it be.
    Let it be, let it be.
    Whisper words of wisdom, let it be.

    (Instrumental Break)

    Let it be, let it be.
    Let it be, let it be.
    Whisper words of wisdom, let it be.

    And when the night is cloudy,
    There is still a light that shines on me.
    Shine on 'til tomorrow, let it be.

    I wake up to the sound of music
    Mother Mary comes to me
    Speaking words of wisdom, let it be.

    Let it be, let it be.
    Let it be, yeah let it be.
    Oh there will be an answer, let it be.

    Let it be, let it be.
    Let it be, yeah let it be.
    Oh there will be an answer, let it be.

    Let it be, let it be.
    Let it be, yeah let it be.
    Whisper words of wisdom, let it be.


    C               G               Am              Fmaj7   F6
  e|0------ 0------ 3------ 3------|0------ 0---0-- 0------ -------|
  B|1-------1-------3-------3------|1-------1---1---1-------3------|
  G|0-------0-------0-------0------|2-------2---2---2-------2------|
  D|-------------------------------|------------------------3------|
  A|3---3-------3------------------|0---0--------------------------|
  E|--------------2/3---3-------3--|------------3---1---1-------1--|


    C               G               F               C
  e|0------ 0------ 3------ 3------|5------ 3---1-- 0------ -------|
  B|1-------1-------3-------3------|6-------5---3---1--------------|
  G|0-------0-------0-------0------|----------------0--------------|
  D|-------------------------------|3------------------------------|
  A|3---3-------3------------------|----------------3---3---3---3--|
  E|--------------2/3----3------3--|-------------------------------|
                                                                When
                                                                  I


    00:13
    C               G               Am              Fmaj7   F6
  e|0------ 0------ 3------ 3------|0------ 0---0-- 0------ -------|
  B|1-------1-------3-------3------|1-------1---1---1-------3------|
  G|0-------0-------0-------0------|2-------2---2---2-------2------|
  D|-------------------------------|------------------------3------|
  A|3---3-------3------------------|0---0--------------------------|
  E|--------------2/3---3-------3--|------------3---1---1-------1--|
    find        in  times   trouble Mother      comes   to
        myself          of              Mary              me

    C               G               F               C
  e|0------ 0------ 3------ 3------|------- ------- 0------ 0------|
  B|1-------1-------3-------3------|----------------1-------1------|
  G|0-------0-------0-------0------|2-------0-------0-------0------|
  D|-------------------------------|3-------2---3---2--------------|
  A|3---3-------3------------------|------------5---3---3-------3--|
  E|--------------2/3---3-------3--|1---1--------------------------|
    speaking    of            Let be                              And
            words wisdom        it

    00:26
    C               G               Am              Fmaj7   F6
  e|0------ 0------ 3------ 3------|0------ 0---0-- 0------ -------|
  B|1-------1-------3-------3------|1-------1---1---1-------3------|
  G|0-------0-------0-------0------|2-------2---2---2-------2------|
  D|-------------------------------|------------------------3------|
  A|3---3--------------------------|0------------------------------|
  E|--------------2/3-----------3--|------------3---1-----------1--|
    in    hour  of          she is          right in    of
      my          darkness        standing          front me

    C               G               F               C
  e|0------ 0------ 3------ 3------|------- ------- 0------ 0------|
  B|1-------1-------3-------3------|----------------1-------1------|
  G|0-------0-------0-------0------|2-------0-------0-------0------|
  D|-------------------------------|3-------2---3---2--------------|
  A|3---3--------------------------|------------5---3---3---3---2--|
  E|--------------2/3---3-------3--|1---1--------------------------|
    speaking    of            Let be                        Let   be
            words wisdom        it                             it

    00:39
    Am              Am7             Fmaj7           C
  e|0------ 0------ 0------ 0------|0------ 0------ 0------ 0------|
  B|1-------1-------1-------1------|1-------1-------1-------1------|
  G|2-------2-------2-------2------|2-------2-------0-------0------|
  D|-------------------------------|-------------------------------|
  A|0-----------0------------------|----------------3---3---3---3--|
  E|----------------3---3---3---3--|1-------1----------------------|
            let   be        let   be        let   be
               it             it              it


  e|0------ 0------ 3------ 3------|------- ------- 0---0-- 0---0--|
  B|1-------1-------3-------3------|----------------1---1---1---1--|
  G|0-------0-------0-------0------|2-------0-------0---0---0---0--|
  D|-------------------------------|3-------2---3------------------|
  A|3---3-------3------------------|------------5---3---3---3---3--|
  E|--------------2/3---3-------3--|1---1--------------------------|
      Whisper   of            let be                            And
          words   wisdom        it


    00:52

  e|0------ 0------ 3------ 3------|0------ 0---0-- 0------ -------|
  B|1-------1-------3-------3------|1-------1---1---1-------3------|
  G|0-------0-------0-------0------|2-------2---2---2-------2------|
  D|-------------------------------|------------------------3------|
  A|3---3-------3------------------|0---0--------------------------|
  E|--------------2/3-----------3--|------------3---1---1-------1--|
    when  broken          people    living      the     agree
        the     hearted                 in        world


  e|0------ 0------ 3------ 3------|------- ------- 0---0-- 0------|
  B|1-------1-------3-------3------|1---------------1---1---1------|
  G|0-------0-------0-------0------|2-------0-------0---0---0------|
  D|-------------------------------|3-------2---3------------------|
  A|3---3-------3------------------|------------5---3-------3------|
  E|--------------2/3-----------3--|----1--------------------------|
    There will  an            let be                              For
              be  answer        it

    01:05

  e|0------ 0------ 3------ 3------|0------ 0---0-- 0------ -------|
  B|1-------1-------3-------3------|1-------1---1---1-------3------|
  G|0-------0-------0-------0------|2-------2---2---2-------2------|
  D|-------------------------------|------------------------3------|
  A|3---3-------3------------------|0------------------------------|
  E|--------------2/3---3----------|------------3---1-------1---1--|
    though    be              there still       that    will
        they    parted          is    a chance    they    see
          may

                                                      xxx x X X x
  e|0------ 0------ 3------ 3------|------- ------- 0------ 0------|
  B|1-------1-------3-------3------|----------------1-------1------|
  G|0-------0-------0-------0------|2-------0-------0-------0------|
  D|-------------------------------|3-------2---3---2--------------|
  A|3---3--------------------------|------------5---3---3---3---2--|
  E|------------0-2-3---3-------3--|1---1--------------------------|
    There will  an            let be                        Let   be
            be    answer        it                            it

    01:19

  e|0------ 0------ 0------ 0------|0------ 0------ 0------ 0------|
  B|1-------1-------1-------1------|1-------1-------1-------1------|
  G|2-------2-------2-------2------|2-------2-------0-------0------|
  D|-------------------------------|-------------------------------|
  A|0---0-------0------------------|----------------3---3-------3--|
  E|----------------3---3-------3--|1---1-------1------------------|
            let   be        let   be        let   be              Yeah
               it             it              it


  e|0------ 0------ 3------ 3------|------- ------- 0---0-0 0---0--|
  B|1-------1-------3-------3------|----------------1---1-1-1---1--|
  G|0-------0-------0-------0------|2-------0-------0---0-0-0---0--|
  D|-------------------------------|3-------2---3------------------|
  A|3---3-------3------------------|------------5---3---3---3---3--|
  E|----------------3---3-------3--|1------------------------------|
    there   be  answer        let be                          Let be
          will an               it                              it

    01:32

  e|0------ 0------ 0------ 0------|0------ 0------ 0------ 0------|
  B|1-------1-------1-------1------|1-------1-------1-------1------|
  G|2-------2-------2-------2------|2-------2-------0-------0------|
  D|-------------------------------|-------------------------------|
  A|0---0-------0------------------|----------------3---3-------3--|
  E|----------------3---3-------3--|1---1-------1------------------|
            let   be        let   be        let   be
               it             it              it


  e|0------ 0------ 3------ 3------|------- ------- 0---0-0 0-0-0--|
  B|1-------1-------3-------3------|----------------1---1-1-1-1-1--|
  G|0-------0-------0-------0------|2-------0-------0---0-0-0-0-0--|
  D|-------------------------------|3-------2---3------------------|
  A|3---3-------3------------------|------------5---3---3---3---3--|
  E|----------------3---3-------3--|1------------------------------|
    whisper     of            let be
          words   wisdom        it

    F               C       Bb  F   G       F       C
  e|5------ ------- ------- -------|------- ------- ------- -------|
  B|6-------8---6---5-------3---1--|0-------1-------1--------------|
  G|5-------5---5---5-------3---2--|0-------2-------0--------------|
  D|----------------5-------3---3--|0-------3-------2--------------|
  A|-------------------------------|----------------3-------3------|
  E|-------------------------------|3---3---1---1------------------|

  e|------- ------- ------- -------|------- ------- ------- -------|
  B|-------------------------------|-------------------------------|
  G|2-------0---0------------------|-------------------------------|
  D|3-------2---0---2-------0------|-------------------------------|
  A|----------------3-------1---3--|2-------3-------3--------------|
  E|----------------------------5--|3-------1-------0--------------|

  e|5------ 3---3-- ------- -------|------- ------- ----3-3 3-3----|
  B|6-------5---3---5-------3---1--|0-------1-------1---5-5\3-1----|
  G|5-------5---4---5-------3---2--|0-------2-------0-----------2--|
  D|----------5---5-5---------3---0|0-------3-------2--------------|
  A|-------------------------------|----------------3--------------|
  E|-------------------------------|3-------1-------0--------------|

  e|------- ------- ------- -------|------- ------- ------- -------|
  B|-------------------------------|-------------------------------|
  G|-------------------------------|-------------------------------|
  D|-------------------------------|-------------------------------|
  A|-------------------------------|-------------------------------|
  E|-------------------------------|----------------------------3H5|

    SOLO
    02:00

  e|0---0-- 0---0-- 3---3-- 3---3--|0---0-- 0---0-- 0---0-- -------|
  B|1---1---1---1---3---3---3---3--|1---1---1---1---1---1---3---3--|
  G|0---0---0---0---0---0---0---0--|2---2---2---2---2---2---2---2--|
  D|-------------------------------|------------------------3---3--|
  A|3-------3----------------------|0-------0----------------------|
  E|----------------3-------3------|----------------3-------1------|

  e|------- ------- ------- -------|------- ------- ------- -------|
  B|-------------------------------|---------------------------------|
  G|-------------------------------|---------------------------------|
  D|---------BR--------------------|----5---7P5----------------------|
  A|3---3---575-3---5---5-------3H5/7-----------7\5-3-------------5--|
  E|------------------------3H5----|---------------------------------|

  e|0---0-- 0---0-- 3---3-- 3---3--|------- ------- ----0-0 --0-0--|
  B|1---1---1---1---3---3---3---3--|1---1---1---0---1---1-1---1-1--|
  G|0---0---0---0---0---0---0---0--|2-------0---0---0---0-0---0-0--|
  D|-------------------------------|3-------2---0---2--------------|
  A|3-------3----------------------|----------------3---3---3---3--|
  E|----------------3-------3------|-------------------------------|

  e|------- ------- ------- -------|------- ------- ------- -------|
  B|------------------8-10P8-------|---------------------------------|
  G|--------------5-79------9\7-5--|7P5------------------------------|
  D|--5-5---5---7----/-------------|----7-5--------------------------|
  A|7-----7------------------------|----------7\5---3-------------5--|
  E|-------------------------------|----------------------------35---|
                                                                 P


  e|0---0-- 0---0-- 3---3-- 3---3--|0---0-0 ----0-- 0------ -------|
  B|1---1---1---1---3---3---3---3--|1---1-1-----1---1-------3------|
  G|0---0---0---0---0---0---0---0--|2---2-2-----2---2-------2------|
  D|-------------------------------|------------------------3------|
  A|3-------3----------------------|0-------0----------------------|
  E|----------------3-------3------|------------3---1-------1------|

  e|------- ------- ------- -------|------- ------- ------- -------|
  B|-------------------------------|----8---10P8------------------5--|
  G|--------------7/9--7-5H7------7/9-----------9\7-5-----------57---|
  D|------5/7---5-----------7--5H7-|-----------------------------H---|
  A|7---3--------------------------|---------------------------------|
  E|-------------------------------|---------------------------------|

  e|0------ 0------ 3------ 3------|------- ------- ------- -------|
  B|1-------1-------3-------3------|1---1---1---0---1-------0------|
  G|0-------0-------0-------0------|2---2---0---0---0-------0------|
  D|-------------------------------|3---3---2---0---2-------2------|
  A|3-------3----------------------|----------------3-------2------|
  E|----------------3-------3------|-------------------------------|

  e|----8-- ------- 101210- 8-----8|------- ------- ------- -------|
  B|--------10P8------B--------10-8|----10\8-----------------------|
  G|9-----------9------------------|---9----9\7-5---5--------------|
  D|-------------------------------|-------------------------------|
  A|-------------------------------|-------------------------------|
  E|-------------------------------|-------------------------------|
                                                            Let   be
                                                              it


    02:27

  e|0------ 0------ 0------ 0------|0------ 0------ 0------ 0------|
  B|1-------1-------1-------1------|1-------1-------1-------1------|
  G|2-------2-------2-------2------|2-------2-------0-------0------|
  D|-------------------------------|-------------------------------|
  A|0-----------0------------------|----------------3-------3------|
  E|----------------3---3---3---3--|1-------1----------------------|
            let   be        let   be    eh  let   be
               it             it              it

  e|0------ 0------ 3------ 3------|------- ------- ------- -------|
  B|1-------1-------3-------3------|-------------------------------|
  G|0-------0-------0-------0------|2-------0----------------------|
  D|-------------------------------|3-------2---3------------------|
  A|3-------3----------------------|------------5------------------|
  E|--------------2/3-------3------|1------------------------------|
    Whisper       of          let be        Eeeeeeeeeee           And
          words     wisdom      it


    02:41

  e|0------ 0---0-- 3------ 3------|0------ 0---0-- 0------ -------|
  B|1-------1---1---3-------3------|1-------1---1---1-------3------|
  G|0-------0---0---0-------0------|2-------2---2---2-------2------|
  D|-------------------------------|------------------------3------|
  A|3-------3----------------------|0---0---0----------------------|
  E|----------------3-------3------|------------3---1-------1---1--|
    when  night is          there   still       that  on
        the       cloudy        is    a light     shines  me


  e|0------ 0------ 3------ 3------|------- ------- 0------ 0------|
  B|1-------1-------3-------3------|1---------------1-------1------|
  G|0-------0-------0-------0------|2-------0-------0-------0------|
  D|-------------------------------|3-------2---3------------------|
  A|3---3-------3------------------|------------5---3-------3------|
  E|--------------2/3-------3------|1------------------------------|

  e|------- ------- ------- -------|------- ------- ------- -------|
  B|-------------------------------|-------------------------------|
  G|-------------------------------|----------------5---5----------|
  D|-------------------------------|----------------5H7-5----------|
  A|-------------------------------|------------------------7\5-3H5|
  E|-------------------------------|-------------------------------|
    shine       tomorrow      let be                              I
          until                  it

    02:55

  e|0------ 0------ 3------ 3------|1------ 0---0-- 0------ -------|
  B|1-------1-------3-------3------|1-------1---1---1-------3------|
  G|0-------0-------0-------0------|2-------2---2---2-------2------|
  D|-------------------------------|------------------------3------|
  A|3---3-------3------------------|0-------0----------------------|
  E|--------------2/3-------3------|------------3---1-------1---1--|

  e|------- ------- ------- -------|------- ------- ------- -------|
  B|-------------------------------|-------------------------------|
  G|-------------------------------|-------------------------------|
  D|-------------------------------|-------------------------------|
  A|3------------------------------|-------------------------------|
  E|-------------------------------|-------------------------------|
    wake    to  the     of          mother        comes me
        up        sound   music         Mary          to


  e|0------ 0------ 3------ 3------|------- ------- 0------ 0------|
  B|1-------1-------3-------3------|1---------------1-------1------|
  G|0-------0-------0-------0------|2-------0-------0-------0------|
  D|-------------------------------|3-------2---3---2--------------|
  A|3---3--------------------------|------------5---3---3---3---2--|
  E|------------0---3-------3------|1---1--------------------------|
    speaking    of            Let be            Eeeeeee ah  Let   be
            words   wisdom      it                            it

    03:09

  e|0------ 0------ 0------ 0------|0------ 0------ 0---0-0 --0-0--|
  B|1-------1-------1-------1------|1-------1-------1---1-1---1-1--|
  G|2-------2-------2-------2------|2-------2-------0---0-0---0-0--|
  D|-------------------------------|-------------------------------|
  A|0---0-------0------------------|----------------3-------3------|
  E|----------------3---3-------3--|1-------1----------------------|
            let   be        let   be    eh  let   be              Oh
               it             it              it


  e|0------ 0------ 3------ 3------|------- ------- 0---0-0 0---0--|
  B|1-------1-------3-------3------|----------------1---1-1-1---1--|
  G|0-------0-------0-------0------|2-------0-------0---0-0-0---0--|
  D|-------------------------------|3-------2---3------------------|
  A|3---3-------3------------------|------------5---3-------3------|
  E|----------------3---3-------3--|1---1--------------------------|

  e|------- ------- ------- -------|------- ------- ------- -------|
  B|-------------------------------|-------------------------------|
  G|--------------------7B9-7P5-7--|5-----------5---5-------------5|
  D|-------------------------------|--------5H7----------------5H7-|
  A|-------------------------------|-------------------------------|
  E|-------------------------------|----------------------------3H5|
    there     be  answer      let be.           Eeeeeee     Let   be
          will  an              it                            it

    03:23

  e|0------ 0------ 0------ 0------|0------ 0------ 0---0-- 0---0--|
  B|1-------1-------1-------1------|1-------1-------1---1---1---1--|
  G|2-------2-------2-------2------|2-------2-------0---0---0---0--|
  D|-------------------------------|-------------------------------|
  A|0---0-------0------------------|----------------3-------3------|
  E|----------------3---3-------3--|1---1-------1------------------|

  e|------- ------- ------- -------|------- ------- ------- -------|
  B|-------------------------------|----------8-8---8----------1513|
  G|----5-------5------------------|5-------79----9-----------B--R-|
  D/7-------5H7--------------------|---------/---------------------|
  A|----------------7\5-3-5-3------|-------------------------------|
  E|-------------------------------|-------------------------------|
            let   be        let   be    eh  let   be
               it             it              it


  e|0------ 0------ 3------ 3------|------- ------- 0---0-0 0-0-0--|
  B|1-------1-------3-------3------|----------------1---1-1-1-1-1--|
  G|0-------0-------0-------0------|2-------0-------0---0-0-0-0-0--|
  D|-------------------------------|3-------2---3------------------|
  A|3---3---3---3------------------|------------5---3-------3------|
  E|----------------3---3---3---3--|1------------------------------|

  e|------- ------- ------- -------|------- ------- ------- -------|
  B|-------------------------------|-------------------------------|
  G|14--------------12-------------|-------------------------------|
  D|-------------------1412--101214|10----------10--10-------------|
  A|---------------------\-------/-|--------1012-------------------|
  E|-------------------------------|----------H--------------------|
    Whisper       of          let be    Eeeeeeeeeeeeeeeee
          words     wisdom      it


                                                   (.

  e|5------ 3---1-- ------- -------|------- ------- ------- -------|
  B|6-------5---1---5-------3---1--|0-------1-------1--------------|
  G|5-------0---0---5-------3---2--|0-------2-------0--------------|
  D|----------------5-------3---3--|0-------3-------2--------------|
  A|-------------------------------|----------------3--------------|
  E|-------------------------------|3-------1-------0--------------|

  e|------- ------- ------- -------|------- ------- ------- -------|
  B|-------------------------------|-------------------------------|
  G|2-------0---0------------------|-------------------------------|
  D|3-------2---0---2-------0------|-------------------------------|
  A|----------------3-------1---3--|2-------3-------3--------------|
  E|----------------------------5--|3-------1-------0--------------|


        B  Bend
        R  Release
        /  Slide up
        \  Slide down
        H  Hammer-on
        P  Pull-off
        ~  Vibrato
        +  Harmonic
        x  Mute note
        .  Play note like a dot in standard notation
        ^  Ties two notes together
        (. Pause

  -----------------------------------------------------------------------

  THE BEATLES - YOU KNOW MY NAME (LOOK UP THE NUMBER)(Lennon & McCartney)
                Released on 6th Mars 1970 as the B side of LET IT BE
                single.

  -----------------------------------------------------------------------

  Tabbed by:PJVillanueva


  Although this was the last Beatles single, various versions of this
  song were recorded long before on 17th May, 7th and 8th June 1967.
  Vocals were added on 30th April 1969. This last session included the
  recording of Mal Evans shoveling gravel, George playing vibraphone &
  Brian Jones of the Stones playing the ending sax part.
  John's vocal part here is a very fine tribute to The Goons. (I think
  the whole song is.) The Goon Show was a 50's British radio show by
  Spike Milligan, Peter Sellers and Harry Secombe. They used to make
  people split their sides with laughter with their absurdities, their
  impossible lines and puns and some incredible sound effects, mostly
  criticizing the establishment & laughing at the stupidity of humans.


  You know my name
  Look up the number
  You know my name
  Look up the number
  You you know you know my name
  You you know you know my name

  Good evening and welcome to Slaggers
  Featuring Denis O'Bell
  Oh, Ringo, let's hear it for Denis

  Good evening
  You know my name
  Better look up the number
  You know my name
 (That's right) look up the number
  You you know you know my name
  You you know you know my name
  You know my name
  Pa pa pa pa pa pa pa pa pa
  Look up my number
  You know my name  Ha!
  That's right look up the number
  Oh you know you know
  You know my name you know you know you know my name.

  Huh huh huh huh
  You know my name
  Ba ba ba pum
  Look up the number
  You know my name
  Look up the number
  You-a you know you know my name
  Baby you-a you know you know my name
  You know my name you know you know you know my name

  Oh, lets hear
  Go on Denis, let's hear it for Denis O'Bell
  My name you know you know you know you know you know my name
  Prrr prrr you know my name and the number
  You know my name and the number you know you know my name
  Look up me number
  You know my number two You know my number three
  You know my number four. You know my name you know my number too
  You know my name you know my number
  What's up with you?
  You know my name
  That's right
  Yeah. Lennon's grunting..........
  .................................
  That's right, dear. That's all...
  Oh yeah. How about that?.........
  .................................

  INTRO

  Bm+5                            A
e|------- ------- ------- -------|------- ------- ------- -------|
B|3------------------------------|2------------------------------|
G|4------------------------------|2------------------------------|
D|5------------------------------|2------------------------------|
A|5------------------------------|-------------------------------|
E|-------------------------------|-------------------------------|


  D               F#m             G               A
e|------- ------- ------- -------|------- ------- ------- -------|
B|--------3---------------2------|--------0---------------2------|
G|--------2---------------2------|--------0---------------2------|
D|0---0-------------------4------|--------0---------------2------|
A|-------------------------------|----------------0---0---0------|
E|----------------2---2----------|3---3--------------------------|


  D               F#m             G               A
e|------- ------- ------- -------|------- ------- ------- -------|
B|--------3-------2-------2------|0-------0-------2-------2------|
G|--------2---2---2-------2------|0-------0-------2-------2------|
D|0---0-----------4-------4---4--|0-------0-------2-------2------|
A|-------------------------------|----------------0---0----------|
E|----------------2---2----------|3---3--------------------------|


  Part 1

  G                               F#+5
e|------- ------- ------- -------|2------ 2------ 2------ 2------|
B|0-------0-------0-------0------|3-------3-------3-------3------|
G|0-------0-------0-------0------|3-------3-------3-------3------|
D|0-------0-------0-------0------|-------------------------------|
A|-------------------------------|1---1-----------1---1----------|
E|3---3-----------3---3----------|-------------------------------|
              You know my     name

  Bm                              E9
e|2------ 2------ 2------ 2------|------- ------- ------- -------|
B|3-------3-------3-------3------|7-------7-------7-------7------|
G|4-------4-------4-------4------|7-------7-------7-------7------|
D|-------------------------------|6-------6-------6-------6------|
A|2---2-----------2---2----------|7---7---5---5---4---4----------|
E|-------------------------------|------------------------7------|
                       Look up the number

  G               D               Em
e|------- ------- ------- -------|------- ------- ------- -------|
B|0-------0-------3-------3------|0-------0-------0-------0------|
G|0-------0-------2-------2------|0-------0-------0-------0------|
D|0-------0-------0--------------|2-------2-------2-------2------|
A|----2-------2-------0-------0--|------------2------------------|
E|3-----------------------2------|0---2---3-------0---2---3---0--|
  You know    my  name                                    Look up my

  A
e|------- ------- ------- -------|
B|2-------2-------2-------2------|
G|2-------2-------2-------2------|
D|2-------2-------2-------2------|
A|0---0---0-------0--------------|
E|--------------------3---2---0--|
  number

  D               F#m             G               A
e|------- ------- ------- -------|------- ------- ------- -------|
B|--------3-------2-------2------|0-------0-------2-------2------|
G|--------2---2---2-------2------|0-------0-------2-------2---2--|
D|0---0-----------4-------4---4--|0-------0-------2-------2------|
A|-------------------------------|----------------0---0---0------|
E|----------------2---2----------|3---3--------------------------|
  You             you know        you know    my  name

  D               F#m             G               A
e|------- ------- ------- -------|------- ------- ------- -------|
B|--------3-------2-------2------|0-------0-------2-------2------|
G|--------2---2---2-------2------|0-------0---0---2-------2---2--|
D|0---0-----------4-------4---4--|0-------0-------2-------2------|
A|-------------------------------|----------------0---0----------|
E|----------------2---2----------|3---3--------------------------|
  You             you know        you know    my  name

                  Part 2

  D               x   x   X   X   x   x x x   x   x   x   X   X
e|2------ ------- ------- -------|------- ------- ------- -------|
B|3------------------------------|-------------------------------|
G|2------------------------------|-------------------------------|
D|0------------------------------|-------------------------------|
A|-------------------------------|-------------------------------|
E|-------------------------------|-------------------------------|


  x   x x x   x   x   x   X   X   x   x x x   x   x   x   X   X
e|------- ------- ------- -------|------- ------- ------- -------|
B|-------------------------------|-------------------------------|
G|-------------------------------|-------------------------------|
D|-------------------------------|-------------------------------|
A|-------------------------------|------------------------0------|
E|-------------------------------|-------------------------------|
Good evening and welcome to Slaggers          Featuring Denis O  '

  D           B           A       E           B           A
e|------- ------- ------- -------|------- ------- ------- -------|
B|-------------------------------|-------------------------------|
G|-------------------------------|-------------------------------|
D|0------------------------------|-------------------------------|
A|------------2-----------0------|------------2-----------0------|
E|-------------------------------|0------------------------------|

  Bell.                       Oh, Ringo,              Ringo


  D           B           A       E           B           A
e|------- ------- ------- -------|------- ------- ------- -------|
B|-------------------------------|-------------------------------|
G|-------------------------------|-------------------------------|
D|0------------------------------|-------------------------------|
A|------------2-----------0------|------------2-----------0------|
E|-------------------------------|0------------------------------|
                                     Good evening
    let's hear it for Denis -ha hey-

  G                               F#+5
e|------- ------- ------- -------|----2-- ------- ------- -------|
B|----3--------------------------|------3------------------------|
G|------4------------------------|--------3----------------------|
D|--------5----------------------|------------0------------------|
A|------------5------------------|------------------------4------|
E|3-----------------------3------|2------------------------------|
              You know my     name


  Bm                              E
e|----2-- ------- ------- -------|----0-- ------- ----0-- ----0--|
B|------3------------------------|------0-------------0-------0--|
G|--------4----------------------|--------1-----------1-------1--|
D|------------4------------------|-------------------------------|
A|2------------------------------|------------2-----------0------|
E|------------------------2------|0------------------------------|
            looloolook up the number


  G                               Em
e|------- ------- ------- -------|----0-- ------- ------- -------|
B|----0--------------------------|------0------------------------|
G|------0------------------------|--------0----------------------|
D|--------0---------------0------|-------------------------------|
A|------------2------------------|------------2------------------|
E|3------------------------------|0-----------------------0------|
  You know my name                  (That's right)        Look up the

  A
e|----0-- ------- ----0-- ----0--|
B|------2-------------2-------2--|
G|--------2-----------2-------2--|
D|------------2-------2-------2--|
A|0-----------------------0------|
E|-------------------------------|
  number

  D                               Em              A
e|----2-- ------- ----2-- ----2--|----0-- ------- ----0-- ----0--|
B|------3-------------3-------3--|------0-------------2-------2--|
G|--------2-----------2-------2--|--------0-----------2-------2--|
D|0-----------0------------------|-------------------------------|
A|-------------------------------|------------0------------------|
E|-------------------------------|0------------------------------|
  You             you know        you know    my  name
                                 (you know    my  name)


   D                               Em              A
e|2---2-- ------- ----2-- ----2--|----0-- ------- ----0-- ----0--|
B|3-----3-------------3-------3--|------0-------------2-------2--|
G|2-------2-----------2-------2--|--------0-----------2-------2--|
D|0-----------0------------------|--------------------2-------2--|
A|-------------------------------|------------0------------------|
E|-------------------------------|0------------------------------|
  You             you know        you know    my  name

  G                               F#+5
e|------- ------- ------- -------|----2-- ------- ----2-- ----2--|
B|----3---------------3-------3--|------3-------------3-------3--|
G|------4-------------4-------4--|--------3-----------3-------3--|
D|--------5-----------5-------5--|------------0------------------|
A|------------5------------------|------------------------4------|
E|3-----------------------3------|2------------------------------|
              you know my     name   baba baba  baba     bababa
                                              (yaahoo)


  Bm                              E9
e|----2-- ------- ----2-- ----2--|------- ------- ------- -------|
B|------3-------------3-------3--|----7---------------7-------7--|
G|--------4-----------4-------4--|------7-------------7-------7--|
D|------------4------------------|--------6-----------6-------6--|
A|2-----------------------2------|------------7-------7-------7--|
E|-------------------------------|0-----------------------7------|
                    Look up the number

  G                               Em
e|------- ------- ------- -------|----7-- ------- ----7-- ----7--|
B|----3---------------3-------3--|------8-------------8-------8--|
G|------0-------------0-------0--|--------9-----------9-------9--|
D|--------0---------------0------|-------------------------------|
A|------------2------------------|-------------------------------|
E|3------------------------------|0-----------7-----------0------|
  You know my name,       Ha!          (That's right) Look up the


  A
e|0---0-- 0------ ------- -------|
B|2---2---2----------------------|
G|2---2---2----------------------|
D|2---2---2----------------------|
A|0---0---0----------------------|
E|-------------------------------|
  number.              Oh
                      Oh

  D6                              Em7
e|------- ------- ------- -------|------- ------- ------- -------|
B|----3---------------3-------3--|----3---------------2-------2--|
G|------4-------------4-------4--|------4-------------2-------2--|
D|--------4-----------4-------4--|--------5-----------2-------2--|
A|5-----------2-----------0------|------------2-----------0------|
E|-------------------------------|0------------------------------|
  You know            you know        You know my name


  D6                              Em7
e|------- ------- ------- -------|------- ------- ------- -------|
B|----3---------------3-------3--|----3---------------2-------2--|
G|------4-------------4-------4--|------4-------------2-------2--|
D|--------4-----------4-------4--|--------5-----------2-------2--|
A|5-----------2-----------0------|------------2-----------0------|
E|-------------------------------|0------------------------------|
      you know               you know you know my name.   Huhhuhhuh


  G                               F#+5
e|------- ------- ------- -------|----2-- ------- ----2-- ----2--|
B|----3---------------3-------3--|------3-------------3-------3--|
G|------4-------------4-------4--|--------3-----------3-------3--|
D|--------5-----------5-------5--|------------0------------------|
A|------------5------------------|------------------------4------|
E|3-----------------------3------|2------------------------------|
  huh                you know my name             Ba ba ba pum

  Bm                              E
e|----2-- ------- ------- -------|------- ------- ------- -------|
B|------3------------------------|----7---------------7-------7--|
G|--------4----------------------|------7-------------7-------7--|
D|------------4------------------|--------6-----------6-------6--|
A|2------------------------------|--------------------7-------7--|
E|------------------------2------|0-----------0------------------|
                      Look up the number

  D6                              Em7
e|------- ------- ------- -------|------- ------- ------- -------|
B|----3---------------3-------3--|----3---------------3-------3--|
G|------4-------------4-------4--|------4-------------4-------4--|
D|--------4-----------4-------4--|--------5-----------5-------5--|
A|5-----------2-----------0------|------------2-----------0------|
E|-------------------------------|0------------------------------|
  you know   my   name                                   Look up the

  A
e|----0-- ------- ------- ----0--|
B|------2---------------------2--|
G|--------2-------------------2--|
D|------------2------------------|
A|0-----------------------0------|
E|-------------------------------|
  number


  D6                              Em7                 A
e|------- ------- ------- -------|------- ------- ------- -------|
B|----3---------------3----------|----3---------------2----------|
G|------4-------------4----------|------4-------------2----------|
D|--------4-----------4----------|--------5-----------2----------|
A|5-----------2-----------0------|------------2-----------0------|
E|-------------------------------|0------------------------------|
  You             you know        You know my name,       baby

  D6                              Em7                 A
e|------- ------- ------- -------|------- ------- ------- -------|
B|----3---------------3-------3--|----3---------------2----------|
G|------4-------------4-------4--|------4-------------2----------|
D|--------4-----------4-------4--|--------5-----------2----------|
A|5-----------2-----------0------|------------2-----------0------|
E|-------------------------------|0------------------------------|
      you         you know        you know my name.


  D6                              Em7                 A7
e|------- ------- ------- -------|----0-- ------- ----0-- ----0--|
B|----3---------------3-------3--|------2-------------2-------2--|
G|------4-------------4-------4--|--------0-----------0-------0--|
D|--------4-----------4-------4--|2------------------------------|
A|5-----------2-----------0------|------------2-----------0------|
E|-------------------------------|-------------------------------|
                  You know        You know my name


  D6                              Em7                 A7
e|------- ------- ------- -------|----0-- ------- ----0-- ----0--|
B|----3---------------3-------3--|------2-------------2-------2--|
G|------4-------------4-------4--|--------0-----------0-------0--|
D|--------4-----------4-------4--|2------------------------------|
A|5-----------2-----------0------|------------2-----------0------|
E|-------------------------------|-------------------------------|
          You             you know my name.
                Oh, let's hear        Go on Denis, let's hear it for

  x           x       x   x   x x

e|------- ------- ------- ----------|
B|----------------------------------|
G|----------------------------------|
D|----------------------------------|
A|----------------------------------|
E|----------------------------------|

  Denis O'Bell
                     My name

  Part 3

  D               F#m             G               A
e|------- 5------ ------- 5------|3------ ------- ------- 5------|
B|--------3---------------2------|3-----------------------2------|
G|--------2---------------2------|0-----------------------2------|
D|0-----------------------4------|0-----------------------2------|
A|-------------------------------|----------------0--------------|
E|----------------2--------------|3------------------------------|
                              You know you know       you know my
      You know        you know        you know my     name
comments
We did not receive enough feedback on this tab! Please rate:
print report bad tab
1 2 3 4 5
I want to post or [tab]
guest
You may want to rate the tab now too:
select rating
Please do not post tabs as comments. Select "correction" instead!