Oops, an error
Loading. Please wait.

Please Please Me Bass Tab

ver1
ver1

Album

Whole song

More versions @911Tabs.com
8,996 views 54 this week
no commentswrite comment
1 2 3 4 5
excellent!
x 3
Autoscroll
+/-
esc
set tempo
stop
Difficulty
intermediate
WARNING: You are trying to view
                                    content from Ultimate-Guitar.com
                                    in an unauthorized application,
                                    which is prohibited.

                                    Please use an official Ultimate
                                    Guitar Tabs application for iPhone,
                                    iPad or Android to access legitimate
                                    chords, guitar, bass, and drum tabs
                                    from Ultimate-Guitar.com database.

                                    Type "ultimate guitar tabs" in Apple
                                    App Store's or Android Market's
                                    search to find the application.
Please Please Me Bass Tabs Album

Beatles

Love songs are awesome

 Saw Her Standing There
The Beatles
Written by John Lennon and Paul McCartney; released on "Please Please Me"

This is a really hot, rocking song :-)

Intro:
G|------- ------- ------- -------|------- ------- ------- -------|
D|--------6-------9-------7---6--|--------6-------9-------7---6--|
A|7---7-------7-------7----------|7---7-------7-------7----------|
E|-------------------------------|-------------------------------|



G|------- ------- ------- -------|------- ------- ------- -------|
D|--------6-------9-------7---6--|--------6-------9-------7---6--|
A|7---7-------7-------7----------|7---7-------7-------7----------|
E|-------------------------------|-------------------------------|
                                            Well, she was     just

Verse:
G|------- ------- ------- -------|------- ------- ------- -------|
D|--------6-------9-------7---6--|--------6-------9-------7---6--|
A|7---7-------7-------7----------|7---7-------7-------7----------|
E|-------------------------------|-------------------------------|
                  seven   -   teen,                   and you


G|------- ------- ------- -------|------- ------- ------- -------|
D|-------------------------------|--------6-------9-------7---6--|
A|--------4-------7-------5---5--|7---7-------7-------7----------|
E|5---5-------5-------5----------|-------------------------------|
  know            what I      mean,                       And the


G|------- ------- ------- -------|------- ------- ------- -------|
D|--------6-------9-------7---6--|--------6-------9-------7---6--|
A|7---7-------7-------7----------|7---7-------7-------7----------|
E|-------------------------------|-------------------------------|
  way     she looked          was way         be- yond    compare


G|------- ------- ------- -------|------- ------- ------- -------|
D|-------------------------------|-------------------------------|
A|--------6-------9-------7---7--|--------6-------9-------7---7--|
E|7---7-------7-------7----------|7---7-------7-------7----------|
                                                          So,


G|------- ------- ------- -------|------- ------- ------- -------|
D|-------------------------------|6-------6-------6-------6------|
A|7-------7-------7-------7------|-------------------------------|
E|-------------------------------|-------------------------------|
  how             could I     dance               with an  -  o-


G|------- ------- ------- -------|5------ 5------ 5------ 5------|
D|7-------7-------7-------7------|-------------------------------|
A|-------------------------------|-------------------------------|
E|-------------------------------|-------------------------------|
      ther,                   Wooh,                  when I


G|------- ------- ------- -------|------- ------- ------- -------|
D|--------6-------9---9---7---6--|-------------------------------|
A|7-----------7------------------|--------6-------9-------7---7--|
E|-------------------------------|7---7-------7-------7----------|
  saw             her             stan        -       ding    there


G|------- ------- ------- -------|------- ------- ------- -------|
D|--------6-------9-------7---6--|--------6-------9-------7---6--|
A|7---7-------7-------7----------|7---7-------7-------7----------|
E|-------------------------------|-------------------------------|
                                                         Well, she

Verse:
G|------- ------- ------- -------|------- ------- ------- -------|
D|--------6-------9-------7---6--|--------6-------9-------7---6--|
A|7---7-------7-------7----------|7---7-------7-------7----------|
E|-------------------------------|-------------------------------|
                  looked      me,                         and
                    at

G|------- ------- ------- -------|------- ------- ------- -------|
D|-------------------------------|--------6-------9-------7---6--|
A|--------4-------7-------5---5--|7---7-------7-------7----------|
E|5---5-------5-------5----------|-------------------------------|
  I,          I       could   see                         That be-


G|------- ------- ------- -------|------- ------- ------- -------|
D|--------6-------9-------7---6--|--------6-------9-------7---6--|
A|7---7-------7-------7----------|7---7-------7-------7----------|
E|-------------------------------|-------------------------------|
  fore    too long                I'd   fall in   love   with her


G|------- ------- ------- -------|------- ------- ------- -------|
D|-------------------------------|-------------------------------|
A|--------6-------9-------7---7--|--------6-------9-------7------|
E|7---7-------7-------7----------|7---7-------7-------7----------|



G|------- ------- ------- -------|------- ------- ------- -------|
D|-------------------------------|6-------6-------6-------6------|
A|7-------7-------7-------7------|-------------------------------|
E|-------------------------------|-------------------------------|
  She             wouldn't    dance               with an  -  o-


G|------- ------- ------- -------|5------ 5------ 5------ 5------|
D|7-------7-------7-------7------|-------------------------------|
A|-------------------------------|-------------------------------|
E|-------------------------------|-------------------------------|
      ther,                   Wooh,                  when I


G|------- ------- ------- -------|------- ------- ------- -------|
D|--------6-------9---9---7---6--|-------------------------------|
A|7-----------7------------------|--------6-------9-------7---7--|
E|-------------------------------|7---7-------7-------7----------|
  saw             her             stan        -       ding    there


G|------- ------- ------- -------|------- ------- ------- -------|
D|--------6-------9-------7---6--|-------------------------------|
A|7---7-------7-------7----------|7-------5-------4--------------|
E|-------------------------------|------------------------7------|
                                                  Well,   my

Bridge:
G|------- ------- ------- -------|------- ------- ------- -------|
D|-------------------------------|-------------------------------|
A|--------4-------7-------5---4--|--------4-------7-------5---4--|
E|5---5-------5-------5----------|5---5-------5-------5----------|
  heart           went        boom,               when    I


G|------- ------- ------- -------|------- ------- ------- -------|
D|-------------------------------|-------------------------------|
A|--------4-------7-------5---4--|--------4-------7-------5---4--|
E|5---5-------5-------5----------|5---5-------5-------5----------|
  crossed         that        room,               And     I


G|------- ------- ------- -------|------- ------- ------- -------|
D|-------------------------------|-------------------------------|
A|--------4-------7-------5---4--|--------4-------7-------5---4--|
E|5---5-------5-------5----------|5---5-------5-------5----------|
  held            her             hand            in


G|------- ------- ------- -------|------- ------- ------- -------|
D|-------------------------------|-------------------------------|
A|--------6-------9-------7---6--|--------6-------9-------7---6--|
E|7---7-------7-------7----------|7---7-------7-------7----------|
  mine!


G|------- ------- ------- -------|------- ------- ------- -------|
D|-------------------------------|-------------------------------|
A|--------4-------7-------5---4--|--------4-------7-------5---4--|
E|5---5-------5-------5----------|5---5-------5-------5----------|
                                              Woah,       we  danced

Verse:
G|------- ------- ------- -------|------- ------- ------- -------|
D|--------6-------9-------7---6--|--------6-------9-------7---7--|
A|7---7-------7-------7----------|7---7-------7-------7----------|
E|-------------------------------|-------------------------------|
                  through     night,                      and we
                      the

G|------- ------- ------- -------|------- ------- ------- -------|
D|-------------------------------|--------6-------9-------7---6--|
A|--------4-------7-------5---4--|7---7-------7-------7----------|
E|5---5-------5-------5----------|-------------------------------|
  held    each    o - ther    tight,                      And be-


G|------- ------- ------- -------|------- ------- ------- -------|
D|--------6-------9-------7---6--|--------6-------9-------7---6--|
A|7---7-------7-------7----------|7---7-------7-------7----------|
E|-------------------------------|-------------------------------|
  fore    too long                I     fell in   love   with her


G|------- ------- ------- -------|------- ------- ------- -------|
D|-------------------------------|-------------------------------|
A|--------6-------9-------7---6--|--------6-------9-------7---7--|
E|7---7-------7-------7----------|7---7-------7-------7----------|
                                                          Now,


G|------- ------- ------- -------|------- ------- ------- -------|
D|----------------6-------9------|----------------6-------9------|
A|7-------7----------------------|7-------7----------------------|
E|-------------------------------|-------------------------------|
  I'll            ne- ver     dance               with an  -  o-


G|------- ------- ------- -------|5------ 5------ 5------ 5------|
D|7-------7-------7-------7------|-------------------------------|
A|-------------------------------|-------------------------------|
E|-------------------------------|-------------------------------|
      ther,                   Wooh,                  since I


G|------- ------- ------- -------|------- ------- ------- -------|
D|--------6-------9---9---7---6--|-------------------------------|
A|7-----------7------------------|--------6-------9-------7---6--|
E|-------------------------------|7---7-------7-------7----------|
  saw             her             stan        -       ding    there


G|------- ------- ------- -------|------- ------- ------- -------|
D|--------6-------9-------7---6--|9---9---9---9---9---9---9---9--|
A|7---7-------7-------7----------|-------------------------------|
E|-------------------------------|-------------------------------|


Verse (solo):
G|------- ------- ------- -------|------- ------- ------- -------|
D|--------6-------9-------7---6--|--------6-------9-------7---6--|
A|7---7-------7-------7----------|7---7-------7-------7----------|
E|-------------------------------|-------------------------------|



G|------- ------- ------- -------|------- ------- ------- -------|
D|--------6-------9-------7---6--|--------6-------9-------7---6--|
A|7---7-------7-------7----------|7---7-------7-------7----------|
E|-------------------------------|-------------------------------|



G|------- ------- ------- -------|------- ------- ------- -------|
D|--------6-------9-------7---6--|--------6-------9--------------|
A|7---7-------7-------7----------|7---7-------7-------7---7---6--|
E|-------------------------------|-------------------------------|



G|------- ------- ------- -------|------- ------- ------- -------|
D|-------------------------------|-------------------------------|
A|--------6-------9-------7---6--|-------------------------------|
E|7---7-------7-------7----------|7-----------7---7-------7------|



G|------- ------- ------- -------|------- ------- ------- -------|
D|-------------------------------|----------------6---6---6---9--|
A|7---7---7---7---7---7---7---7--|7---7---7---7------------------|
E|-------------------------------|-------------------------------|



G|------- ------- ------- -------|------- ------- ------- -------|
D|7---7---7---7---7---7---7---7--|7---7---7---7---7---7---7---9--|
A|-------------------------------|-------------------------------|
E|-------------------------------|-------------------------------|



G|------- ------- ------- -------|------- ------- ------- -------|
D|--------6-------9-------7---6--|----------------7---7---6---4--|
A|7---7-------7-------7----------|--------6---9------------------|
E|-------------------------------|7---7--------------------------|



G|------- ------- ------- -------|------- ------- ------- -------|
D|--------6-------9-------7---6--|-------------------------------|
A|7---7-------7-------7----------|7-------5-------4--------------|
E|-------------------------------|------------------------7------|
                                                  Well,   my

Bridge:
G|------- ------- ------- -------|------- ------- ------- -------|
D|-------------------------------|-------------------------------|
A|--------4-------7-------5---4--|--------4-------7-------5---4--|
E|5---5-------5-------5----------|5---5-------5-------5----------|
  heart           went        boom,               when    I


G|------- ------- ------- -------|------- ------- ------- -------|
D|-------------------------------|-------------------------------|
A|--------4-------7-------5---4--|--------4-------7-------5---4--|
E|5---5-------5-------5----------|5---5-------5-------5----------|
  crossed         that        room,               And     I


G|------- ------- ------- -------|------- ------- ------- -------|
D|-------------------------------|-------------------------------|
A|--------4-------7-------5---4--|--------4-------7-------5---4--|
E|5---5-------5-------5----------|5---5-------5-------5----------|
  held            her             hand            in


G|------- ------- ------- -------|------- ------- ------- -------|
D|-------------------------------|-------------------------------|
A|--------6-------9-------7---6--|--------6-------9---9---7---6--|
E|7---7-------7-------7----------|7---7-------7------------------|
  mine!


G|------- ------- ------- -------|------- ------- ------- -------|
D|-------------------------------|-------------------------------|
A|--------4-------7-------5---4--|--------4-------7-------5---4--|
E|5---5-------5-------5----------|5---5-------5-------5----------|
                                              Woah,       we  danced

Verse:
G|------- ------- ------- -------|------- ------- ------- -------|
D|--------6-------9-------7---6--|--------6-------9-------7---7--|
A|7---7-------7-------7----------|7---7-------7-------7----------|
E|-------------------------------|-------------------------------|
                  through     night,                      and we
                      the

G|------- ------- ------- -------|------- ------- ------- -------|
D|-------------------------------|--------6-------9-------7---6--|
A|--------4-------7-------5---4--|7---7-------7-------7----------|
E|5---5-------5-------5----------|-------------------------------|
  held    each    o - ther    tight,                      And be-


G|------- ------- ------- -------|------- ------- ------- -------|
D|--------6-------9-------7---6--|--------6-------9-------7---6--|
A|7---7-------7-------7----------|7---7-------7-------7----------|
E|-------------------------------|-------------------------------|
  fore    too long                I     fell in   love   with her


G|------- ------- ------- -------|------- ------- ------- -------|
D|-------------------------------|-------------------------------|
A|--------6-------9-------7---6--|--------6-------9-------7---6--|
E|7---7-------7-------7----------|7---7-------7-------7----------|
                                                          Now,


G|------- ------- ------- -------|------- ------- ------- -------|
D|-------------------------------|6-------6-------6-------6------|
A|7-------7-------7-------7------|-------------------------------|
E|-------------------------------|-------------------------------|
  I'll            ne- ver     dance               with an  -  o-


G|------- ------- ------- -------|5------ 5------ 5------ 5------|
D|7-------7-------7-------7------|-------------------------------|
A|-------------------------------|-------------------------------|
E|-------------------------------|-------------------------------|
      ther,                   Wooh,                  since I


G|------- ------- ------- -------|------- ------- ------- -------|
D|--------6-------9---9---7---6--|-------------------------------|
A|7---7-------7------------------|--------6-------9-------7---7--|
E|-------------------------------|7---7-------7-------7----------|
  saw             her             stan        -       ding    there


G|------- ------- ------- -------|------- ------- ------- -------|
D|--------6-------9-------7---6--|--------6-------9-------7---6--|
A|7---7-------7-------7----------|7---7-------7-------7----------|
E|-------------------------------|-------------------------------|
                                          Woah,   since I

Outro:
G|------- ------- ------- -------|------- ------- ------- -------|
D|--------6-------9---9---7---6--|-------------------------------|
A|7---7-------7------------------|--------6-------9-------7---7--|
E|-------------------------------|7---7-------7-------7----------|
  saw             her             stan        -       ding    there


G|------- ------- ------- -------|------- ------- ------- -------|
D|--------6-------9-------7---6--|--------6-------9-------7---6--|
A|7---7-------7-------7----------|7-----------7-------7----------|
E|-------------------------------|-------------------------------|
                                  Yeah,   well,   since I


G|------- ------- ------- -------|------- ------- ------- -------|
D|--------6-------9---9---7---6--|-------------------------------|
A|7---7-------7------------------|--------6-------9-------7---6--|
E|-------------------------------|7---7-------7-------7----------|
  saw             her             stan        -       ding    there


G|------- ------- ------- -------|------- ----9-- ------- -------|
D|7---7---7---7---7---7---7---7--|----6---9----------------------|
A|-------------------------------|7-----------------------7------|
E|-------------------------------|-------------------------------|

Misery
The Beatles
Written by John Lennon and Paul McCartney; released on "Please Please Me" 
album

This song is very sad, it expresses well, what it is to miss someone.

Intro:
G|-----------------------------------|-----------------------------------|
D|-----------------------------------|-----------------------------------|
A|-----------------------------------|-----------------------------------|
E|-----------------------------------|-----------------------------------|
                                 The  world           is  treating  me


G|---------------------------------------|
D|---------------------------------------|
A|10-------------------------------------|
E|---------------------------------------|
  bad,


G|-----------------------------------|------- ------- ------- -------|
D|-----------------------------------|-------------------------------|
A|-----------------------------------|12------12------10------10-----|
E|8----------------------------------|-------------------------------|
  mi          se- ry

Verse:
G|------- ------- ------- -------|------- ------- ------- -------|
D|-------------------------------|-------------------------------|
A|----------------10-------------|8------------------------------|
E|8---------------------------8--|----------------8--------------|
  I'm         the kind        of  guy,                        who


G|------- ------- ------- -------|------- ------- ------- -------|
D|-------------------------------|-------------------------------|
A|----------------10-------------|8------------------------------|
E|8------------------------------|----------------8--------------|
  ne     -    ver used        to  cry                         The


G|------- ------- ------- -------|------- ------- ------- -------|
D|-------------------------------|-------------------------------|
A|8-----------8------------------|10----------10-----------------|
E|----------------8--------------|----------------10-------------|
  world       is  treating   me   bad,


G|------- ------- ------- -------|------- ------- ------- -------|
D|-------------------------------|-------------------------------|
A|------------7---10-------------|----------------7--------------|
E|8---------------------------8--|5-----------8-----------8------|
  mi     -    se- ry                                          I've

Verse:
G|------- ------- ------- -------|------- ------- ------- -------|
D|-------------------------------|-------------------------------|
A|----------------10-------------|8------------------------------|
E|8---------------------------8--|----------------8--------------|
  lost        her now,        for sure,                       I


G|------- ------- ------- -------|------- ------- ------- -------|
D|-------------------------------|-------------------------------|
A|----------------10-------------|8------------------------------|
E|8-----------8---------------8--|----------------8--------------|
  won't       see her         no  more                        It's


G|------- ------- ------- -------|------- ------- ------- -------|
D|-------------------------------|-------------------------------|
A|8-----------8---------------8--|10----------10-----------------|
E|----------------8--------------|----------------10-------------|
  gon    -    na  be          a   drag,


G|------- ------- ------- -------|------- ------- ------- -------|
D|-------------------------------|-------------------------------|
A|----------------10-------------|----------------10-------------|
E|8---------------------------7--|8------------------------------|
  mi     -    se- ry

Bridge:
G|------- ------- ------- -------|------- ------- ------- -------|
D|7------------------------------|7------------------------------|
A|----------------7--------------|----------------7--------------|
E|-------------------------------|-------------------------------|
  I           re- mem    -    ber all         the li  -   ttle


G|------- ------- ------- -------|------- ------- ------- -------|
D|-------------------------------|-------------------------------|
A|----------------10-------------|----------------10-------------|
E|8------------------------------|8------------------------------|
  things      we've
                  done

G|------- ------- ------- -------|------- ------- ------- -------|
D|7------------------------------|7------------------------------|
A|----------------7--------------|----------------7--------------|
E|-------------------------------|-------------------------------|
  Can't       she see         she'll              be          the
                                  al     -    ways

G|------- ------- ------- -------|------- ------- ------- -------|
D|-------------------------------|-------------------------------|
A|10-----------------------------|10----------10-----------------|
E|----------------10-------------|----------------10-------------|
  on     -    ly  one,            on     -    ly  one?

Verse:
G|------- ------- ------- -------|------- ------- ------- -------|
D|-------------------------------|-------------------------------|
A|----------------10-------------|8------------------------------|
E|8------------------------------|----------------8--------------|
  Send        her back        to  me,                         Cause


G|------- ------- ------- -------|------- ------- ------- -------|
D|-------------------------------|-------------------------------|
A|----------------10-------------|8---------------------------7--|
E|8------------------------------|----------------8--------------|
  eve    -    ry  one         can see:                        With-


G|------- ------- ------- -------|------- ------- ------- -------|
D|-------------------------------|-------------------------------|
A|8------------------------------|10-----------------------------|
E|----------------8--------------|----------------10-------------|
  out         her I          will be                      in


G|------- ------- ------- -------|------- ------- ------- -------|
D|-------------------------------|-------------------------------|
A|----------------10-------------|------------7---10-------------|
E|8------------------------------|8------------------------------|
  mi     -    se- ry

Bridge:
G|------- ------- ------- -------|------- ------- ------- -------|
D|7------------------------------|7------------------------------|
A|----------------7--------------|----------------7--------------|
E|-------------------------------|-------------------------------|
  I           re- mem    -    ber all         the li  -   ttle


G|------- ------- ------- -------|------- ------- ------- -------|
D|-------------------------------|-------------------------------|
A|------------7---10-------------|----------------10-------------|
E|8------------------------------|8------------------------------|
  things      we've
                  done

G|------- ------- ------- -------|------- ------- ------- -------|
D|7------------------------------|7------------------------------|
A|----------------7--------------|----------------7--------------|
E|-------------------------------|-------------------------------|
  She'll      re  mem   -    ber, and         she'll          her
                                                  miss

G|------- ------- ------- -------|------- ------- ------- -------|
D|-------------------------------|-------------------------------|
A|10-----------------------------|10------8-------7--------------|
E|----------------10-------------|------------------------10-----|
  on     -    ly  one,            lone    -   ly  one

Verse:
G|------- ------- ------- -------|------- ------- ------- -------|
D|-------------------------------|-------------------------------|
A|----------------10-------------|8-----------8------------------|
E|8------------------------------|----------------8--------------|
  Send        her back        to  me,                         Cause


G|------- ------- ------- -------|------- ------- ------- -------|
D|-------------------------------|-------------------------------|
A|----------------10-------------|8-----------8------------------|
E|8---------------------------8--|----------------8-----------8--|
  eve    -    ry  one         can see:                        With-


G|------- ------- ------- -------|------- ------- ------- -------|
D|-------------------------------|-------------------------------|
A|8-----------8---------------8--|10----------10-----------------|
E|----------------8--------------|----------------10-------------|
  out         her I          will be                      in


G|------- ------- ------- -------|------- ------- ------- -------|
D|-------------------------------|-------------------------------|
A|----------------10-------------|----------------7--------------|
E|8---------------------------8--|5-----------8-----------8------|
  mi     -    se- ry              Oh,         oh,         oh, in

Outro:
G|------- ------- ------- -------|------- ------- ------- -------|
D|-------------------------------|-------------------------------|
A|----------------10-------------|----------------7--------------|
E|8-----------8---------------8--|5-----------8-----------8------|
  mi     -    se- ry              Ooh,                    my...
repeat and fade...


Anna (Go To Him)
The Beatles
Written by Arthur Alexander; released on "Please Please Me" album

Great song, and great vocal by John in the bridges.

Intro:
G|------- ------- ------- -------|------- ------- ------- -------|
D|------------7------------------|-------------------------------|
A|5-----------------------5---4--|------------9------------------|
E|-------------------------------|7------------------------------|



G|------- ------- ------- -------|------- ------- ------- -------|
D|------------7------------------|-------------------------------|
A|5-----------------------5---4--|------------9------------------|
E|-------------------------------|7------------------------------|


Verse:
G|------- ------- ------- -------|------- ------- ------- -------|
D|------------7------------------|------------4------------------|
A|5-----------------------5---4--|----------------------------4--|
E|-------------------------------|7-------------------5---7------|
  An    -     na,                             you called  asked
                                                      and

G|------- ------- ------- -------|------- ------- ------- -------|
D|------------7------------------|------------4-----------4------|
A|5-----------------------5---4--|-------------------------------|
E|-------------------------------|7------------------------------|
  me, girl                                    to  set     you


G|------- ------- ------- -------|------- ------- ------- -------|
D|------------7------------------|------------4-----------4------|
A|5-----------------------5---4--|----------------------------5--|
E|-------------------------------|7------------------------------|
  free, girl                                  You say he loves you

Refrain:
G|------- ------- ------- -------|------- ------- ------- -------|
D|-------------------------------|------------7-----------7------|
A|5---------------------------5--|7---------------------------4--|
E|------------7-----------7------|-------------------------------|
  more    than me,    so  I  will set you     free,       go  with


G|------- ------- ------- -------|------- ------- ------- -------|
D|------------7------------------|------------4------------------|
A|5-----------------------5------|----------------------------4--|
E|-------------------------------|7-----------------------7------|
  him                                                     go  with
                              An      -       na

G|------- ------- ------- -------|------- ------- ------- -------|
D|------------7------------------|------------4------------------|
A|5-----------------------5------|----------------------------4--|
E|-------------------------------|7-----------------------7------|
  him
                              An      -       na
Verse:
G|------- ------- ------- -------|------- ------- ------- -------|
D|------------7------------------|------------4------------------|
A|5-----------------------5---4--|----------------------------4--|
E|-------------------------------|7-----------------------7------|
  An    -     na,                             girl,   be- fore you


G|------- ------- ------- -------|------- ------- ------- -------|
D|------------7------------------|------------4------------------|
A|5-----------------------5---4--|----------------------------4--|
E|-------------------------------|7-----------------------7------|
  go  now,                                    I   want    you to


G|------- ------- ------- -------|------- ------- ------- -------|
D|------------7------------------|------------4------------------|
A|5-----------------------5---4--|------------------------4------|
E|-------------------------------|7---------------------------5--|
  know now                                    That I      still

Refrain:
G|------- ------- ------- -------|------- ------- ------- -------|
D|-------------------------------|------------7-----------7------|
A|5---------------------------5--|7------------------------------|
E|------------7------------------|-------------------------------|
  love you    so,     but if  he  loves you   more,       go  with


G|------- ------- ------- -------|------- ------- ------- -------|
D|------------7-----------7------|------------------------4------|
A|5---------------------------4--|5-------5-------7--------------|
E|-------------------------------|-------------------------------|
  him
                                          Aaaaaaaaaaaaaaaaaaaaaaa
Bridge:
G|------- ------- ------- -------|------- ------- ------- -------|
D|5-----------5---------------4--|5-----------5---------------4--|
A|------------------------5------|------------------------5------|
E|-------------------------------|-------------------------------|
                  All of  my  life,                       I've been
  aaaaaaaaaaaaaaaaaaaaaaaaaaaaaaaaaaaaaaaaaaaaaaaaaaaaaaaaaaaaaaa

G|------- ------- ------- -------|------- ------- ------- -------|
D|5-----------5---------------4--|5-----------5------------------|
A|------------------------5------|----------------------------4--|
E|-------------------------------|------------------------5------|
  searching           for a   girl                            to
  aaaaaaaaaaaaaaaaaaaaaaaaaaaaaaaaaaaaaaaaaaaaaaaaaaaaaaaaaaaaaaa

G|------- ------- ------- -------|------- ------- ------- -------|
D|-------------------------------|-------------------------------|
A|5-----------5---------------4--|5-----------5---------------4--|
E|------------------------5------|------------------------5------|
  love me                 like    I                       love
  aaaaaaaaaaaaaaaaaaaaaaaaaaaaaaaaaaaaaaaaaaaaaaaaaaaaaaaaaaaaaaa

G|------- ------- ------- -------|------- ------- ------- -------|
D|-------------------------------|------------------------4------|
A|5-----------5---------------4--|5-------5-------7--------------|
E|------------------------5------|-------------------------------|
  you                                         oh,     now!
  aaaaaaaaaaaaaaaaaaaaaaaaaaaaaaa         aaaaaaaaaaaaaaaaaaaaaaa

G|------- ------- ------- -------|------- ------- ------- -------|
D|5-----------5---------------4--|5-----------5---------------4--|
A|------------------------5------|------------------------5------|
E|-------------------------------|-------------------------------|
              But     every girl I've ever had
  aaaaaaaaaaaaaaaaaaaaaaaaaaaaaaaaaaaaaaaaaaaaaaaaaaaaaaaaaaaaaaa

G|------- ------- ------- -------|------- ------- ------- -------|
D|5-----------5---------------4--|5-----------5------------------|
A|------------------------5------|----------------------------5--|
E|-------------------------------|------------------------7------|
              breaks  my      heart, and leaves me sad,
  aaaaaaaaaaaaaaaaaaaaaaaaaaaaaaaaaaaaaaaaaaaaaaaaaaaaaaaaaaaaaaa

G|------- ------- ------- -------|------- ------- ------- -------|
D|-------------------------------|----------------------------6--|
A|7-----------7---------------5--|7-----------7-----------7------|
E|------------------------7------|-------------------------------|
              what am I,      what am I       supposed        to
  aaaaaaaaaaaaaaaaaaaaaaaaaaaaaaaaaaaaaaaaaaaaaaaaaaaaaaaaaaaaaaa

G|------- ------- ------- -------|------- ------- ------- -------|
D|7-----------7-----------7------|7---7---5---5---4---4----------|
A|-------------------------------|------------------------7------|
E|-------------------------------|----------------------------5--|
  do?                             Oh,  oh,  oh,   oh,  oh,  oh,
  aaaaaaaaaaaaaaaaaaaaaaaaaaaaaaah
Verse:
G|------- ------- ------- -------|------- ------- ------- -------|
D|------------7------------------|-------------------------------|
A|5-----------------------5---4--|------------9------------------|
E|-------------------------------|7-----------------------7------|
  An    -     na,                             just one    more


G|------- ------- ------- -------|------- ------- ------- -------|
D|------------7------------------|------------4-----------4------|
A|5-----------------------5---4--|-------------------------------|
E|-------------------------------|7------------------------------|
  thing, girl                                 You give    back your

Refrain:
G|------- ------- ------- -------|------- ------- ------- -------|
D|-------------------------------|------------7-----------7------|
A|5------------------------------|7---------------------------4--|
E|------------7------------------|-------------------------------|
  ring    to  me,     so  I   will set you    free,       go  with


G|------- ------- ------- -------|------- ------- ------- -------|
D|------------7-----------7------|------------------------4------|
A|5---------------------------4--|5-------5-------7--------------|
E|-------------------------------|-------------------------------|
  him
                                          Aaaaaaaaaaaaaaaaaaaaaaa
Bridge:
G|------- ------- ------- -------|------- ------- ------- -------|
D|5-----------5------------------|5-----------5------------------|
A|-------------------------------|-------------------------------|
E|-------------------------------|-------------------------------|
                  All of  my  life,                       I've been
  aaaaaaaaaaaaaaaaaaaaaaaaaaaaaaaaaaaaaaaaaaaaaaaaaaaaaaaaaaaaaaa

G|------- ------- ------- -------|------- ------- ------- -------|
D|5-----------5------------------|5-----------5------------------|
A|-------------------------------|-------------------------------|
E|-------------------------------|-------------------------------|
  searching           for a   girl                            to
  aaaaaaaaaaaaaaaaaaaaaaaaaaaaaaaaaaaaaaaaaaaaaaaaaaaaaaaaaaaaaaa

G|------- ------- ------- -------|------- ------- ------- -------|
D|-------------------------------|-------------------------------|
A|5-----------5------------------|5-----------5------------------|
E|-------------------------------|-------------------------------|
  love me                 like    I                       love
  aaaaaaaaaaaaaaaaaaaaaaaaaaaaaaaaaaaaaaaaaaaaaaaaaaaaaaaaaaaaaaa

G|------- ------- ------- -------|------- ------- ------- -------|
D|-------------------------------|------------------------4------|
A|5-----------5------------------|5-------5-------7--------------|
E|-------------------------------|-------------------------------|
  you                                 but let me  tell you now!
  aaaaaaaaaaaaaaaaaaaaaaaaaaaaaaa         aaaaaaaaaaaaaaaaaaaaaaa

G|------- ------- ------- -------|------- ------- ------- -------|
D|5-----------5------------------|5-----------5------------------|
A|-------------------------------|-------------------------------|
E|-------------------------------|-------------------------------|
              But     every girl I've ever had
  aaaaaaaaaaaaaaaaaaaaaaaaaaaaaaaaaaaaaaaaaaaaaaaaaaaaaaaaaaaaaaa

G|------- ------- ------- -------|------- ------- ------- -------|
D|5-----------5------------------|5-----------5------------------|
A|-------------------------------|----------------------------5--|
E|-------------------------------|------------------------7------|
              breaks  my      heart, and leaves me sad,
  aaaaaaaaaaaaaaaaaaaaaaaaaaaaaaaaaaaaaaaaaaaaaaaaaaaaaaaaaaaaaaa

G|------- ------- ------- -------|------- ------- ------- -------|
D|-------------------------------|-------------------------------|
A|7-----------7------------------|7-----------7------------------|
E|-------------------------------|-------------------------------|
              what am I,      what am I       supposed        to
  aaaaaaaaaaaaaaaaaaaaaaaaaaaaaaaaaaaaaaaaaaaaaaaaaaaaaaaaaaaaaaa

G|------- ------- ------- -------|------- ------- ------- -------|
D|7-----------7------------------|7-------5-------4--------------|
A|-------------------------------|------------------------7------|
E|-------------------------------|----------------------------5--|
  do?                             Oh,  oh,  oh,   oh,  oh,  oh,
  aaaaaaaaaaaaaaaaaaaaaaaaaaaaaaah
Verse:
G|------- ------- ------- -------|------- ------- ------- -------|
D|------------7------------------|-------------------------------|
A|5-----------------------5---4--|------------9------------------|
E|-------------------------------|7------------------------------|
  An    -     na,                             just one    more


G|------- ------- ------- -------|------- ------- ------- -------|
D|------------7------------------|-------------------------------|
A|5-----------------------5---4--|------------9------------------|
E|-------------------------------|7------------------------------|
  thing, girl                                 You give    back your

Refrain:
G|------- ------- ------- -------|------- ------- ------- -------|
D|-------------------------------|------------7------------------|
A|5---------------------------5--|7---------------------------4--|
E|------------7-----------7------|--------------------5---7------|
  ring    to  me,     so  I   will set you    free,       go  with


G|------- ------- ------- -------|------- ------- ------- -------|
D|------------7------------------|------------4------------------|
A|5-----------------------5------|----------------------------4--|
E|-------------------------------|7-----------------------5------|
  him                                                     go  with
                              An      -       na

G|------- ------- ------- -------|------- ------- ------- -------|
D|------------7------------------|------------4------------------|
A|5-----------------------5------|----------------------------4--|
E|-------------------------------|7-----------------------5------|
  him                                     You can go      with him,
                              An      -       na
Outro:
G|------- ------- ------- -------|------- ------- ------- -------|
D|------------7------------------|------------4------------------|
A|5-----------------------5------|-------------------------------|
E|-------------------------------|7-----------------------7------|
      girl                                                go  with
                              An      -       na

G|------- ------- ------- -------|------- ------- ------- -------|
D|-------------------------------|-------------------------------|
A|5------------------------------|-------------------------------|
E|-------------------------------|-------------------------------|
  him

Chains
The Beatles
Written by Gerry Goffin and Carole King; released on "Please Please Me" album

George's first song on the first album to sing the lead vocal :-)

Intro:
G|------ ------ ------ ------|------ ------ ------ ------|
D|8--------------------------|8------------------------7-|
A|--------------8------------|--------------8------10----|
E|---------------------------|---------------------------|



G|------ ------ ------ ------|------ ------ ------ ------|
D|8--------------------------|8------------------------7-|
A|--------------8------------|-----------8------8--10----|
E|---------------------------|---------------------------|


Verse:
G|------ ------ ------ ------|------ ------ ------ ------|
D|8------------------------7-|8--------------------7-----|
A|--------------8------------|--------------8------------|
E|---------------------------|---------------------------|
  Chains,                  my ba  -  by's   got    me


G|------ ------ ------ ------|------ ------ ------ ------|
D|8--------------------------|8---8--6------5------------|
A|--------------8------------|---------------------8-----|
E|---------------------------|---------------------------|
  locked in  chains,                 And they      the
      up                                    ain't

G|------ ------ ------ ------|------ ------ ------ ------|
D|--------------8------------|--------------8------------|
A|6--------------------------|6--------------------6-----|
E|---------------------------|---------------------------|
  kind                               that   you    can


G|------ ------ ------ ------|------ ------ ------ ------|
D|8------------------------7-|8-------------7------5-----|
A|--------------8------------|---------------------------|
E|---------------------------|---------------------------|
  see                                Wo  -  oh,    these


G|------ ------ ------ ------|------ ------ ------ ------|
D|--------------10-----------|--------------8------------|
A|8----------8---------8-----|6----------6---------6-----|
E|---------------------------|---------------------------|
  chains out of love                 got a  hold   on


G|------ ------ ------ ------|------ ------ ------ ------|
D|8------------------------7-|8--------------------5---7-|
A|--------------8------------|----8--8---8--8---8--------|
E|---------------------------|---------------------------|
  me,           yeah!

Verse:
G|------ ------ ------ ------|------ ------ ------ ------|
D|8------------------------7-|8--------------------7-----|
A|--------------8------------|--------------8------------|
E|---------------------------|---------------------------|
  Chains,                  well,     can't  break  a-
                              I

G|------ ------ ------ ------|------ ------ ------ ------|
D|8------------------------7-|8---8--6------5------------|
A|--------------8------------|---------------------8-----|
E|---------------------------|---------------------------|
  way from   chains,                 Can't  run    a-
         these

G|------ ------ ------ ------|------ ------ ------ ------|
D|--------------8------------|--------------8------------|
A|6------------------------5-|6--------------------6-----|
E|---------------------------|---------------------------|
  round,                             cause  I'm    not


G|------ ------ ------ ------|------ ------ ------ ------|
D|8------------------------7-|8-------------7------5-----|
A|--------------8------------|---------------------------|
E|---------------------------|---------------------------|
  free                               Wo  -  oh,    these


G|------ ------ ------ ------|------ ------ ------ ------|
D|--------------10-----------|--------------8------------|
A|8--------------------8-----|6--------------------6-----|
E|---------------------------|---------------------------|
  chains out of love                 won't  let    me


G|------ ------ ------ ------|------ ------ ------ ------|
D|8------------------------7-|8---8--6------5------------|
A|--------------8------------|-------------------------5-|
E|---------------------------|---------------------6-8---|
  be,           yeah!

Bridge:
G|------ ------ ------ ------|------ ------ ------ ------|
D|-----------5--8------5---8-|-----------5--8------5---8-|
A|6--------------------------|6--------------------------|
E|---------------------------|---------------------------|
      I  wanna  tell   pretty     ba  -  by,
                    you,

G|------ ------ ------ ------|------ ------ ------ ------|
D|8------8-------------------|8---8--6------5------------|
A|-----------5--8------5---8-|-------------------------5-|
E|---------------------------|---------------------6-8---|
         I          think     fine
                         you're

G|------ ------ ------ ------|------ ------ ------ ------|
D|-----------5--8------5---8-|-----------5--8------5-----|
A|6--------------------------|6--------------------------|
E|---------------------------|---------------------------|
         I'd    love   to         love   you,          but


G|------ ------ 5----- 5-----|------ ------ ------ ------|
D|---------------------------|---------------------------|
A|8------8-----------------6-|8---8--6------5---5--------|
E|---------------------------|---------------------8-----|
  dar -  ling,  I'm    in     pri -  son    by     these

Verse:
G|------ ------ ------ ------|------ ------ ------ ------|
D|8------------------------7-|8--------------------7-----|
A|--------------8------------|--------------8------------|
E|---------------------------|---------------------------|
  chains,                  my ba  -  by's   got    me


G|------ ------ ------ ------|------ ------ ------ ------|
D|8------------------------7-|8---8--6------5------------|
A|--------------8------------|---------------------8-----|
E|---------------------------|---------------------------|
  locked in  chains,                 And they      the
      up                                    ain't

G|------ ------ ------ ------|------ ------ ------ ------|
D|--------------8------------|--------------8------------|
A|6--------------------------|6--------------------6-----|
E|---------------------------|---------------------------|
  kind                               that   you    can


G|------ ------ ------ ------|------ ------ ------ ------|
D|8------------------------7-|8-------------7------5-----|
A|--------------8------------|---------------------------|
E|---------------------------|---------------------------|
  see                                Wo  -  oh,    these


G|------ ------ ------ ------|------ ------ ------ ------|
D|--------------10-----------|--------------8------------|
A|8--------------------8-----|6--------------------6-----|
E|---------------------------|---------------------------|
  chains out of love                 got a  hold   on


G|------ ------ ------ ------|------ ------ ------ ------|
D|8------------------------7-|8------6------5------------|
A|--------------8------------|-------------------------5-|
E|---------------------------|---------------------6-8---|
  me,           yeah!

Bridge:
G|------ ------ ------ ------|------ ------ ------ ------|
D|-----------5--8------5---8-|-----------5--8------5-----|
A|6--------------------------|6--------------------------|
E|---------------------------|---------------------------|
         Please     me when I     tell   you
             believe

G|------ ------ ------ ------|------ ------ ------ ------|
D|8--------------------5-----|8------6------5------------|
A|-------5------8------------|---------------------8-----|
E|---------------------------|---------------------------|
         your       lips are  sweet


G|------ ------ ------ ------|------ ------ ------ ------|
D|-------5------8------5---8-|-------5------8------------|
A|6--------------------------|6--------------------5-6-7-|
E|---------------------------|---------------------------|
         I'd    like   to         kiss   them,         but


G|------ ------ ------ ------|------ ------ ------ ------|
D|-----------7--10-----10----|---------------------------|
A|8------8-------------------|8---8--6------5------------|
E|---------------------------|---------------------8-----|
  I      can't  break  a  -   way    from   all    these

Verse:
G|------ ------ ------ ------|------ ------ ------ ------|
D|8------------------------7-|8--------------------7-----|
A|--------------8------------|--------------8------------|
E|---------------------------|---------------------------|
  chains,                  my ba  -  by's   got    me


G|------ ------ ------ ------|------ ------ ------ ------|
D|8------------------------7-|8------6------5------------|
A|--------------8------------|---------------------8-----|
E|---------------------------|---------------------------|
  locked in  chains,                 And they      the
      up                                    ain't

G|------ ------ ------ ------|------ ------ ------ ------|
D|--------------8------------|--------------8------------|
A|6--------------------------|6--------------------6-----|
E|---------------------------|---------------------------|
  kind                               that   you    can


G|------ ------ ------ ------|------ ------ ------ ------|
D|8------------------------7-|8-------------7------5-----|
A|--------------8------------|---------------------------|
E|---------------------------|---------------------------|
  see                                Wo  -  oh,    these


G|------ ------ ------ ------|------ ------ ------ ------|
D|--------------10-----------|--------------8------------|
A|8--------------------8-----|6--------------------6-----|
E|---------------------------|---------------------------|
  chains out of love                 got a  hold   on


G|------ ------ ------ ------|------ ------ ------ ------|
D|8------------------------7-|8--------------------5---7-|
A|--------------8------------|----8--8---8--8---8--------|
E|---------------------------|---------------------------|
  me,           yeah!

Outro:
G|------ ------ ------ ------|------ ------ ------ ------|
D|8------------------------7-|8--------------------7-----|
A|--------------8------------|--------------8------------|
E|---------------------------|---------------------------|
  Chains,                                   chains of


G|------ ------ ------ ------|------ ------ ------ ------|
D|8--------------------------|8--------------------7-----|
A|--------------8------------|--------------8------------|
E|---------------------------|---------------------------|
  love,                                     chains of


G|------ ------ ------ ------|------ ------ ------ ------|
D|8------------------------7-|8------6------5------------|
A|--------------8------------|---------------------8-----|
E|---------------------------|---------------------------|
  love,                                     chains of


G|------ ------ ------ ------|------ ------ ------ ------|
D|--------------8----------8-|--------------8------------|
A|6----------6---------------|6----------6---------6-----|
E|---------------------------|---------------------------|
  love...
fade...

Boys
The Beatles
Written by Luther Dixon and Wes Farrell; released on "Please Please Me" 
album.

Great rock and roll, sung by Ringo.

Intro:
G|------- ------- ------- -------|------- ------- ------- -------|
D|-------------------------------|--------------------6---7---8--|
A|-------------------------------|-------------------------------|
E|-------------------------------|-------------------------------|



G|------- ------- ------- -------|------- ------- ------- -------|
D|9---9---9---9---9---9---9---9--|7---7---7---7---7---7---7-/-9--|
A|-------------------------------|-------------------------------|
E|-------------------------------|-------------------------------|



G|------- ------- ------- -------|------- ------- ------- -------|
D|------------------------6---7--|9---9---9---9---9---9---9---7--|
A|7---7---7---7---7---7----------|-------------------------------|
E|-------------------------------|-------------------------------|


Verse:
G|------- ------- ------- -------|------- ------- ------- -------|
D|-------------------------------|-------------------------------|
A|7------------------------------|7------------------------------|
E|-------------------------------|-------------------------------|
  I've    been    told,   when a  boy     kiss a  girl,


G|------- ------- ------- -------|------- ------- ------- -------|
D|-------------------------------|-------------------------------|
A|7------------------------------|7-------7---7-------7---7---7--|
E|-------------------------------|-------------------------------|
          take a  trip        a - round   the world,  Hey,


G|------- ------- ------- -------|------- ------- ------- -------|
D|7---7---7---7---7---7---7---7--|7---7---7---7---7---7---7-/-9--|
A|-------------------------------|-------------------------------|
E|-------------------------------|-------------------------------|
  hey,                                                hey,
          bop  -  shuop,          bop  -  bop  -  shuop

G|------- ------- ------- -------|------- ------- ------- -------|
D|-------------------------------|----------------------------7--|
A|7---7---7---7---7---7---7------|7---7---7---7---7---7---7------|
E|----------------------------7--|-------------------------------|
  hey!                                                Hey,
          bop  -  shuop,          bop  -  bop  -  shuop

G|------- ------- ------- -------|------- ------- ------- -------|
D|9---9---9---9---9---9---9---9--|7---7---7---7---7---7---7-/-9--|
A|-------------------------------|-------------------------------|
E|-------------------------------|-------------------------------|
  hey,                            yeah,           she said you do
          bop  -  shuop,          bop  -  bop  -  shuop

G|------- ------- ------- -------|------- ------- ------- -------|
D|-------------------------------|-------------------------------|
A|7---7---7---7---7---7---7---7--|-------------------------------|
E|-------------------------------|7---7---7-------7---7-------7--|


Verse:
G|------- ------- ------- -------|------- ------- ------- -------|
D|-------------------------------|-------------------------------|
A|7------------------------------|7------------------------------|
E|-------------------------------|-------------------------------|
  My      girl    says    when I      kiss her lips:


G|------- ------- ------- -------|------- ------- ------- -------|
D|-------------------------------|-------------------------------|
A|7------------------------------|7-------7-------7-------7------|
E|-------------------------------|-------------------------------|
         'Get the thrill  through fin     gertips.'   Hey,


G|------- ------- ------- -------|------- ------- ------- -------|
D|7-------7-------7---7---7---7--|7---7---7---7---7---7---7---9--|
A|-------------------------------|-------------------------------|
E|-------------------------------|-------------------------------|
  hey,                                                hey,
          bop  -  shuop,          bop  -  bop  -  shuop

G|------- ------- ------- -------|------- ------- ------- -------|
D|-------------------------------|------------------------6---7--|
A|7---7---7---7---7---7---7---7--|7---7---7---7---7---7----------|
E|-------------------------------|-------------------------------|
  hey!                                                Hey,
          bop  -  shuop,          bop  -  bop  -  shuop

G|------- ------- ------- -------|------- ------- ------- -------|
D|9---9---9---9---9---9---9---9--|7---7---7---7---7---7---7---9--|
A|-------------------------------|-------------------------------|
E|-------------------------------|-------------------------------|
  hey,                            yeah,           she said you do
          bop  -  shuop,          bop  -  bop  -  shuop

G|------- ------- ------- -------|------- ------- ------- -------|
D|-------------------------------|9---9---9---9---9---9---9---9--|
A|7---7---7---7---7---7---7---7--|-------------------------------|
E|-------------------------------|-------------------------------|
                                      Well,   I   talk about

Refrain:
G|------- ------- 7---7-- 6------|------- ------- 7---7-- 6------|
D|--------6---9---------------9--|--------6---9---------------9--|
A|7---7--------------------------|7---7--------------------------|
E|-------------------------------|-------------------------------|
  boys,                               don't   you know I  mean
          yeah,   yeah,       boys

G|------- ------- 7---7-- 6------|------- ------- ------- -------|
D|--------6---9---------------9--|-------------------------------|
A|7---7--------------------------|7---7---5---5---4---4----------|
E|-------------------------------|------------------------7---7--|
  boys?                               Well,   I   talk about  boys
          yeah,   yeah,       boys

G|------- ------- ------- -------|------- ------- ------- -------|
D|----------------5---5---4------|----------------5---5---4------|
A|--------4---7---------------7--|--------4---7---------------7--|
E|5---5--------------------------|5---5--------------------------|
      now,                            aah,
          yeah,   yeah,       boys

G|------- ------- 7---7-- 6------|------- ------- 7---7-- 6------|
D|--------6---9---------------9--|--------6---9---------------9--|
A|7---7--------------------------|7---7--------------------------|
E|-------------------------------|-------------------------------|
  boys                                Well,   I   talk a  -  bout
          yeah,   yeah,       boys

G|------- ------- ------- -------|------- ------- ------- -------|
D|----------------7---7---6------|----------------5---5---4------|
A|--------6---9---------------9--|--------4---7---------------7--|
E|7---7--------------------------|5---5--------------------------|
  boys    now,                            what a  bundle  of  joy!
          yeah,   yeah,       boys

G|------- ------- 7---7-- 6------|------- ------- ------- -------|
D|--------6---9---------------7--|9---9---9---9---9---9---9---9--|
A|7---7--------------------------|-------------------------------|
E|-------------------------------|-------------------------------|
                  All right,  George!
          yeah,   yeah
Break (solo):
G|------- ------- ------- -------|------- ------- ------- -------|
D|--------6-------9---9---7---6--|--------6-------9---9---7---6--|
A|7---7-------7------------------|7---7-------7------------------|
E|-------------------------------|-------------------------------|



G|------- ------- 7---7-- 6------|------- ------- 7---7-- 6------|
D|--------6---9---------------9--|--------6---9---------------9--|
A|7---7--------------------------|7---7--------------------------|
E|-------------------------------|-------------------------------|



G|------- ------- ------- -------|------- ------- ------- -------|
D|----------------5---5---4------|----------------5---5---4------|
A|--------4---7---------------7--|--------4---7---------------7--|
E|5---5--------------------------|5---5--------------------------|



G|------- ------- 7---7-- 6------|------- ------- 7---7-- 6------|
D|--------6---9---------------9--|--------6---9---------------9--|
A|7---7--------------------------|7---7--------------------------|
E|-------------------------------|-------------------------------|



G|------- ------- ------- -------|------- ------- ------- -------|
D|----------------7---7---6------|----------------5---5---4------|
A|--------6---9---------------9--|--------4---7---------------5--|
E|7---7--------------------------|5---5--------------------------|



G|------- ------- 7---7-- 6------|------- ------- ------- -------|
D|--------6---9---------------7--|9---9---9---9-------9---9------|
A|7---7--------------------------|-------------------------------|
E|-------------------------------|-------------------------------|


Verse:
G|------- ------- ------- -------|------- ------- ------- -------|
D|-------------------------------|-------------------------------|
A|7------------------------------|7------------------------------|
E|-------------------------------|-------------------------------|
  My      girl    says    when I      kiss her lips:


G|------- ------- ------- -------|------- ------- ------- -------|
D|-------------------------------|-------------------------------|
A|7------------------------------|7---7---7---7---7---7---7---7--|
E|-------------------------------|-------------------------------|
         'Get the thrill  through fin     gertips.'   Hey,


G|------- ------- ------- -------|------- ------- ------- -------|
D|--------7---7-----------7---7--|--------7---7---7---7---7---9--|
A|-------------------------------|-------------------------------|
E|5---------------5---5----------|5------------------------------|
  hey,                                                hey,
          bop  -  shuop,          bop  -  bop  -  shuop

G|------- ------- ------- -------|------- ------- ------- -------|
D|-------------------------------|------------------------7---8--|
A|7---7---7---7---7---7---7---7--|7---7---7---7---7---7----------|
E|-------------------------------|-------------------------------|
  hey!                                                Hey,
          bop  -  shuop,          bop  -  bop  -  shuop

G|------- ------- ------- -------|------- ------- ------- -------|
D|9---9---9---9---9---9---9---9--|7---7---7---7---7---7---7---9--|
A|-------------------------------|-------------------------------|
E|-------------------------------|-------------------------------|
  hey,                            yeah,           she said you do
          bop  -  shuop,          bop  -  bop  -  shuop

G|------- ------- ------- -------|------- ------- ------- -------|
D|-------------------------------|9-------9-------9-------9------|
A|7---7---7---7---7---7---7---7--|-------------------------------|
E|-------------------------------|-------------------------------|
                                      Well,   I   talk about

Refrain:
G|------- ------- 7---7-- 6------|------- ------- 7---7-- 6------|
D|--------6---9---------------9--|--------6---9---------------9--|
A|7---7--------------------------|7---7--------------------------|
E|-------------------------------|-------------------------------|
  boys,                               don't   you know I  mean
          yeah,   yeah,       boys

G|------- ------- 7---7-- 6------|------- ------- 7---7-- 6------|
D|--------6---9---------------9--|--------6---9---------------9--|
A|7---7--------------------------|7---7--------------------------|
E|-------------------------------|-------------------------------|
  boys?                               Well,   I   talk about  boys
          yeah,   yeah,       boys

G|------- ------- ------- -------|------- ------- ------- -------|
D|----------------5---5---4------|----------------5---5---4------|
A|--------4---7---------------7--|--------4---7---------------5--|
E|5---5--------------------------|5---5--------------------------|
      now,                            aah,
          yeah,   yeah,       boys

G|------- ------- 7---7-- 6------|------- ------- 7---7-- 7------|
D|--------6---9---------------9--|--------6---9---------------9--|
A|7---7--------------------------|7---7--------------------------|
E|-------------------------------|-------------------------------|
  boys                                Well,   I   talk a  -  bout
          yeah,   yeah,       boys

G|------- ------- ------- -------|------- ------- ------- -------|
D|----------------7---7---6------|----------------5---5---4------|
A|--------6---9---------------9--|--------4---7---------------7--|
E|7---7--------------------------|5---5--------------------------|
  boys    now,                            what a  bundle  of  joy!
          yeah,   yeah,       boys

G|------- ------- ------- -------|------- ------- ------- -------|
D|--------6-------9---9---7---6--|9---9---9---9---9---9---9---9--|
A|7---7-------7------------------|-------------------------------|
E|-------------------------------|-------------------------------|

          yeah,   yeah
Refrain:
G|------- ------- 7---7-- 6------|------- ------- 7---7-- 6------|
D|--------6---9---------------9--|--------6---9---------------9--|
A|7---7--------------------------|7---7--------------------------|
E|-------------------------------|-------------------------------|
  Boys,                               don't   you know I  mean
          yeah,   yeah,       boys

G|------- ------- 7---7-- 6------|------- ------- ------- -------|
D|--------6---9---------------9--|-------------------------------|
A|7---7--------------------------|7---7---5-------4--------------|
E|-------------------------------|------------------------7------|
  boys?                               Well,   I   talk about  boys
          yeah,   yeah,       boys

G|------- ------- ------- -------|------- ------- ------- -------|
D|----------------5---5---4------|----------------5---5---4------|
A|--------4---7---------------7--|--------4---7---------------5--|
E|5------------------------------|5---5--------------------------|
      now,                            aah,
          yeah,   yeah,       boys

G|------- ------- 7---7-- 6------|------- ------- 7---7-- 7------|
D|--------6---9---------------9--|--------6---9---------------9--|
A|7---7--------------------------|7---7--------------------------|
E|-------------------------------|-------------------------------|
                                      Well,   I   talk a  -  bout
          yeah,   yeah,       boys
fade...


Ask Me Why
The Beatles
Written by John Lennon and Paul McCartney; released on single "Please Please 
Me / Ask Me Why" and on "Please Please Me" album

The B-side song of their second single. They originally wanted it to the
A-side, but they were told that it wouldn't be a "hit". But I think this one 
is a better song than "Please Please Me" (of course, I don't want to say 
that the other one is bad). Its lyrics are so sweet, explaining to the 
beloved how happy you are just to be with Her, crying because of your 
happiness, etc. A wonderful love song, I'm surprised that later it didn't 
get on to the "Love Songs" album. And Paul plays a very fine bassline, I 
especially like it in the bridges.

Intro:
G|------- ------- ------- -------|------- ------- ------- -------|
D|------------9------------------|-------------------------------|
A|7------------------------------|7---------------7-------9------|
E|------------------------7------|-------------------------------|
                                                  I       love

Verse:
G|------- ------- ------- -------|------- ------- ------- -------|
D|6-----------6-----------6------|4-----------4------------------|
A|----------------6--------------|----------------4--------------|
E|-------------------------------|------------------------7------|
  you,                                    cause   tell me things I
                                              you

G|------- ------- ------- -------|------- ------- ------- -------|
D|------------9------------------|-------------------------------|
A|7------------------------------|7---------------7-------9------|
E|------------------------7------|-------------------------------|
  I want  to  know,                               And     it's


G|------- ------- ------- -------|------- ------- ------- -------|
D|6-----------6-----------6------|4-----------4------------------|
A|----------------6--------------|----------------4--------------|
E|-------------------------------|------------------------7------|
  true                                    that it really  on- ly


G|------- ------- ------- -------|------- ------- ------- -------|
D|------------9------------------|6-----------6------------------|
A|7-------------------7---9---9--|----------------6-------5------|
E|-------------------------------|-------------------------------|
  goes    to  show                that I      know            That


G|------- ------- ------- -------|------- ------- ------- -------|
D|------------6------------------|------------6------------------|
A|4------------------------------|4-----------------------4------|
E|------------------------4------|-------------------------------|
  I,              I,  I,      I                               should
  Ooooooooooooooooooooooooooooooooooooooooooooooooooooooooooooooo

G|------- ------- ------- -------|------- ------- ------- -------|
D|7-----------7-----------7------|-------------------------------|
A|----------------7--------------|9-----------9-----------9------|
E|-------------------------------|-------------------------------|
  never,  never,  never   be      blue
  ooooooooooooooooooooooooooooooooooooooooooooooooooooooooooooooo

G|------- ------- ------- -------|
D|-------------------------------|
A|----------------7-------9------|
E|7------------------------------|
                  Now     you're
  ooo
Verse:
G|------- ------- ------- -------|------- ------- ------- -------|
D|6-----------6-----------6------|4-----------4------------------|
A|----------------6--------------|----------------4--------------|
E|-------------------------------|------------------------7------|
  mine,                                       my  happi - ness still


G|------- ------- ------- -------|------- ------- ------- -------|
D|------------9------------------|-------------------------------|
A|7------------------------------|7---------------7-------9------|
E|------------------------7------|-------------------------------|
  makes   me  cry,                                And     in


G|------- ------- ------- -------|------- ------- ------- -------|
D|6-----------6-----------6------|4-----------4------------------|
A|----------------6--------------|----------------4--------------|
E|-------------------------------|------------------------7------|
  time                                        you'll          the
                                                  un- derstand

G|------- ------- ------- -------|------- ------- ------- -------|
D|------------9------------------|6-----------6------------------|
A|7-------------------7---9---9--|----------------6-------5------|
E|-------------------------------|-------------------------------|
  rea  -  son why                 if  I       cry,            It's


G|------- ------- ------- -------|------- ------- ------- -------|
D|------------6------------------|------------6------------------|
A|4------------------------------|4-----------------------4------|
E|------------------------4------|-------------------------------|
  not         be- cause I'm   sad,                    but you're
                                                              the
  Ooooooooooooooooooooooooooooooooooooooooooooooooooooooooooooooo
G|------- ------- ------- -------|------- ------- ------- -------|
D|7-----------7-----------7------|------------9------------------|
A|----------------7--------------|7------------------------------|
E|-------------------------------|------------------------7------|
  only  girl that I've    e - ver had
  oooooooooooooooooooooooooooooooo

G|------- ------- ------- -------|
D|----------------9--------------|
A|7-----------7-----------7------|
E|-------------------------------|
                  I    can't be-

Bridge:
G|------- ------- ------- -------|------- ------- ------- -------|
D|7------------------------------|9-------7-------6--------------|
A|--------9-------7--------------|------------------------9------|
E|------------------------9------|-------------------------------|
  lieve                                       it's hap-   to
                                                       pened

G|------- ------- ------- -------|------- ------- ------- -------|
D|----------------9-------9------|----------------9--------------|
A|7-------7----------------------|7-------7---------------7------|
E|----------------------------7--|-------------------------------|
  me,                                             I    can't con-


G|------- ------- ------- -------|------- ------- ------- -------|
D|7------------------------------|9-------7-------6--------------|
A|--------9-------7--------------|------------------------9------|
E|------------------------9------|-------------------------------|
  ceive                                       of  a - ny  more


G|------- ------- ------- -------|------- ------- ------- -------|
D|-------------------------------|-------------------------------|
A|7---7---7----------------------|----------------7-------9------|
E|-------------------------------|--------7----------------------|
                  Mi- se  -   ry                  Ask     me

Refrain:
G|------- ------- ------- -------|------- ------- ------- -------|
D|6-----------6-----------6------|-------------------------------|
A|----------------6--------------|----------------4-------7------|
E|-------------------------------|5-----------5------------------|
  why,                I'll say I  love you,           and     I'm
                                  Ooooooooooooooooooooooooooooooo

G|------- ------- ------- -------|------- ------- ------- -------|
D|6-----------6-----------6------|-------------------------------|
A|----------------6--------------|----------------4-------6------|
E|-------------------------------|5-----------5------------------|
  al  -   ways thin - king    of  you
  ooooooooooooooooooooooooooooooooooooooooooooooooooooooooooooooo

G|------- ------- ------- -------|------- ------- ------- -------|
D|----------------9--------------|-------------------------------|
A|7-----------7------------------|7---------------7-------9------|
E|------------------------7------|-------------------------------|
                                                  I       love

Verse:
G|------- ------- ------- -------|------- ------- ------- -------|
D|6-----------6-----------6------|4-----------4------------------|
A|----------------6--------------|----------------4--------------|
E|-------------------------------|------------------------7------|
  you,                                    cause   tell me things I
                                              you

G|------- ------- ------- -------|------- ------- ------- -------|
D|----------------9--------------|-------------------------------|
A|7-----------7------------------|7---------------7-------9------|
E|------------------------7------|-------------------------------|
  I want  to  know,                               And     it's


G|------- ------- ------- -------|------- ------- ------- -------|
D|6-----------6-----------6------|4-----------4------------------|
A|----------------6--------------|----------------4--------------|
E|-------------------------------|------------------------7------|
  true                                    that it really  on- ly


G|------- ------- ------- -------|------- ------- ------- -------|
D|------------9------------------|6-----------6------------------|
A|7-------------------7---9---9--|----------------6-------5------|
E|-------------------------------|-------------------------------|
  goes    to  show                that I      know            That


G|------- ------- ------- -------|------- ------- ------- -------|
D|----------------6-------6------|----------------6--------------|
A|4-----------4------------------|4-----------4-----------4------|
E|-------------------------------|-------------------------------|
  I,              I,  I,      I                               should
  Ooooooooooooooooooooooooooooooooooooooooooooooooooooooooooooooo

G|------- ------- ------- -------|------- ------- ------- -------|
D|7-----------7-----------7------|-------------------------------|
A|----------------7--------------|9-----------9-----------9------|
E|-------------------------------|-------------------------------|
  never,  never,  never   be      blue
  ooooooooooooooooooooooooooooooooooooooooooooooooooooooooooooooo

G|------- ------- ------- -------|
D|-------------------------------|
A|----------------7-------9------|
E|7------------------------------|
                  Ask     me
  ooo
Refrain:
G|------- ------- ------- -------|------- ------- ------- -------|
D|6-----------6-----------6------|-------------------------------|
A|----------------6--------------|----------------4-------7------|
E|-------------------------------|5-----------5------------------|
  why,                I'll say I  love you,           and     I'm
                                  Ooooooooooooooooooooooooooooooo

G|------- ------- ------- -------|------- ------- ------- -------|
D|6-----------6-----------6------|-------------------------------|
A|----------------6--------------|----------------4-------6------|
E|-------------------------------|5-----------5------------------|
  al  -   ways thin - king    of  you
  ooooooooooooooooooooooooooooooooooooooooooooooooooooooooooooooo

G|------- ------- ------- -------|------- ------- ------- -------|
D|----------------9-------9------|----------------9--------------|
A|7-----------7------------------|7-----------7-----------7------|
E|-------------------------------|-------------------------------|
                                                  I    can't be-

Bridge:
G|------- ------- ------- -------|------- ------- ------- -------|
D|-------------------------------|-------------------------------|
A|--------4-------7-------4------|--------6-------9-------6------|
E|5------------------------------|7------------------------------|
  lieve                                       it's hap-   to
                                                       pened

G|------- ------- ------- -------|------- ------- ------- -------|
D|-------------------------------|-------------------------------|
A|7-------7-------------------6--|7-------5-------4--------------|
E|----------------7-------7------|------------------------7------|
  me,                                             I    can't con-


G|------- ------- ------- -------|------- ------- ------- -------|
D|-------------------------------|-------------------------------|
A|----------------4-------7------|--------6-------9-------6------|
E|5-------5----------------------|7------------------------------|
  ceive                                       of  a - ny  more


G|------- ------- ------- -------|------- ------- ------- -------|
D|-------------------------------|-------------------------------|
A|7---7---7----------------------|----------------7-------9------|
E|-------------------------------|--------7----------------------|
                  Mi- se  -   ry                  Ask     me

Refrain:
G|------- ------- ------- -------|------- ------- ------- -------|
D|6-----------6-----------6------|-------------------------------|
A|----------------6--------------|----------------4-------7------|
E|-------------------------------|5-----------5------------------|
  why,                I'll say I  love you,           and     I'm
                                  Ooooooooooooooooooooooooooooooo

G|------- ------- ------- -------|------- ------- ------- -------|
D|6-----------6-----------6------|-------------------------------|
A|----------------6--------------|----------------4-------6------|
E|-------------------------------|5-----------5------------------|
  al  -   ways thin - king    of  you
  ooooooooooooooooooooooooooooooooooooooooooooooooooooooooooooooo

G|------- ------- ------- -------|------- ------- ------- -------|
D|------------9-----------9------|------------9-----------9------|
A|7------------------------------|7------------------------------|
E|-------------------------------|-------------------------------|
                                  You

Outro:
G|------- ------- ------- -------|------- ------- ------- -------|
D|------------9-----------9------|------------9-----------9------|
A|7------------------------------|7------------------------------|
E|-------------------------------|-------------------------------|
                                  You


G|-------------------------------|-------------------------------|
D|-------------------------------|-------------------------------|
A|-------------------------------|-------------------------------|
E|7------------------------------|-------------------------------|


Please Please Me
The Beatles
Written by John Lennon and Paul McCartney; released on single "Please 
Please Me / Ask Me Why" and on album "Please Please Me"

"Please Please Me" was their second single, and their first number one hit.

Intro:
G|------- ------- ------- -------|------- ------- ------- -------|
D|-------------------------------|-------------------------------|
A|-------------------------------|-------------------------------|
E|-------------------------------|------------------------7------|



G|------- ------- ------- -------|------- ------- ------- -------|
D|-------------------------------|-------------------------------|
A|7-------7---7---7---7---7---7--|7---7---7---7---7---7----------|
E|-------------------------------|------------------------7------|



G|------- ------- ------- -------|------- ------- ------- -------|
D|-------------------------------|-------------------------------|
A|7---7---7---7---7---7---7---7--|7---7---7---7---7---7----------|
E|-------------------------------|------------------------7------|


Verse:
G|------- ------- ------- -------|------- ------- ------- -------|
D|-------------------------------|-------------------------------|
A|7---7---7---7---7---7---7---7--|7---7---7---7---7---7---7---7--|
E|-------------------------------|-------------------------------|
          Last    night   I       said    these   words   to


G|------- ------- ------- -------|------- ------- ------- -------|
D|7---7---7----------------------|----5---5---7---7---9---9---9--|
A|----------------7---7---7---7--|7------------------------------|
E|-------------------------------|-------------------------------|
  my              girl:


G|------- ------- ------- -------|------- ------- ------- -------|
D|-------------------------------|-------------------------------|
A|7---7---7---7---7---7---7---7--|7---7---7---7---7---7---7---7--|
E|-------------------------------|-------------------------------|
         'I       know    you     ne  -   ver     e   -   ven


G|------- ------- ------- -------|------- ------- 9---9-- -------|
D|7---7---7---7------------------|------------------------9---9--|
A|----------------7---7---7---7--|7-------7---7------------------|
E|-------------------------------|-------------------------------|
  try,            girl'                                       Come


G|------- ------- ------- -------|------- ------- ------- -------|
D|7-----------------------7---6--|4-----------------------4---5--|
A|------------7------------------|------------4------------------|
E|-------------------------------|-------------------------------|
  on,                        come on,                         come
          come on                         come on

G|------- ------- ------- -------|------- ------- ------- -------|
D|6-----------------------6------|7-----------------------7------|
A|------------4---------------4--|------------7------------------|
E|-------------------------------|-------------------------------|
  on,                        come on,                     Please,
          come on                         come on

G|------- ------- ------- -------|------- ------- ------- -------|
D|-------------------------------|7---7---7---7---9---9---9------|
A|7---7---7---7---7---7---7---7--|----------------------------6--|
E|-------------------------------|-------------------------------|
  please          me,     woah,   yeah,       like I      please


G|------- ------- ------- -------|------- ------- ------- -------|
D|------------6---9---9---6------|7---7---6---7---9---9----------|
A|7---7---7-------------------7--|-------------------------------|
E|-------------------------------|------------------------7---7--|
  you

Verse:
G|------- ------- ------- -------|------- ------- ------- -------|
D|-------------------------------|-------------------------------|
A|7---7---7---7---7---7---7---7--|7---7---7---7---7---7---7---7--|
E|-------------------------------|-------------------------------|
          You     don't   need    me      to      show    the


G|------- ------- ------- -------|------- ------- ------- -------|
D|7---7---7----------------------|----5---5---7---7---9---9------|
A|----------------7---7---7---7--|7------------------------------|
E|-------------------------------|----------------------------7--|
  way,            love,


G|------- ------- ------- -------|------- ------- ------- -------|
D|-------------------------------|-------------------------------|
A|7-------7---7---7---7---7---7--|7---7---7---7---7---7---7---7--|
E|-------------------------------|-------------------------------|
          Why     do      I       al  -   ways    have    to


G|------- ------- ------- -------|------- ------- 9---9-- -------|
D|7---7---7---7------------------|------------------------9---9--|
A|----------------7---7---7---7--|7-------7---7------------------|
E|-------------------------------|-------------------------------|
  say,            love?                                       Come


G|------- ------- ------- -------|------- ------- ------- -------|
D|7-----------------------7---6--|4-----------------------4---5--|
A|------------7------------------|------------4------------------|
E|-------------------------------|-------------------------------|
  on,                        come on,                         come
          come on                         come on

G|------- ------- ------- -------|------- ------- ------- -------|
D|6-----------------------6------|7-----------------------7------|
A|------------4---------------4--|------------7------------------|
E|-------------------------------|-------------------------------|
  on,                        come on,                     Please,
          come on                         come on

G|------- ------- ------- -------|------- ------- ------- -------|
D|-------------------------------|7---7---7-------9---9---9---9--|
A|7---7---7---7---7---7---7---7--|-------------------------------|
E|-------------------------------|-------------------------------|
  please          me,     woah,   yeah,       like I      please


G|------- ------- ------- -------|------- ------- ------- -------|
D|------------6---9---9---6---9--|-------------------------------|
A|7---7---7----------------------|7------------------------------|
E|-------------------------------|-------------------------------|
  you

Bridge:
G|------- ------- ------- -------|------- ------- ------- -------|
D|7------------------------------|9-------7-------6--------------|
A|--------9-------7--------------|------------------------9------|
E|------------------------9------|----------------------------7--|
  I don't want to sound complaining,  you know    always  rain in
                                  but         there's
  Aaaaaaaaaaaaaaaaaaaaaaaaaaaaaaaaaaaaaaaaaaaaaaaaaaaaaaaaaaaaaaa
G|------- ------- ------- -------|------- ------- ------- -------|
D|------------6---9-------6---9--|------------6---9-------6------|
A|7-------7----------------------|7-------7-------------------7--|
E|-------------------------------|-------------------------------|
  my              heart
                                          in      my      heart

G|------- ------- ------- -------|------- ------- ------- -------|
D|7------------------------------|9-------9---7---6--------------|
A|--------9-------7--------------|------------------------9------|
E|------------------------9------|-------------------------------|
  I   do  all the pleasing with   it's so hard to reason      with
                              you,
  Aaaaaaaaaaaaaaaaaaaaaaaaaaaaaaaaaaaaaaaaaaaaaaaaaaaaaaaaaaaa
G|------- ------- ------- -------|------- ------- ------- -------|
D|------------6---9-------6------|7-------7---7---9-------9------|
A|7---------------------------7--|-------------------------------|
E|-------------------------------|----------------------------7--|
  you,                    woah,   yeah,       why do  you make me


G|------- ------- ------- -------|------- ------- ------- -------|
D|------------6---9-------6------|7-------6---7---9--------------|
A|7-------7-------------------7--|-------------------------------|
E|-------------------------------|------------------------7---7--|
  blue?

Verse:
G|------- ------- ------- -------|------- ------- ------- -------|
D|-------------------------------|-------------------------------|
A|7---7---7---7---7---7---7---7--|7---7---7---7---7---7---7---7--|
E|-------------------------------|-------------------------------|
          Last    night   I       said    these   words   to


G|------- ------- ------- -------|------- ------- ------- -------|
D|7---7---7----------------------|----5---5---7---7---9---9------|
A|----------------7---7---7---7--|7------------------------------|
E|-------------------------------|----------------------------7--|
  my              girl:


G|------- ------- ------- -------|------- ------- ------- -------|
D|-------------------------------|-------------------------------|
A|7---7---7---7---7---7---7---7--|7---7---7---7---7---7---7---7--|
E|-------------------------------|-------------------------------|
         'I       know    you     ne  -   ver     e   -   ven


G|------- ------- ------- -------|------- ------- 9---9-- -------|
D|7---7---7---7------------------|------------------------9---9--|
A|----------------7---7---7---7--|7-------7---7------------------|
E|-------------------------------|-------------------------------|
  try,            girl'                                       Come


G|------- ------- ------- -------|------- ------- ------- -------|
D|7-----------------------7---6--|4-----------------------4---5--|
A|------------7------------------|------------4------------------|
E|-------------------------------|-------------------------------|
  on,                        come on,                         come
          come on                         come on

G|------- ------- ------- -------|------- ------- ------- -------|
D|6-----------------------6------|7-----------------------7------|
A|------------4---------------4--|------------7------------------|
E|-------------------------------|-------------------------------|
  on,                        come on,                     Please,
          come on                         come on

G|------- ------- ------- -------|------- ------- ------- -------|
D|-------------------------------|7---7---7---7---9---9----------|
A|7---7---7-------7---7---7---7--|-------------------------------|
E|-------------------------------|------------------------7---7--|
  please          me,     woah,   yeah,       like I      please


G|------- ------- ------- -------|------- ------- ------- -------|
D|-------------------------------|7---7---7---7---9---9----------|
A|7---7---7---7---7---7---7---7--|-------------------------------|
E|-------------------------------|------------------------7---7--|
  you             me,     woah,   yeah,       like I      please

Outro:
G|------- ------- ------- -------|------- ------- ------- -------|
D|-------------------------------|7---7---7---7---9---9----------|
A|7---7---7---7---7---7---7---7--|-------------------------------|
E|-------------------------------|------------------------7---7--|
  you             me,     woah,   yeah,       like I      please


G|------- ------- ------- -------|------- ------- ------- -------|
D|----------------5--------------|-------------------------------|
A|7------------------------------|-------------------------------|
E|-------------------------------|8---------------7--------------|
  you


G|------- ------- ------- -------|------- ------- ------- -------|
D|-------------------------------|-------------------------------|
A|7------------------------------|-------------------------------|
E|-------------------------------|-------------------------------|


	
Love Me Do
Beatles

A little more difficalt

Intro
G---------|  |-----|
D-5-----5-|x3|-5---|x2
A---5-3---|  |---5-|
E---------|  |-----|

Verse/Chorus #1
G---------|  |-------------|  |---------|  |-------------|
D-5-----5-|x3|---5---5-----|x1|-5-----5-|x5|---5---5-----|x1
A---5-3---|  |-3---3---3---|  |---5-3---|  |-3---3---3---|
E---------|  |-------------|  |---------|  |-------------|

G------------------|
D-5-----5-5---5542-|
A---5-3-----5------|
E------------------|

Bridge #1
G---------|---------|---------|----------|
D---7---7-|---5-5---|---7---7-|---5--5-5-|
A-5---5---|-3-----5-|-5---5---|-3---3-3--|
E---------|---------|---------|----------|

Verse/Chorus #2
G---------|  |-------------|  |------------------|
D-5-----5-|x3|---5---5-----|x1|-5-----5-5---5542-|
A---5-3---|  |-3---3---3---|  |---5-3-----5------|
E---------|  |-------------|  |------------------|

Bridge #2
G---------|---------|---------|---------|---------|---------|
D---7---7-|---5-5---|---7---7-|---5-5---|-5---5---|-5---5---|
A-5---5---|-3-----5-|-5---5---|-3-----5-|---5---5-|---5-----|
E---------|---------|---------|---------|---------|---------|

Verse/Chorus/End #3
G---------|  |-------------|  |---------|
D-5-----5-|x3|---5---5-----|x1|-5-----5-|x4
A---5-3---|  |-3---3---3---|  |---5-3---|
E---------|  |-------------|  |---------|


P.S. I Love You
The Beatles
Written by John Lennon and Paul McCartney; released on single "Love Me Do / 
P.S. I Love You" and on album "Please Please Me"

The B-side of the "Love Me Do" single; it's a surprisingly complex song 
compared to "Love Me Do", and, of course, it's a good love song :-)

Intro:
G|------- ------- ------- -------|------- ------- ------- -------|
D|5------------------------------|----------------7--------------|
A|----------------4-----------4--|5-----------5-----------5------|
E|-------------------------------|-------------------------------|
  As      I       write      this letter,


G|------- ------- ------- -------|------- ------- ------- -------|
D|5-----------5------------------|----------------7--------------|
A|----------------4-----------4--|5-----------5-----------5------|
E|-------------------------------|-------------------------------|
  send    my      love        to  you,                        Re-


G|------- ------- ------- -------|------- ------- ------- -------|
D|5-----------5------------------|----------------7--------------|
A|----------------4-----------4--|5-----------5------------------|
E|-------------------------------|------------------------5------|
  mem  -  ber     that       I'll always


G|------- ------- ------- -------|------- ------- ------- -------|
D|----------------7-----------7--|----------------7--------------|
A|5-----------5------------------|5-----------5------------------|
E|-------------------------------|------------------------5------|
  be      in      love    with    you

Verse:
G|------- ------- ------- -------|------- ------- ------- -------|
D|----------------7--------------|----------------9--------------|
A|5-----------5-----------5------|7-----------7-----------7------|
E|-------------------------------|-------------------------------|
  Trea -  sure    these   few     words       till    we're   to-


G|------- ------- ------- -------|------- ------- ------- -------|
D|----------------7--------------|7-----------7-----------7------|
A|5-----------5-----------5------|----------------7--------------|
E|-------------------------------|-------------------------------|
  ge  -   ther,              keep all     my          love    for-


G|------- ------- ------- -------|------- ------- ------- -------|
D|9-----------9-----------9------|7-----------7-----------7------|
A|----------------9--------------|----------------7--------------|
E|-------------------------------|-------------------------------|
  e   -   ver,                    P.      S.           I     love


G|------- ------- ------- -------|------- ------- ------- -------|
D|8-----------8------------------|8-----------8------------------|
A|----------------8-------8------|-------------------------------|
E|-------------------------------|----------------6-------8------|
  you,                                            you,    you,


G|------- ------- ------- -------|------- ------- ------- -------|
D|----------------7--------------|----------------7--------------|
A|5-----------5---------------4--|5-----------5------------------|
E|------------------------5------|------------------------5------|
  you

Verse:
G|------- ------- ------- -------|------- ------- ------- -------|
D|----------------7--------------|----------------9--------------|
A|5-----------5-----------5------|7-----------7-----------7------|
E|-------------------------------|-------------------------------|
  I'll    be      co  -   ming    home        a - gain        to


G|------- ------- ------- -------|------- ------- ------- -------|
D|----------------7--------------|7-----------7-----------7------|
A|5-----------5-----------5------|----------------7--------------|
E|-------------------------------|-------------------------------|
  you,    love,               and till        the day     I


G|------- ------- ------- -------|------- ------- ------- -------|
D|9-----------9-----------9------|7-----------7-----------7------|
A|----------------9--------------|----------------7--------------|
E|-------------------------------|-------------------------------|
  do,     love,                   P.      S.           I     love


G|------- ------- ------- -------|------- ------- ------- -------|
D|8-----------8------------------|8-----------8------------------|
A|----------------8-------8------|-------------------------------|
E|-------------------------------|----------------6-------8------|
  you,                                            you,    you,


G|------- ------- ------- -------|------- ------- ------- -------|
D|----------------7--------------|----------------7--------------|
A|5-----------5---------------4--|5-----------5-----------5------|
E|------------------------5------|-------------------------------|
  you

Bridge:
G|------- ------- ------- -------|------- ------- ------- -------|
D|5-----------5-----------5------|----------------7--------------|
A|----------------5--------------|5-----------5-----------5------|
E|-------------------------------|-------------------------------|
  As      I       write      this letter,


G|------- ------- ------- -------|------- ------- ------- -------|
D|5-----------5-----------5------|----------------7--------------|
A|----------------5--------------|5-----------5-----------5------|
E|-------------------------------|-------------------------------|
  send    my      love        to  you,                        Re-


G|------- ------- ------- -------|------- ------- ------- -------|
D|5-----------5-----------5------|----------------7--------------|
A|----------------5--------------|5-----------5------------------|
E|-------------------------------|------------------------5------|
  mem  -  ber     that       I'll always


G|------- ------- ------- -------|------- ------- ------- -------|
D|----------------7-----------7--|----------------7--------------|
A|5-----------5------------------|5-----------5------------------|
E|-------------------------------|------------------------5------|
  be      in      love    with    you

Verse:
G|------- ------- ------- -------|------- ------- ------- -------|
D|----------------7--------------|----------------9--------------|
A|5-----------5-----------5------|7-----------7-----------7------|
E|-------------------------------|-------------------------------|
  Trea -  sure    these   few     words       till    we're   to-


G|------- ------- ------- -------|------- ------- ------- -------|
D|----------------7--------------|7-----------7-----------7------|
A|5-----------5-----------5------|----------------7--------------|
E|-------------------------------|-------------------------------|
  ge  -   ther,              keep all     my          love    for-


G|------- ------- ------- -------|------- ------- ------- -------|
D|9-----------9-----------9------|7-----------7-----------7------|
A|----------------9--------------|----------------7--------------|
E|-------------------------------|-------------------------------|
  e   -   ver,                    P.      S.           I     love


G|------- ------- ------- -------|------- ------- ------- -------|
D|8-----------8------------------|8-----------8------------------|
A|----------------8-------8------|-------------------------------|
E|-------------------------------|----------------6-------8------|
  you,                                            you,    you,


G|------- ------- ------- -------|------- ------- ------- -------|
D|----------------7--------------|----------------7--------------|
A|5-----------5---------------4--|5-----------5-----------5------|
E|------------------------5------|-------------------------------|
  you

Bridge:
G|------- ------- ------- -------|------- ------- ------- -------|
D|5-----------5-----------5------|----------------7--------------|
A|----------------5--------------|5-----------5-----------5------|
E|-------------------------------|-------------------------------|
  As      I       write      this letter,     oh!


G|------- ------- ------- -------|------- ------- ------- -------|
D|5-----------5-----------5------|------------7---7--------------|
A|----------------5--------------|5-----------------------5------|
E|-------------------------------|-------------------------------|
  send    my      love        to  you, You know I want you to re-


G|------- ------- ------- -------|------- ------- ------- -------|
D|5-----------5-----------5------|----------------7--------------|
A|----------------5--------------|5-----------5---------------4--|
E|-------------------------------|------------------------5------|
  mem  -  ber     that       I'll always      yeah!


G|------- ------- ------- -------|------- ------- ------- -------|
D|----------------7-----------7--|----------------7--------------|
A|5-----------5------------------|5-----------5------------------|
E|-------------------------------|------------------------5------|
  be      in      love    with    you

Verse:
G|------- ------- ------- -------|------- ------- ------- -------|
D|----------------7--------------|----------------9--------------|
A|5-----------5-----------5------|7-----------7-----------7------|
E|-------------------------------|-------------------------------|
  I'll    be      co  -   ming    home        a - gain        to


G|------- ------- ------- -------|------- ------- ------- -------|
D|----------------7--------------|7-----------7-----------7------|
A|5-----------5-----------5------|----------------7--------------|
E|-------------------------------|-------------------------------|
  you,    love,               and till        the day     I


G|------- ------- ------- -------|------- ------- ------- -------|
D|9-----------9-----------9------|7-----------7-----------7------|
A|----------------9--------------|----------------7--------------|
E|-------------------------------|-------------------------------|
  do,     love,                   P.      S.           I     love


G|------- ------- ------- -------|------- ------- ------- -------|
D|8-----------8------------------|8-----------8------------------|
A|----------------8-------8------|-------------------------------|
E|-------------------------------|----------------6-------8------|
  you,                                            you,    you,


G|------- ------- ------- -------|------- ------- ------- -------|
D|----------------7--------------|-------------------------------|
A|5-----------5---------------4--|5-------5----------------------|
E|------------------------5------|----------------6-------8------|
  you                                             you,    you,

Outro:
G|------- ------- ------- -------|------- ------- ------- -------|
D|----------------7--------------|-------------------------------|
A|5-----------5---------------4--|5-------5----------------------|
E|------------------------5------|----------------6-------8------|
  you                                             I       love


G|------- ------- ------- -------|------- ------- ------- -------|
D|------------7-----------7------|-------------------------------|
A|5------------------------------|5------------------------------|
E|-------------------------------|-------------------------------|
  you!


Baby It's You
The Beatles
Written by Mack David, Barney Williams and Burt Bacharach; released 
on "Please Please Me" album.

Nice love song.

Intro:
G|------- ------- ------- -------|------- ------- ------- -------|
D|5-----------------------5------|-------------------------------|
A|------------5------------------|7-----------------------7------|
E|-------------------------------|------------7------------------|

          sha la  la  la  la  la  la

G|------- ------- ------- -------|------- ------- ------- -------|
D|5-----------------------5------|-------------------------------|
A|------------5------------------|7-----------------------7------|
E|-------------------------------|------------7------------------|

          sha la  la  la  la  la  la

G|------- ------- ------- -------|------- ------- ------- -------|
D|5-----------------------5------|-------------------------------|
A|------------5------------------|7------------------------------|
E|-------------------------------|-------------------------------|

          sha la  la  la  la  la  la              sha la  la  la
Verse:
G|------- ------- ------- -------|------- ------- ------- -------|
D|------------5-----------5------|------------5-----------5------|
A|3---------------------------2--|3---------------------------5--|
E|-------------------------------|-------------------------------|
          It's    way you smile,              that touched my
             not the
  la
G|------- ------- ------- -------|------- ------- ------- -------|
D|5-----------5---------------4--|5-----------5-----------5------|
A|------------------------5------|-------------------------------|
E|-------------------------------|-------------------------------|
  heart,
                                                  sha la  la  la

G|------- ------- ------- -------|------- ------- ------- -------|
D|------------5-----------5------|------------5-----------5------|
A|3---------------------------2--|3---------------------------5--|
E|-------------------------------|-------------------------------|
          It's    way you kiss,               that tears  me  a-
             not the
  la
G|------- ------- ------- -------|------- ------- ------- -------|
D|5---------------------------4--|5-----------5-----------5---4--|
A|------------5-----------5------|--------------------5----------|
E|-------------------------------|-------------------------------|
  part                                            Wo- oh,


G|------- ------- ------- -------|------- ------- ------- -------|
D|-------------------------------|-------------------------------|
A|7-----------7---------------5--|7-----------7-----------7------|
E|------------------------7------|-------------------------------|
          many, many,        many nights go   by,
  Ooooooooooooooooooooooooooooooooooooooooooooooooooooooooooooooo

G|------- ------- ------- -------|------- ------- ------- -------|
D|7-----------7---------------5--|7-----------7-----------7------|
A|------------------------7------|----------------------------5--|
E|-------------------------------|-------------------------------|
      I   sit a - lone       at  home and I cry          o - ver
  ooooooooooooooooooooooooooooooooooooooooooooooooooooooooooooooo

G|------- ------- ------- -------|------- ------- ------- -------|
D|5-----------5-----------5---4--|-------------------------------|
A|--------------------5----------|7-----------7-----------7------|
E|-------------------------------|-------------------------------|
  you,                what can I  do?


G|------- ------- ------- -------|------- ------- ------- -------|
D|------------5------------------|------------7-----------7------|
A|3-----------------------3------|5------------------------------|
E|-------------------------------|-------------------------------|
          Can't   help    my      self,
  Aaaaaaaaaaaaaaaaaaaaaaaaaaaaaaaaaaaaaaaaaaaaaaaaaaaaaaaaaaaaaaa

G|------- ------- ------- -------|------- ------- ------- -------|
D|-------------------------------|5-----------------------5---4--|
A|5------------------------------|------------5------------------|
E|-------------------------------|-------------------------------|
              cause baby,    it's you
  aa                                      sha la  la  la  la  la

G|------- ------- ------- -------|------- ------- ------- -------|
D|-------------------------------|5-----------------------5------|
A|7-----------------------7------|------------5------------------|
E|------------7------------------|-------------------------------|
                  baby,      it's you
  la                                      sha la  la  la  la  la

G|------- ------- ------- -------|
D|-------------------------------|
A|7-----------------------7------|
E|------------7------------------|

  la              sha la  la  la
Verse:
G|------- ------- ------- -------|------- ------- ------- -------|
D|------------5-----------5------|------------5-----------5------|
A|3---------------------------2--|3---------------------------5--|
E|-------------------------------|-------------------------------|
          You should  what    say                     a - bout
                  hear    they
  la
G|------- ------- ------- -------|------- ------- ------- -------|
D|5-----------5---------------4--|5-----------------------5------|
A|------------------------5------|------------5------------------|
E|-------------------------------|-------------------------------|
  you,            cheat,          cheat!
                                                  sha la  la  la

G|------- ------- ------- -------|------- ------- ------- -------|
D|------------5-----------5------|------------5-----------5------|
A|3---------------------------2--|3---------------------------5--|
E|-------------------------------|-------------------------------|
          They say,   they say    never   never   e - ver     been
                              you've  never
  la
G|------- ------- ------- -------|------- ------- ------- -------|
D|5-----------5---------------4--|5-----------5-----------5---4--|
A|------------------------5------|-------------------------------|
E|-------------------------------|-------------------------------|
  true                                            Wo- oh,
                  cheat,          cheat!

G|------- ------- ------- -------|------- ------- ------- -------|
D|-------------------------------|-------------------------------|
A|7-----------7---------------5--|7-----------7-----------7------|
E|------------------------7------|-------------------------------|
      It  doesn't matter          what they   say,
  Ooooooooooooooooooooooooooooooooooooooooooooooooooooooooooooooo

G|------- ------- ------- -------|------- ------- ------- -------|
D|7-----------7---------------5--|7-----------7-----------7------|
A|------------------------7------|----------------------------5--|
E|-------------------------------|-------------------------------|
      I   know I'm gonna  love you any    old     way, what can I
  ooooooooooooooooooooooooooooooooooooooooooooooooooooooooooooooo

G|------- ------- ------- -------|------- ------- ------- -------|
D|5-----------------------5---4--|-------------------------------|
A|------------5-------5----------|7-----------------------7------|
E|-------------------------------|------------7------------------|
  do,                 when it's true?


G|------- ------- ------- -------|------- ------- ------- -------|
D|------------5------------------|------------7-----------7------|
A|3-----------------------3------|5------------------------------|
E|-------------------------------|-------------------------------|
          Don't   want    no  -   bo- dy,     no- bo- dy,
  Aaaaaaaaaaaaaaaaaaaaaaaaaaaaaaaaaaaaaaaaaaaaaaaaaaaaaaaaaaaaaaa

G|------- ------- ------- -------|------- ------- ------- -------|
D|-------------------------------|5-----------------------5---4--|
A|5------------------------------|------------5------------------|
E|-------------------------------|-------------------------------|
              cause baby,    it's you
  aa                                      sha la  la  la  la  la

G|------- ------- ------- -------|------- ------- ------- -------|
D|-------------------------------|5-----------------------5------|
A|7---------------------------5--|------------5------------------|
E|------------7-----------7------|-------------------------------|
                  baby,      it's you
  la                                      sha la  la  la  la  la

G|------- ------- ------- -------|
D|-------------------------------|
A|7-----------------------7------|
E|------------7------------------|

  la
Verse (half-solo):
G|------- ------- ------- -------|------- ------- ------- -------|
D|------------5------------------|------------7---------------4--|
A|3-----------------------3------|5-------------------5---7------|
E|-------------------------------|-------------------------------|



G|------- ------- ------- -------|------- ------- ------- -------|
D|5---------------------------4--|5------------------------------|
A|------------5-----------5------|------------5------------------|
E|-------------------------------|-------------------------------|



G|------- ------- ------- -------|------- ------- ------- -------|
D|------------5------------------|------------7---------------4--|
A|3-----------------------3---4--|5-------------------5---7------|
E|-------------------------------|-------------------------------|



G|------- ------- ------- -------|------- ------- ------- -------|
D|5---------------------------4--|5-----------5-----------5---4--|
A|------------5-----------5------|--------------------5----------|
E|-------------------------------|-------------------------------|
                                                  Wo- oh,


G|------- ------- ------- -------|------- ------- ------- -------|
D|-------------------------------|-------------------------------|
A|7-----------7---------------5--|7-----------7------------------|
E|------------------------7------|------------------------7------|
      It  doesn't matter          what they   say,
  Ooooooooooooooooooooooooooooooooooooooooooooooooooooooooooooooo

G|------- ------- ------- -------|------- ------- ------- -------|
D|7-----------7---------------5--|7-----------7-----------7------|
A|------------------------7------|----------------------------5--|
E|-------------------------------|-------------------------------|
      I   know I'm gonna  love you any    old     way, what can I
  ooooooooooooooooooooooooooooooooooooooooooooooooooooooooooooooo

G|------- ------- ------- -------|------- ------- ------- -------|
D|5-----------5-----------5---4--|-------------------------------|
A|--------------------5----------|7-----------7-----------7------|
E|-------------------------------|-------------------------------|
  do,                 when it's true?


G|------- ------- ------- -------|------- ------- ------- -------|
D|------------5------------------|------------7-----------7------|
A|3-----------------------3------|5------------------------------|
E|-------------------------------|-------------------------------|
          Don't   want    no  -   bo- dy,     no- bo- dy,
  Aaaaaaaaaaaaaaaaaaaaaaaaaaaaaaaaaaaaaaaaaaaaaaaaaaaaaaaaaaaaaaa

G|------- ------- ------- -------|------- ------- ------- -------|
D|-------------------------------|5-----------------------5---4--|
A|5------------------------------|------------5------------------|
E|-------------------------------|-------------------------------|
              cause baby,    it's you
  aa                                      sha la  la  la  la  la

G|------- ------- ------- -------|------- ------- ------- -------|
D|-------------------------------|5-----------------------5------|
A|7-----------------------7------|------------5------------------|
E|------------7------------------|-------------------------------|
                  baby,      it's you
  la                                      sha la  la  la  la  la

G|------- ------- ------- -------|
D|-------------------------------|
A|7-----------------------5------|
E|------------7------------------|
          Don't   leave me all a-
  la
Outro:
G|------- ------- ------- -------|------- ------- ------- -------|
D|5-----------------------5------|-------------------------------|
A|------------5------------------|7-----------------------7------|
E|-------------------------------|------------7------------------|
  lone!                                               Come on home
          sha la  la  la  la  la  la
fade...


Do You Want To Know A Secret
The Beatles
Written by John Lennon and Paul McCartney; released on "Please Please Me" 
album

This is one of the few (two?) Lennon-McCartney songs in which George sings 
the lead vocal. Paul plays another great bassline.

Intro:
G|-------------------------------------------------|
D|-------------------------------------------------|
A|-------------------------------------------------|
E|-------------------------------------------------|
                      You'll never     how much I
                                 know

G|-------------------------------------------------------|
D|-------------------------------------------------------|
A|-------------------------------------------------------|
E|-------------------------------------------------------|
  really          love    you


G|---------------------------------------------------|
D|---------------------------------------------------|
A|---------------------------------------------------|
E|---------------------------------------------------|
                    You'll  never       how much I
                                know

G|------------------------4------------------------|
D|-------------------------------------------------|
A|-------------------------------------------------|
E|-------------------------------------------------|
  really              care


G|------- ------- ------- -------|
D|-------------------------------|
A|-------------------------------|
E|-------------------------------|


Verse:
G|------- ------- ------- -------|------- ------- 4------ -------|
D|----------------6-------5------|4-----------4-------7---6---4--|
A|7-----------7------------------|-------------------------------|
E|-------------------------------|-------------------------------|
  Listen,                                 do  you want to know a


G|------- ------- ------- -------|------- ------- 4------ -------|
D|----------------6-------5------|4-----------4-------7---6---4--|
A|7-----------7------------------|-------------------------------|
E|-------------------------------|-------------------------------|
  secret,                                 do  you promise not to


G|------- ------- ------- -------|------- ------- 5------ -------|
D|----------------6-------5------|4-----------4------------------|
A|7-----------7------------------|-------------------------------|
E|-------------------------------|-------------------------------|
  tell?                   Wo- a-  o-              oh,


G|------- ------- ------- -------|------- ------- 4------ -------|
D|--------6---9---6-------5------|4-------4-----------7---6---4--|
A|7------------------------------|-------------------------------|
E|-------------------------------|-------------------------------|
  closer,                                 let me  whisper in  your


G|------- ------- ------- -------|------- ------- 4------ -------|
D|----------------6-------5------|4-------4-----------7---6---4--|
A|7-------7----------------------|-------------------------------|
E|-------------------------------|-------------------------------|
  ear,                                    say the words   long to
                                                      you

G|------- ------- ------- -------|------- ------- ------- -------|
D|7-----------7-----------7------|9-----------9-----------9------|
A|-------------------------------|-------------------------------|
E|-------------------------------|-------------------------------|
  hear:                                       I'm     in  love with


G|6------ ------- ------- -------|------- 6---5-- 4------ -------|
D|-------------------------------|4-------------------7---6---4--|
A|----4---4---4---4---4---4---4--|-------------------------------|
E|-------------------------------|-------------------------------|
  you,                o - o - o - o      -        ooh

Verse:
G|------- ------- ------- -------|------- ----6-- 4------ -------|
D|----------------6-------5------|4-------4-----------7---6---4--|
A|7-------7----------------------|-------------------------------|
E|-------------------------------|-------------------------------|
  Listen,                                 do  you want to know a
                  do  -   da  -   do

G|------- ------- ------- -------|------- ------- 4------ -------|
D|----------------6-------5------|4-------4----------------------|
A|7-------7----------------------|----------------------------6--|
E|-------------------------------|------------------------7------|
  secret,                                 do  you promise not to
                  do  -   da  -   do

G|------- ------- ------- -------|------- ------- 5------ 5------|
D|----------------6-------5------|4-------4----------------------|
A|7-------7----------------------|-------------------------------|
E|-------------------------------|-------------------------------|
  tell?                   Wo- a-  o-              oh,
                  do  -   da  -   do

G|------- ------- ------- -------|------- ------- 4------ 4------|
D|--------6---9---6-------5------|4------------------------------|
A|7------------------------------|-------------------------------|
E|-------------------------------|-------------------------------|
  closer,                                 let me  whisper in  your
                  do  -   da  -   do

G|------- ------- ------- -------|------- ------- 4------ -------|
D|--------6---9---6-------5------|4-------4-----------7---6------|
A|7------------------------------|----------------------------7--|
E|-------------------------------|-------------------------------|
  ear,                                    say the words   long to
                                                      you
                  do  -   da  -   do
G|------- ------- ------- -------|------- ------- ------- -------|
D|7-----------7-----------6---7--|9-----------9-----------9------|
A|-------------------------------|-------------------------------|
E|-------------------------------|-------------------------------|
  hear:                                       I'm     in  love with


G|6------ ------- ------- -------|------- ----6-- 5---4-- -------|
D|-------------------------------|4-------4---------------7---4--|
A|----4---4---4---4---4---4---4--|-------------------------------|
E|-------------------------------|-------------------------------|
  you,                    o - o - o      -        ooh

Bridge:
G|------- ------- ------- -------|6------ ----6-- 4------ -------|
D|7-----------6---4-------4------|-------------------------------|
A|-------------------------------|-------------------------------|
E|-------------------------------|-------------------------------|
  I've    known a secret  for a   week or     two,


G|------- ------- ------- -------|6------ ----6-- 4------ ----4--|
D|7-------6-------4-------4------|-------------------------------|
A|-------------------------------|-------------------------------|
E|-------------------------------|-------------------------------|
  No  -   bo- dy  knows,          just    we      two


G|------- ------- ------- -------|4---4-- ------- ------- -------|
D|4-----------4---4-----------4--|--------7---7---6---6---4------|
A|-------------------------------|-------------------------------|
E|-------------------------------|----------------------------7--|


Verse:
G|------- ------- ------- -------|------- ----6-- 4------ -------|
D|--------6---9---6-------5------|4-------------------7---6---4--|
A|7------------------------------|-------------------------------|
E|-------------------------------|-------------------------------|
  Listen,                                 do  you want to know a
                  do  -   da  -   do

G|------- ------- ------- -------|------- ------- 4------ -------|
D|--------6---9---6-------5------|4-----------4-------7---6---4--|
A|7------------------------------|-------------------------------|
E|-------------------------------|-------------------------------|
  secret,                                 do  you promise not to
                  do  -   da  -   do

G|------- ------- ------- -------|------- ------- 5------ 5------|
D|--------6---9---6-------5------|4-----------4------------------|
A|7------------------------------|-------------------------------|
E|-------------------------------|----------------------------7--|
  tell?                   Wo- a-  o-              oh,
                  do  -   da  -   do

G|------- ------- ------- -------|------- ------- 4------ -------|
D|--------6---9---6-------5------|4-------4-----------7---6---4--|
A|7------------------------------|-------------------------------|
E|-------------------------------|-------------------------------|
  closer,                                 let me  whisper in  your
                  do  -   da  -   do

G|------- ------- ------- -------|------- ------- 4------ -------|
D|--------6---9---6-------5------|4-------4-----------7---6------|
A|7------------------------------|----------------------------7--|
E|-------------------------------|-------------------------------|
  ear,                                    say the words   long to
                                                      you
                  do  -   da  -   do
G|------- ------- ------- -------|------- ------- ------- -------|
D|7---7---7---6---7---6---7---7--|9---9---9---9---9---7---6---4--|
A|-------------------------------|-------------------------------|
E|-------------------------------|-------------------------------|
  hear:                                       I'm     in  love with


G|4/6---- 4/6---- 4/6---- 4/6----|------- 6---5-- 4------ -------|
D|-------------------------------|4-------------------7---6---4--|
A|-------------------------------|-------------------------------|
E|-------------------------------|-------------------------------|
  you,                o - o - o - o      -        o-

Outro:
G|6------ ------- ------- -------|------- 6---5-- 4------ -------|
D|-------------------------------|4-------------------7---6---4--|
A|----4---4---4---4---4---4---4--|-------------------------------|
E|-------------------------------|-------------------------------|
  ooh                     o - o - o      -        o-...
repeat and fade...


A Taste Of Honey
The Beatles
Written by Bobby Scott and Ric Marlow; released on "Please Please Me" album

A great one, the first song that the Beatles played (as I know) which is 
both in 3/4 and 4/4 time. And just listen to the F# Major chord on the end, 
I think it's wonderful. I think this inspired the ending of "And I Love Her"

3/4 time
Intro:
G|--------------------------|------ ------ ------|------ ------ ------|
D|4-------------------------|--------------------|--------------------|
A|--------------------------|--------------------|--------------------|
E|--------------------------|--------------------|5-------------------|
                    A taste  honey,               tasting       much
                          of

G|------------------------|------ ------ ------|------ ------ ------|
D|------------------------|4-------------------|4-------------------|
A|7-----------------------|--------------4-----|--------------4-----|
E|------------------------|--------------------|--------------------|
  sweeter           than   wine
                                      do do  n  do

G|------ ------ ------|------ ------ ------|
D|4-------------------|4-------------------|
A|--------------4-----|--------------4-----|
E|--------------------|--------------------|
                                     I
             do do  n  do
Verse:
G|------ ------ ------|------ ------ ------|------ ------ ------|
D|4-------------------|4-------------------|4-------------------|
A|--------------------|--------------------|--------------------|
E|--------------------|--------------------|--------------------|
  dream         of     your          first  kiss,         and


G|------ ------ ------|------ ------ ------|------ ------ ------|
D|--------------------|4-------------------|4-------------------|
A|--------------------|--------------------|--------------------|
E|7-------------------|--------------------|--------------------|
  then,         I      feel          up  -  on            my


G|------ ------ ------|------ ------ ------|------ ------ ------|
D|4-------------------|--------------------|4-------------------|
A|--------------------|--------------------|--------------4-----|
E|--------------------|7-------------------|--------------------|
  lips          a  -   gain          A taste honey
                                         of
                                                          A taste of
G|------ ------ ------|------ ------ ------|------ ------ ------|
D|4-------------------|--------------------|--------------------|
A|--------------------|--------------------|7-------------------|
E|--------------------|5-------------------|--------------------|
                       tasting       much   sweeter       than
honey

G|------ ------ ------|------ ------ ------|------ ------ ------|
D|4-------------------|4-------------------|4-------------------|
A|--------------------|--------------4-----|--------------------|
E|-----------7--7---7-|--------------------|-----------7--7---7-|
  wine


G|------ ------ ------|
D|4-------------------|
A|--------------------|
E|--------------------|
             Woah,  will
4/4 time        I
Bridge:
G|------ ------ ------ ------|------ ------ ------ ------|
D|4--------------------------|---------------------------|
A|-------7------5------4-----|--------------9------6-----|
E|---------------------------|7------7-----------------7-|
                    re   -    turn,             yes,   I


G|------ ------ ------ ------|------ ------ ------ ------|
D|4------4-------------------|---------------------------|
A|-----------7--5------4-----|--------------9------------|
E|---------------------------|7------7-------------7-----|
                will   re- turn,                I'll come


G|------ ------ ------ ------|------ ------ ------ ------|
D|---------------------------|---------------------------|
A|--------------7------------|7------7-------------7-----|
E|5------5-------------5-----|--------------7------------|
  back              for    the honey               and

3/4 time
G|------ ------ ------|------ ------ ------|------ ------ ------|
D|4-------------------|4-------------------|4-------------------|
A|--------------4-----|--------------4-----|--------------4-----|
E|--------------------|--------------------|--------------------|
  you
             do do  n  do                              do do  n

G|------ ------ ------|
D|4-------------------|
A|--------------4-----|
E|--------------------|
                Yours
  do
Verse:
G|------ ------ ------|------ ------ ------|------ ------ ------|
D|4-------------------|4-------------------|4-------------------|
A|--------------------|--------------------|--------------------|
E|--------------------|--------------------|--------------------|
  was           the    kiss           that awoke          my


G|------ ------ ------|------ ------ ------|------ ------ ------|
D|--------------------|4-------------------|4-------------------|
A|--------------------|--------------------|--------------------|
E|7-------------------|--------------------|--------------------|
  heart,        There  lin    -      gers   still,        though
                                                              we're

G|------ ------ ------|------ ------ ------|------ ------ ------|
D|4-------------------|--------------------|4-------------------|
A|--------------------|--------------------|--------------4-----|
E|--------------------|7-------------------|--------------------|
  far           a  -   part        The taste honey
                                         of
                                                          A taste of
G|------ ------ ------|------ ------ ------|------ ------ ------|
D|4-------------------|--------------------|--------------------|
A|--------------------|--------------------|7-------------------|
E|--------------------|5-------------------|--------------------|
                       tasting       much   sweeter       than
honey

G|------ ------ ------|------ ------ ------|------ ------ ------|
D|4-------------------|4-------------------|4-------------------|
A|--------------------|--------------4-----|--------------------|
E|-----------7--7---7-|--------------------|-----------7--7---7-|
  wine


G|------ ------ ------|
D|4-------------------|
A|--------------------|
E|--------------------|
             Woah,  will
4/4 time        I
Bridge:
G|------ ------ ------ ------|------ ------ ------ ------|
D|4--------------------------|---------------------------|
A|-------7------5------4-----|-------6------9------6-----|
E|---------------------------|7--------------------------|
                    re   -    turn,             yes,   I


G|------ ------ ------ ------|------ ------ ------ ------|
D|4--------------------------|---------------------------|
A|-------7------5------4-----|--------------9------------|
E|---------------------------|7------7-------------7-----|
                will   re- turn,                I'll come


G|-----------------------------------------------------|
D|-----------------------------------------------------|
A|-----------------------------------------------------|
E|5----------------------------------------------------|
  back                                   for    the
                he'll  come   back

G|-------------------------------------------------------|
D|-------------------------------------------------------|
A|7------------------------------------------------------|
E|-------------------------------------------------------|
  honey,                                           and
                for    the    honey

G|------ ------ ------|------ ------ ------|------ ------ ------|
D|4-------------------|4-------------------|4-------------------|
A|--------------------|--------------------|--------------------|
E|--------------7-----|--------------7-----|--------------7-----|
  you!


G|------ ------ ------|------ ------ ------|------ ------ ------|
D|4-------------------|--------------------|--------------------|
A|--------------------|--------------------|--------------------|
E|--------------------|--------------------|--------------------|


There's A Place
The Beatles
Written by John Lennon and Paul McCartney; released on "Please Please Me" 
album

This is my favourite song on their first album "Please Please Me"; I 
especially like the lyrics. :-)

Intro:
G|------- ------- ------- -------|------- ------- ------- -------|
D|-------------------------------|-------------------------------|
A|-------------------------------|-------------------------------|
E|-------------------------------|------------------------7------|



G|------- ------- ------- -------|------- ------- ------- -------|
D|-------------------------------|7-------7---7---7-----------7--|
A|7-------7---7---7-------7---7--|-------------------------------|
E|-------------------------------|-------------------------------|



G|------- ------- ------- -------|------- ------- ------- -------|
D|-------------------------------|7------------------------------|
A|7-------7---7---7-------7---7--|-------------------------------|
E|-------------------------------|-------------------------------|
                                                  There


G|------- ------- ------- -------|
D|-------------------------------|
A|-------------------------------|
E|-------------------------------|
                  is      a

Verse:
G|------- ------- ------- -------|------- ------- ------- -------|
D|-------------------------------|7-----------7---7--------------|
A|7-----------7---7--------------|-------------------------------|
E|-------------------------------|-------------------------------|
  place,                                      where I     can


G|------- ------- ------- -------|------- ------- ------- -------|
D|-------------------------------|7-----------7---7--------------|
A|7-----------7---7--------------|-------------------------------|
E|-------------------------------|-------------------------------|
  go                                          when I      feel


G|------- ------- ------- -------|------- ------- ------- -------|
D|-------------------------------|-------------------------------|
A|7-----------7---7--------------|-------------------------------|
E|-------------------------------|9-----------9---9--------------|
  low,                                        when I      feel


G|------- ------- ------- -------|------- ------- ------- -------|
D|-------------------------------|----------------6----7-----9---|
A|-------------------------------|-------------------------------|
E|7-----------7---7--------------|7------------------------------|
  blue                                            And  it's  my


G|------- ------- ------- -------|------- ------- ------- -------|
D|6-----------6---6--------------|7-----------7---7--------------|
A|-------------------------------|-------------------------------|
E|-------------------------------|-------------------------------|
  mind,                                           and there's no


G|------- ------- ------- -------|------- ------- ------- -------|
D|-------------------------------|7-----------7------------------|
A|7-----------7---7--------------|----------------9-----------9--|
E|-------------------------------|-------------------------------|
  time                                        when I'm    a-


G|------- ------- ------- -------|------- ------- ------- -------|
D|-------------------------------|-------------------------------|
A|-------------------------------|-------------------------------|
E|9-----------9---9-----------9--|9------------------------------|
  lone                                            I


G|------- ------- ------- -------|
D|-------------------------------|
A|-------------------------------|
E|-------------------------------|
                  think   of

Verse:
G|------- ------- ------- -------|------- ------- ------- -------|
D|-------------------------------|7-----------7---7--------------|
A|7-----------7---7--------------|-------------------------------|
E|-------------------------------|-------------------------------|
  you,                                        and things  you


G|------- ------- ------- -------|------- ------- ------- -------|
D|-------------------------------|7-----------7---7--------------|
A|7-----------7---7--------------|-------------------------------|
E|-------------------------------|-------------------------------|
  do,                                         go  round   my


G|------- ------- ------- -------|------- ------- ------- -------|
D|-------------------------------|-------------------------------|
A|7-----------7---7--------------|-------------------------------|
E|-------------------------------|9-----------9---9--------------|
  head                                        the things  you


G|------- ------- ------- -------|------- ------- ------- -------|
D|-------------------------------|-------------------------------|
A|-------------------------------|-------------------------------|
E|7-----------7---7--------------|7-----------7---7--------------|
  said                                            Like   "I


G|------- ------- ------- -------|------- ------- ------- -------|
D|7-----------7---7--------------|7-----------7---7--------------|
A|-------------------------------|-------------------------------|
E|-------------------------------|-------------------------------|
  love                                            on     -    ly
  Aaaaaaaaaaaaaaaaaaaaaaaaaaaaaaaaaaaaaaaaaaaaaaaaaaaaaaaaaaaaaaa

G|------- ------- ------- -------|------- ------- ------- -------|
D|9-----------9---9--------------|9------------------------------|
A|-------------------------------|--------6-------9-------6------|
E|-------------------------------|-------------------------------|
  you!"
  aaaaaaaaaaaaaaaaaaaaaaaaaaaaaaaaaaaaaaaaaaaaaaaaaaaaaaaaaaaaaaa
Bridge:
G|------- ------- ------- -------|------- ------- ------- -------|
D|-------------------------------|-------------------------------|
A|-------------------------------|9-----------9---9--------------|
E|9-----------9---9--------------|------------------------7------|
          In  my  mind    there's no      sorrow,


G|------- ------- ------- -------|------- ------- ------- -------|
D|-------------------------------|6-----------6---6--------------|
A|7-----------7-----------7------|-------------------------------|
E|----------------7--------------|-------------------------------|
          don't   know    that    so?
              you             it's

G|------- ------- ------- -------|------- ------- ------- -------|
D|-------------------------------|-------------------------------|
A|-------------------------------|9-----------9---9--------------|
E|9-----------9---9--------------|------------------------7------|
          There'll        sad     to  -   morrow
              be  no

G|------- ------- ------- -------|------- ------- ------- -------|
D|-------------------------------|6-----------6---6--------------|
A|7-----------7-----------7------|-------------------------------|
E|----------------7--------------|-------------------------------|
          don't   know    that    so?
              you             it's

G|------- ------- ------- -------|------- ------- ------- -------|
D|-------------------------------|-------------------------------|
A|-------------------------------|-------------------------------|
E|9------------------------------|-------------------------------|
                  There                           is      a

Verse:
G|------- ------- ------- -------|------- ------- ------- -------|
D|-------------------------------|7-----------7---7--------------|
A|7-----------7---7--------------|-------------------------------|
E|-------------------------------|-------------------------------|
  place,                                      where I     can


G|------- ------- ------- -------|------- ------- ------- -------|
D|-------------------------------|7-----------7---7--------------|
A|7-----------7---7--------------|-------------------------------|
E|-------------------------------|-------------------------------|
  go                                          when I      feel


G|------- ------- ------- -------|------- ------- ------- -------|
D|-------------------------------|-------------------------------|
A|7-----------7---7--------------|-------------------------------|
E|-------------------------------|9-----------9---9--------------|
  low,                                        when I      feel


G|------- ------- ------- -------|------- ------- ------- -------|
D|-------------------------------|----------------6----7-----9---|
A|-------------------------------|-------------------------------|
E|7-----------7---7--------------|7------------------------------|
  blue                                            And  it's  my


G|------- ------- ------- -------|------- ------- ------- -------|
D|6-----------6---6--------------|7-----------7---7--------------|
A|-------------------------------|-------------------------------|
E|-------------------------------|-------------------------------|
  mind,                                           and there's no


G|------- ------- ------- -------|------- ------- ------- -------|
D|-------------------------------|7-----------7------------------|
A|7-----------7---7--------------|----------------9-----------9--|
E|-------------------------------|-------------------------------|
  time                                        when I'm    a-


G|------- ------- ------- -------|------- ------- ------- -------|
D|-------------------------------|-------------------------------|
A|-------------------------------|-------------------------------|
E|9-----------9---9-----------9--|9------------------------------|
  lone                                            There's a

Outro:
G|------- ------- ------- -------|------- ------- ------- -------|
D|-------------------------------|7-----------7---7--------------|
A|7-----------7---7--------------|-------------------------------|
E|-------------------------------|-------------------------------|
  place                                           There's a...
repeat and fade...


Twist And Shout
The Beatles
Written by Phil Medley and Bert Russel; released on "Please Please Me" album.

This song is reminiscent to "La Bamba"; only the same three chords repeated 
endlessly. The Beatles made significant changes to the song, just listen to 
the Isley Brothers' original version.

Intro:
G|------- ------- ------- -------|------- ------- ------- -------|
D|-------------------------------|-------------------------------|
A|-------------------------------|----------------------------4--|
E|-------------------------------|--------------------5---7------|



G|------- ------- ----4-- -------|------- ------- ------- -------|
D|--------4-------5-------5---7--|----7---7---7---7---5---4------|
A|5-----------5------------------|----------------------------7--|
E|-------------------------------|5------------------------------|



G|------- ------- ----4-- -------|------- ------- ------- -------|
D|--------4-------5-------5---7--|----7---7---7---7---7---7---7--|
A|5-----------5------------------|-------------------------------|
E|-------------------------------|5------------------------------|
                                              Well,   it  up, ba-
                                                  shake
Verse:
G|------- ------- ------- 4------|------- ------- ------- -------|
D|--------4---7---5-----------5--|7---7-----------7---5---4------|
A|5------------------------------|--------4---7---------------7--|
E|-------------------------------|-------------------------------|
      by  now                                     twist   and
                  shake it up ba  -   by

G|------- ------- ------- 4------|------- ------- ------- -------|
D|--------4---7---5-----------5--|7---7-----------7---7---5---4--|
A|5------------------------------|--------4---7------------------|
E|-------------------------------|-------------------------------|
  shout                               Come    come    come  come
                                        on,     on,     on,   on
                  twist and   shout
G|------- ------- ------- 4------|------- ------- ------- -------|
D|--------4---7---5-----------5--|7---7-----------7---7---5---4--|
A|5------------------------------|--------4---7------------------|
E|-------------------------------|-------------------------------|
  ba- by      now                     come on and work it on  out
                  come on     ba  -   by

G|------- ------- ------- 4------|------- ------- ------- -------|
D|--------4---7---5-----------5--|7---7---7---7---7---7---5---4--|
A|5------------------------------|-------------------------------|
E|-------------------------------|-------------------------------|
                                      Well,       work it on  out,
                  work it on  out,    ooh

G|------- ------- ------- 4------|------- ------- ------- -------|
D|--------4---7---5-----------5--|7---7-----------7---5---4------|
A|5------------------------------|--------4---7---------------7--|
E|-------------------------------|-------------------------------|
              ho  -   ney             you know you look   so
                  work it on  out

G|------- ------- ------- 4------|------- ------- ------- -------|
D|--------4---7---5---5-------5--|7---7---7---7---7---7---5---4--|
A|5---5--------------------------|-------------------------------|
E|-------------------------------|-------------------------------|
  good                                You know you got    me
                  look so     good

G|------- ------- ------- 4------|------- ------- ------- -------|
D|--------4---7---5---5-------5--|7---7-----------7---5---4------|
A|5------------------------------|--------4---7---------------7--|
E|-------------------------------|-------------------------------|
  going       now                     just like I knew    you would
                  got me      go   -  ing

G|------- ------- ------- 4------|------- ------- ------- -------|
D|--------4---7---5-----------5--|7---7---7---7---7---7---7---4--|
A|5------------------------------|-------------------------------|
E|-------------------------------|-------------------------------|
                                              Well,   it  up, ba-
                                                  shake
Verse:    like I  knew you    would,  ooh
G|------- ------- ------- 4------|------- ------- ------- -------|
D|--------4---7---5-----------5--|7---7-----------7---7---5---4--|
A|5------------------------------|--------4---7------------------|
E|-------------------------------|-------------------------------|
      by  now                                     twist   and
                  shake it up ba  -   by

G|------- ------- ------- 4------|------- ------- ------- -------|
D|--------4---7---5-----------5--|7---7-----------7---5---4------|
A|5------------------------------|--------4---7---------------7--|
E|-------------------------------|-------------------------------|
  shout                               Come    come    come  come
                                        on,     on,     on,   on
                  twist and   shout
G|------- ------- ------- 4------|------- ------- ------- -------|
D|--------4---7---5-----------5--|7---7-----------7---5---4------|
A|5---5--------------------------|--------4---7---------------7--|
E|-------------------------------|-------------------------------|
  ba- by      now                     come on and work it on  out
                  come on     ba  -   by

G|------- ------- ------- 4------|------- ------- ------- -------|
D|--------4---7---5-----------5--|7---7---7---7---7---7---7---4--|
A|5------------------------------|-------------------------------|
E|-------------------------------|-------------------------------|
                                      You know you twist, little girl,
                  work it on  out,    ooh

G|------- ------- ------- 4------|------- ------- ------- -------|
D|--------4---7---5-----------5--|7-----------------------7------|
A|5------------------------------|--------4-------7--------------|
E|-------------------------------|----5--------------------------|
                                      you know you twist  so
                  twist, little girl

G|------- ------- ------- 4------|------- ------- ------- -------|
D|--------4---7---5-----------5--|7---7-----------7---7---5---4--|
A|5------------------------------|--------4---7------------------|
E|-------------------------------|-------------------------------|
  fine                                Come on and twist a little
                  twist so    fine

G|------- ------- ------- 4------|------- ------- ------- -------|
D|--------4---7---5-----------5--|7---7-----------7---7---5---4--|
A|5------------------------------|--------4---7------------------|
E|-------------------------------|-------------------------------|
  closer      now                     and let me  know    that you're
                  twist a little closer

G|------- ------- ------- 4------|------- ------- ------- -------|
D|--------4---7---5-----------5--|7---7---7---7---7---7---7---7--|
A|5------------------------------|-------------------------------|
E|-------------------------------|-------------------------------|
  mine
          let me  know you're mine,   ooh
Bridge (half-solo):
G|------- ------- ----4-- -------|------- ------- ------- -------|
D|----------------5-------5---7--|----7-------7---5---5---4---4--|
A|5-------5---5------------------|-------------------------------|
E|-------------------------------|5-------5----------------------|



G|------- ------- ----4-- -------|------- ------- ------- -------|
D|----------------5-------5---7--|7---------------7---5---4------|
A|5---5---5---5------------------|--------4---7---------------7--|
E|-------------------------------|----5--------------------------|



G|------- ------- ----4-- -------|------- ------- ------- -------|
D|--------4-------5-------5---7--|----7-------7---5-------4---4--|
A|5---5-------5------------------|-------------------------------|
E|-------------------------------|5------------------------------|



G|------- ------- ----4-- -------|------- ------- ------- -------|
D|--------4-------5-------5---5--|7-------7------/7---/7----/7---|
A|5-----------5------------------|-------------------------------|
E|-------------------------------|----5--------------------------|



G|------- ------- ------- -------|------- ------- ------- -------|
D|--------7-----------7----------|7---7---7---7---7---7---7---7--|
A|-------------------------------|-------------------------------|
E|5---5-------5---5-------5---5--|-------------------------------|
  Aaaaaaaaaaaaaaaaaaaaaaaaaaaaaaaaaaaaaaaaaaaaaaaaaaaaaaaaaaaaaaa


G|------- ------- ------- -------|------- ------- ------- -------|
D|7---7---7---7---7---7---7---7--|7---7---7---7---7---7---7---7--|
A|-------------------------------|-------------------------------|
E|-------------------------------|-------------------------------|
  aaaaaaaaaaaaaaaaaaaaaaaaaaaaaaaaaaaaaaaaaaaaaaaaaaaaaaaaaaaaaaa


G|------- ------- ------- -------|------- ------- ------- -------|
D|7---7---7---7---7---7---7---7--|7---7---7---7---7---5---4------|
A|-------------------------------|----------------------------7--|
E|-------------------------------|-------------------------------|
  Wow,        yeah,                                           ba-
  aaaaaaaaaaaaaaaaaaaaaaaaaaaaaaaaaaaaaaaaaaaaaaaaaaaaaaaaaaaaaaa
Verse:
G|------- ------- ------- 4------|------- ------- ------- -------|
D|--------4---7---5---5-------5--|7---7-----------7---5---4------|
A|5------------------------------|--------4---7---------------7--|
E|-------------------------------|-------------------------------|
      by  now                                     twist   and
                  shake it up ba  -   by

G|------- ------- ------- 4------|------- ------- ------- -------|
D|--------4---7---5---5-------5--|7---7---7---7---7---7---7---4--|
A|5---5--------------------------|-------------------------------|
E|-------------------------------|-------------------------------|
  shout                               Come    come    come  come
                                        on,     on,     on,   on
                  twist and   shout
G|------- ------- ------- 4------|------- ------- ------- -------|
D|--------4---7---5---5-------5--|7---------------7---5---4------|
A|5------------------------------|--------4---7---------------7--|
E|-------------------------------|----5--------------------------|
  ba- by      now                     come on and work it on  out
                  come on     ba  -   by

G|------- ------- ------- 4------|------- ------- ------- -------|
D|--------4---7---5---5-------5--|7---7---7---7---7---7---7---4--|
A|5---5--------------------------|-------------------------------|
E|-------------------------------|-------------------------------|
                                      You know you twist, little girl,
                  work it on  out,    ooh

G|------- ------- ------- 4------|------- ------- ------- -------|
D|--------4---7---5---5-------5--|7-------7-------7-------5---4--|
A|5------------------------------|-------------------------------|
E|-------------------------------|--------------------5----------|
                                      you know you twist  so
                  twist, little girl

G|------- ------- ------- 4------|------- ------- ------- -------|
D|--------4---7---5---5-------5--|7---------------7-------5---4--|
A|5------------------------------|-------------------------------|
E|-------------------------------|--------5----------------------|
  fine                                Come on and twist a little
                  twist so    fine

G|------- ------- ------- 4------|------- ------- ------- -------|
D|--------4---7---5---5-------5--|7---------------7-------5------|
A|5------------------------------|-------------------------------|
E|-------------------------------|--------5----------------------|
  closer      now                     and let me  know    that you're
                  twist a little closer

G|------- ------- ------- 4------|------- ------- ------- -------|
D|--------4---7---5-----------5--|7-------7-------7-------7---4--|
A|5------------------------------|-------------------------------|
E|-------------------------------|----5-------5-------5----------|
  mine                                Well,   it, shake   shake
                                          shake       it,     it,
Outro:    let me  know you're mine,   ooh
G|------- ------- ------- 4------|------- ------- ------- -------|
D|--------4---7---5---5-------5--|7---------------7---5---4------|
A|5---5--------------------------|----------------------------7--|
E|-------------------------------|----5---5---5------------------|
  ba- by      now                     Well,   it, shake   shake
                                          shake       it,     it,
                  shake it up ba  -   by
G|------- ------- ------- 4------|------- ------- ------- -------|
D|--------4---7---5---5-------5--|7---------------7---7---5---4--|
A|5---5--------------------------|-------------------------------|
E|-------------------------------|----5---5---5------------------|
  ba- by      now                     Well,   it, shake   shake
                                          shake       it,     it,
                  shake it up ba  -   by
G|------- ------- ------- 4------|------- ------- ------- -------|
D|--------4---7---5-----------5--|7---------------7---5---4------|
A|5------------------------------|--------4---7---------------5--|
E|-------------------------------|-------------------------------|
  ba- by      now
                  shake it up ba  -   by

G|------- ------- ------- -------|------- ------- ------- -------|
D|7-----------7-----------7------|7-----------7-----------7------|
A|-------------------------------|-------------------------------|
E|-------------------------------|-------------------------------|
  Aaaaaaaaaaaaaaaaaaaaaaaaaaaaaaaaaaaaaaaaaaaaaaaaaaaaaaaaaaaaaaa


G|------- ------- ------- -------|------- ------- ------- -------|
D|7-----------7-----------7------|7------------------------------|
A|-------------------------------|-------------------------------|
E|-------------------------------|-----5-----6----7----8-----9---|
  aaaaaaaaaaaaaaaaaaaaaaaaaaaaaaaaa


G|------- ------- ------- -------|------- ------- ------- -------|
D|-------------------------------|-------------------------------|
A|-------------------------------|-------------------------------|
E|10--------------10-------------|-------------------------------|

comments
We did not receive enough feedback on this tab! Please rate:
print report bad tab
1 2 3 4 5
I want to post or [tab]
guest
You may want to rate the tab now too:
select rating
Please do not post tabs as comments. Select "correction" instead!