Oops, an error
Loading. Please wait.

Please Please Me Tab

ver1
ver1

Album

Whole song

Interactive

More versions @911Tabs.com
89,733 views 84 this week
no commentswrite comment
1 2 3 4 5
accurate
x 4
Autoscroll
+/-
esc
set tempo
stop
Contributor
Hey! There's an official Ultimate Guitar app which is ideal
for learning songs when you're away from computer. Get the app
WARNING: You are trying to view
                                    content from Ultimate-Guitar.com
                                    in an unauthorized application,
                                    which is prohibited.

                                    Please use an official Ultimate
                                    Guitar Tabs application for iPhone,
                                    iPad or Android to access legitimate
                                    chords, guitar, bass, and drum tabs
                                    from Ultimate-Guitar.com database.

                                    Type "ultimate guitar tabs" in Apple
                                    App Store's or Android Market's
                                    search to find the application.
PLEASE PLEASE ME 
ALBUM

1)	I saw her standing there
2)	Misery
3)	Anna (go to him)
4)	Chains
5)	Boys
6)	Ask me why
7)	Please please me
8)	Love me do
9)	P.S I love you
10)	Baby it's you
11)	Do you want to know a secret
12)	A taste of honey
13)	There's a place
14)	Twist and shout
____________________________________________________________________________________________________________________________________________________________________________________________________________________________________________________

  I Saw Her Standing There
							Lennon/McCartney

              A			     D7		 A
Well she was just seventeen, if you know what I mean,
					  E7
And the way she looked was way beyond compare,
    A           A7	    D       F          A	E7	 A
So how could I dance with another,     when I saw her standing there.

      A                    D7	       A
Well she looked at me, and I, I could see, 
                                           E7
That before too long I'd fall in love with her.
 A            A7          D       F          A	      E7       A
She wouldn't dance with another,     when I saw her standing there.

         D7
Well my heart went boom when I crossed that room,
			E         D
And I held her hand in mine...

          A			          D7       	  A
Well we danced through the night, and we held each other tight,
                                         E7
And before too long I fell in love with her.
     A          A7          D       F           A        E7       A
Now I'll never dance with another,     since I saw her standing there.



[Instrumental same as verse]



         D7
Well my heart went boom when I crossed that room,
			E         D
And I held her hand in mine...

          A			          D7       	  A
Well we danced through the night, and we held each other tight,
                                         E7
And before too long I fell in love with her.
     A          A7          D       F           A        E7       A
Now I'll never dance with another,     since I saw her standing there.
         A        E7       A
Since I saw her standing there.
         A        E7       A
Since I saw her standing there.


____________________________________________________________________________________________________________________________________________________________________________________________________________________________________________________


Misery
{st:The Beatles}

{c:Intro:}
{sot}

    F                             G    C          Am       G
-|--1----------------------------------0--0--0----0--------3---
-|--1----------------------------------1--1--1----1--------0---
-|--2----------------------------------0--0--0----2--------0---
-|--3----------------------------------2--2--2----2--------0---
-|--3----------------------------------3--3--3----0-----0--2---
-|--1----------------0----1---2---3------------------3-----3---
       The world is treat-ing me bad   Mi-se-ry
{eot}

{c:Verse:}
I[C]'m the kind of g[F]uy    who ne[C]ver used to c[F]ry
The wo[F]rld is treating me b[G]ad    mi[C]sery   [A]
I've l[C]ost her now for s[F]ure    I w[C]on't see her no m[F]ore
It's go[F]nna be a d[G]rag       mi[C]sery

{c:Middle:}
I[Am]'ll remember all the little th[C]ings she's done
{sot}

-|-----------------------------   (piano on the released version...
-|-----------------------------   this was a guitar part in many
-|-----------------------------   early recordings.  Also, this riff
-|--5--3--2--------------------   was repeated over the lyrics 
-|-----------5--3--2-----------   "lonely one" in some early recordings 
-|--------------------5--3-----   I've heard)
{eot}

Sh[Am]e'll remember and she'll miss her o[G]nly one   lon[G7]ely one

{c:Verse:}
S[C]end her back to [F]me   'Cos ev[C]eryone can s[F]ee 
Wit[F]hout her I will [G]be   in mi[C]sery

{c:Repeat from middle}

{c:Ending:}
Wit[F]hout her I will [G]be   in m[C]isery ([Am]oh)      
My mi[C]sery ([Am]la la la la la la)   m[C]isery   [Am]   


____________________________________________________________________________________________________________________________________________________________________________________________________________________________________________________

          Anna (Go To Him)
         (Lennon/McCartney)


Intro (play twice... also play over D-Bm sections of verses):

    D                     Bm                      D
-|----------------10--10--10--10--10--10--10--10--10-----------
-|--------7----------------------------------------------------
-|-----7-----7-------------------------------------------------
-|--7--------------7---8---9---8---9---8---9---8---7-----------
-|-------------------------------------------------------------
-|-------------------------------------------------------------


Verse 1:
 D   Bm                 D       Bm             D        Bm
Anna   you come and ask me girl    to set you free girl

                      D        Bm              Em      A7
You say he loves you more than me   so I will set you free

         D      Bm              D   Bm
Go with him   (Anna)   Go with him


Verse 2:
 D  Bm                 D      Bm                D        Bm
Anna   girl before you go now    I want you to know now

              D       Bm              Em        A7
That I still love you so   but if he loves you more

         D    
Go with him   


Middle:
 G
All of my life    I've been searching    for a girl
        D
Who'll love me     like I     love her
   G                         Gm
But every girl I've ever had    breaks my heart and leave me sad
 E7                                 A7
What am I   what am I   supposed to do    oh...


Verse 3:
 D  Bm                 D        Bm
Anna   just one more thing girl    

                    D      Bm                Em        A7
You give back your ring to me     and I will set you free 

         D    
Go with him   


Repeat middle part
Repeat verse 3
then...


Ending:
  Bm             D      Bm
(Anna)  Go with him   (Anna)

                 D           Bm              D
You can go with him girl   (Anna)   Go with him

____________________________________________________________________________________________________________________________________________________________________________________________________________________________________________________

TAB: Chains
MUSIC BY: The Beatles (From the Please Please Me album) 
TABBED BY: The Beatles Central Team (jpgr_beatles@yahoo.com)
             

Intro:

Bb


Verse 1: 

Bb
Chains  my baby's got me locked up in chains   And they ain't the 
Eb                         Bb            
kind          that you can see             Woah it's
F              Eb               Bb         F
chains of love    got a hold on me, yeah, pa-lum-pa-lum-pa-lum-pa


Verse 2:

Bb
Chains  I can't break away from them chains   Can't run a- 
Eb                           Bb            
round         cause I'm not free             Woah these
F              Eb              Bb         Bb7
chains of love    won't let me be, yeah, 


Bridge:

Eb                            Bb                 Bb7
I wanna tell you pretty baby     I think you're fine
Eb                         F
I'd like to love you  But darling, I'm imprisoned by these


Verse 3: 

Bb
Chains  my baby's got me locked up in chains   And they ain't the 
Eb                         Bb            
kind         that you can see             Woah it's
F              Eb               Bb         Bb7
chains of love    got a hold on me, yeah, 


Bridge:

Eb                                Bb                  Bb7
Please believe me when I tell you    You're lips are sweet
Eb                          F
I'd like to kiss them  But I can't break away from all these
  

Verse 4: 

Bb
Chains  my baby's got me locked up in chains   And they ain't the 
Eb                          Bb            
kind          that you can see             Woah it's
F              Eb               Bb         Bb7
chains of love    got a hold on me, yeah, 


Coda:

Bb
Chains         chains of love       chains of
                          Eb        Ebm
love           chains of love



____________________________________________________________________________________________________________________________________________________________________________________________________________________________________________________

                   
                     ----
	               Boys
	               ----

by Luther Dixon and Wes Farrell
from Please Please Me

Intro:
  B7                           A7
-|----------------------------|-------5----------5---------
-|-------9-----7--------------|----------------------------
-|-------9-----7p8------------|6-------------7------6------
-|------------------9---------|7-------------7------7------
-|----------------------------|----------------------------
-|----------------------------|----------------------------
  ^      ^      ^      ^       ^      ^      ^      ^   
  E7                           B7   
-|-------0--------------------|----------------------------
-|-------0------2---2---------|----------------------------
-|--------------2---0---------|---2------------------------
-|---------------------2--0---|----------------------------
-|----------------------------|2---------------------------
-|----------------------------|----------------------------
  ^      ^      ^      ^       ^      ^      ^      ^   


B7                           
I've been told when a boy kiss a girl

Take a trip around the world      Hey
A7                                       
Hey                               Hey
E7  
Hey                               Hey
B7                A7         
Hey               Yes they say you do
E7                B7
                  Well I talk about
E7
boys              Don't you know I mean 

boys              Well I talk about boys
A7
now               Ahhhhhhhhh
E7                               
boys              Well I talk about
B7                A7
boys now          What a bundle of joy
E7
Alright George

Solo:

 B7                            E7
-|----------------------------|----------------------------|----------------------------
-|---8/9-9---8-/8-/8--/8--/8--|8------------8----8---------|---3---3--3---3--3----------
-|-----------9-/9-/9--/9--/9--|-------8-----8h9--8h9-------|---4---4--4---4--4---2--0---
-|----------------------------|----------------------------|----------------------------
-|----------------------------|----------------------------|----------------------------
-|----------------------------|----------------------------|----------------------------
  ^      ^      ^      ^       ^      ^      ^      ^   
                                
-|----------------------------|---12------12-----12----12--
-|----------------------------|-------9-----10-----11------
-|----------------------------|----------------------------
-|2------2--------------------|----------------------------
-|----------------------------|----------------------------
-|----------------------------|----------------------------
  ^      ^      ^      ^       ^      ^      ^      ^   
  A7
-|-----------------15---------|15--------------------------
-|12---------------13b15-13b15|13b15-------------------14--
-|----------------------------|------------------------13b15
-|----------------------------|----------------------------
-|----------------------------|----------------------------
-|----------------------------|----------------------------
  ^      ^      ^      ^       ^      ^      ^      ^  
  E7   
-|----------------------------|----------------------------
-|14---14---14------12--------|----------------------------
-|13b1513b1513b15---12h13-----|----------------------------
-|------------------------14--|14--------------------------
-|----------------------------|----------------------------
-|----------------------------|----------------------------
  ^      ^      ^      ^       ^      ^      ^      ^   
                               
  B7                           A7
-|--------------12-----12-----|12-----12-------------------
-|12-----12-----12-----12-----|12-----12-------------------
-|141b6--14b16--14b16--14b16--|14b16--14b16--16r14-12------
-|----------------------------|----------------------14----
-|----------------------------|----------------------------
-|----------------------------|----------------------------
  ^      ^      ^      ^       ^      ^      ^      ^   
  E7                           B7   
-|-------0------0------0------|0---------------------------
-|-------0----0-0----0-0----0-|0----0----------------------
-|-------4------3------2------|0---------------------------
-|----------------------------|-------2------2p0-----------
-|----------------------------|------------------2---------
-|----------------------------|----------------------------
  ^      ^      ^      ^       ^      ^      ^      ^   


E7                           
My girl says when I kiss her lips

Get the feeling all through her fingertips   Hey
A7                                       
Hey                               Hey
E7  
Hey                               Hey
B7                A7         
Hey               Yeah she said you do
E7                B7
                  Well I talk about
E7
boys              Don't you know I mean 

boys              Well I talk about boys
A7
now               Ahhhhhhhhh
E7                               
boys              Well I talk about
B7                A7                   E7
boys now          What a bundle of joy
E7                                           
My girl says when I kiss her lips

Get the feeling all through her fingertips   Hey
A7                                       
Hey                               Hey
E7  
Hey                               Hey
B7                A7         
Hey               Yeah she said you do
E7                B7
                  Well I talk about
E7
boys              Don't you know I mean 

boys              Well I talk about boys
A7
now               Ahhhhhhhhh
E7                               
boys              Well I talk about
B7                A7
boys now          What a bundle of joy
E7                B7
                  Ah yeah!
E7
boys              Don't you know I mean 

boys              Oh
A7
boys              Ahhhhh     Ahhhhhh
E7                               
                  Well I talk about


==============================================================================
I                    Transcribed by the Beatles Central Team                 I
I                          jpgr_beatles@yahoo.com                            I
I   Visit Beatles Central for more great Beatles tabs and midis(220+ each).  I
I   Every album covered! http://members.tripod.com/jpgr_beatles/index.html   I
==============================================================================






____________________________________________________________________________________________________________________________________________________________________________________________________________________________________________________



              Ask Me Why
          (Lennon/McCartney)

Intro:
[this little lick also used over some E chords during verses]

    E
-|-------------------
-|-------------------
-|-------------------
-|-----9--9----------
-|--7-----------7----
-|-----------7-------


Verse:

E  F#m  G#m  F#m                              E
I  love you        'cos you tell me things I want to know

 E  F#m  G#m  F#m                       E           G#7
And it's true      that it really only goes to show that I know

     C#m              A                F#m  B7
That I I I I  would never ever ever be blue

 E  F#m    G#m  F#m                      E
Now you're mine      my happiness near makes me cry

 E  F#m G#m  F#m                            E        G#7
And in  time        you'll understand the reason why that I cry

     C#m
It's not because I'm sad

                A                        E    E+   (e.g., 076550)
But you're the only love that I've ever had


Middle:
         A      B7                 E   E+
I can't believe   it's happened to me

          A     B7               E     B7
I can't conceive   of any more misery


Verse:
 E  F#m G#m              F#m
Ask me  why   I'll say I love you   [second time jump to ending]

         G#m                A   E   E+
And I'm always thinking of you

 [now repeat from the middle]


Ending:

           G#m                A    E           A
-|-----------------------------------------------------
-|-----------------------------------------------------
-|-----------------------------------------------------
-|------------------------------------9--9-------------
-|---------------------------------7-----------7-------
-|------------------------------------------7----------
  And I'm always thinking of you              you      

    E           A       G#m
-|----------------------------------------------
-|--------------------------4--4----------------
-|--------------------------------4--4--4--4----
-|-----9--9-----------------------------6--6----
-|--7-----------7-------------------------------
-|-----------7-----------4----------------------
                you


	Beatles Tab by Marc Hertzberg
	Digital Equipment Corporation
	hertzberg@netcad.enet.dec.com

____________________________________________________________________________________________________________________________________________________________________________________________________________________________________________________

From: hertzberg@netcad.enet.dec.com (Marc Hertzberg 
Subject: TAB: "Please Please Me" by The Beatles





	 Please Please Me
        (Lennon/McCartney)

Intro:
         E
-|----------12--11--9--7--9--7--4----12--11--9--7--9--7--4--0------------
-|----------------------------------------------------------0------------
-|-----------9---8--6--4--6--4--1-----9---8--6--4--6--4--1--1------------
-|----------------------------------------------------------2------------
-|----------------------------------------------------------2------------
-|---/7--0---(bass only)------------------------------------0------------


Verse:
  E                                  A  E     G  A  B
-|--0----0-----0--0----0----0-----0--0--0-----3--5--7--------------------
-|--5----4-----2--0----2----0--------2--0-----3--5--7--------------------
-|--------------------------------1--2--1-----4--6--8--------------------
-|--------------------------------------------5--7--9--------------------
-|--------------------------------------------5--7--9--------------------
-|--------------------------------------------3--5--7--------------------
    Last night I said these words to my girl

  E                              A   E
-|--0--0----0---0----0--0----0---0---0-----------------------------------
-|--5--4----2---0----2--0--------2---0-----------------------------------
-|---------------------------1---2---1-----------------------------------
-|---------------------------------------------------2--2----------------
-|---------------------------------------------------------2-------------
-|---------------------------------------------0--0----------------------
    I know you ne - ver e - ven try girl

Chorus:
     A              F#m             C#m              A
Come on         Come on         Come on         Come on
        Come on         Come on         Come on         Come on

          E           A       B         E  (repeat intro riff)
Please please me oh yeah like I please you.


Verse 2:
You don't need me to show the way girl
Why do I always have to say girl

Repeat chorus

Middle:
A                 
I don't want to sound complaining

 B                                  E
But you know there's always rain in my heart

A    
I do all the pleasing with you

 B                           E
It's so hard to reason with you

     A       B               E  (repeat intro riff)
Oh yeah, why do you make me blue?


Third verse same as the first,
Repeat chorus, but second line of chorus is repeated three times, then :

Ending chords are:

E   G   C   B   E


____________________________________________________________________________________________________________________________________________________________________________________________________________________________________________________



TITLE:  Love me do 
ARTIST: The Beatles
ALBUM:  Please Please Me  (1962)
From: MENDE JOVESKI <9605705J@bunyip.ph.rmit.edu.au>


This is the one that kicked it all off for the Beatles



intro: (played on harmonica)


E--12h13--11h12--9h10-----------------------
B----------------------8-8---8-8-8----------
G-------------------------------------------
D-------------------------------------------
A-------------------------------------------
E-------------------------------------------


E---12h13--13--13--11h12--12--12--9h10---------------
B---------------------------------------8-8---8-8-8--
G----------------------------------------------------
D----------------------------------------------------
A----------------------------------------------------
E----------------------------------------------------


E--12h13--11h12--9h10---------8-7----------------8-7/3--
B----------------------8-8--8-----8-8-8--8-8-8-8--------
G-------------------------------------------------------
D-------------------------------------------------------
A-------------------------------------------------------
E-------------------------------------------------------


G             C
Love love me do
    G             C
You know I love you
     G            C
I'll always be true
            NC        
So pleeeease  love me do


figure 1:
E--12h13--11h12--9h10-----------------------
B----------------------8-8---8-8-8----------
G-------------------------------------------
D-------------------------------------------
A-------------------------------------------
E-------------------------------------------


E---12h13--13--13--11h12--12--12--9h10---------------
B---------------------------------------8-8---8-8-8--
G----------------------------------------------------
D----------------------------------------------------
A----------------------------------------------------
E----------------------------------------------------


G             C
Love love me do
    G             C
You know I love you
     G            C
I'll always be true
            NC        
So pleeeease  love me do
 

 (play figure 1 again)


   D                  C        G
   Someone to love    Somebody new
E--5---5---3--2-------3---1-0-----------
B------------------------------3--------
G---------------------------------------
D---------------------------------------
A---------------------------------------
E---------------------------------------

   D                  C            G
   Someone to love    Someone like you
E--5---5---3--2-------3---1---0---------
B----------------------------------3----
G---------------------------------------
D---------------------------------------
A---------------------------------------
E---------------------------------------


G             C
Love love me do
    G             C
You know I love you
     G            C
I'll always be true
            NC        
So pleeeease  love me do

  (play figure 1 again)


E--5---5---3--2-------3---1-0-----------
B------------------------------3--------
G---------------------------------------
D---------------------------------------
A---------------------------------------
E---------------------------------------


E--5---5---3--2-------3---1---0---------
B----------------------------------3----
G---------------------------------------
D---------------------------------------
A---------------------------------------
E---------------------------------------


E---3--3--3---3-3-3-3--8-7/3---8-8-8---8--
B-----------------------------------------
G-----------------------------------------
D-----------------------------------------
A-----------------------------------------
E-----------------------------------------


G             C
Love love me do
    G             C
You know I love you
     G            C
I'll always be true
            NC        
So pleeeease  love me do


(Fade out by playing intro a few times)


Chords used:

C  x32010
D  xx0232
G  320033
NC = no chord

Now that you have mastered that, try this if you have nothing else to do

E----8--10--12--10--8--10--10-----------    
B------------------------------10-------    
G---------------------------------------     
D---------------------------------------
A---------------------------------------
E---------------------------------------


Any corrections, comments, additions, or if you want to talk about the Beatles, send them to,


Mende Joveski

9605705@bunyip.ph.rmit.edu.au  

____________________________________________________________________________________________________________________________________________________________________________________________________________________________________________________


   PS, I love you          (Lennon/McCartney)


   C#7:  x43404   (B7 moved up two frets)



   Em    C#7        D       Em      C#7     D
   As I write this letter, send my love to you
      Em      C#7      D      D      A7       D
   Remember that I'll always be in love with you.

     D                 Em                 D 
   Treasure these few words till we're together,
         A     A7       Bm   D  A7     Bb   Bb   C   D
   Keep all my love forever. PS I love you, you you you.

   G                D       G               D
   As I write this letter, send my love to you
      G                D      D     A7        D
   Remember that I'll always be in love with you.

    D               Em           D 
   I'll be coming home again to you love,

   And till the day I do love, PS I love you, you you you.

    Bb  C    D   DDDDD
    I love you.



***** `&' *********************************************
**     #           Franz Lemmermeyer                 **   
**     #           Erwin-Rohde-Str. 19               **  
**    _#_          69120 Heidelberg                  ** 
**   ( # )                                           **   
**   / O \    hb3@ix.urz.uni-heidelberg.de           **   
**  ( === )   http://ix.urz.uni-heidelberg.de/~hb3/  **
**** `---' ********************************************         

____________________________________________________________________________________________________________________________________________________________________________________________________________________________________________________


From: victor perez <Z10CC@CUNYVM.CUNY.EDU>

                     Baby It's You
                         By
                     The Beatles


  G                 Em
 Sha la la la la la la   (3x's)
 C
 I's not the way you smile
                   G
 that touched my heart.
 C
 It's not the way you kiss
              G
 that tears apart.
          Em
 But how many many many nights go by
 Am                                  G             Em
 I sit alone at home and i cry over you.What can I do?
 C             D                    G   Em         G
 Can't help myself cause baby it's you. Baby it's you.


 C                                    G
 You should hear what they say about you    cheat  cheat
 C                                            G
 They say they say you never never ever been true
       Em
 Wo ho it doesn't matter what they say
 Am
 I know I'm gonna love you any old way
            G             Em
 What can I do then it's true.
 C                   D
 Don't want nobody nobody
                  G    Em         G
 Cause baby it's you.  Baby it's you.


 Solo Chords: |:Em|C|D|G|G|D|G| :||

                             any questions u know where to find me
                                                z10cc@cunnyvm.edu

____________________________________________________________________________________________________________________________________________________________________________________________________________________________________________________



        Do You Want To Know A Secret



  Em                           Am    Em
You'll never know how much I really love you

  G                            F      B6
You'll never know how much I really care

  E   G#m-Gm-F#m      B7              E
Listen        do you want to know a secret

G#m-Gm-F#m      B7             E  G#m-Gm-F#m  B6/F
        do you promise not to tell  woooooooooah

  E   G#m-Gm-F#m      B7              E
Closer        let me whisper in your ear

G#m-Gm-F#m      B7                A   B7
       say the words you long to hear

                 C#m    F#m  B6
I'm in love with you   oooooooo

  E      G#m-Gm-F#m          B7              E     G#m-Gm-F#m
Listen  (do dah do)  do you want to know a secret (do dah do)

          B7           E    G#m-Gm-F#m  B6/F
do you promise not to tell (do dah do)  woah

  E      G#m-Gm-F#m          B7              E  G#m-Gm-F#m
Closer (do dah do)  let me whisper in your ear (do dah do)

         B7                A   B7
say the words you long to hear

                 C#m    F#m  B6
I'm in love with you   ooooooo

 A             F#m           C#m     Bm
I've know the secret for the week or two

 A      F#m  C#m     Bm F#m  B6
Nobody knows just we two

  E      G#m-Gm-F#m          B7              E     G#m-Gm-F#m
Listen  (do dah do)  do you want to know a secret (do dah do)

          B7           E    G#m-Gm-F#m  B6/F
do you promise not to tell (do dah do)  woah

  E      G#m-Gm-F#m          B7              E  G#m-Gm-F#m
Closer (do dah do)  let me whisper in your ear (do dah do)

         B7                A   B7
say the words you long to hear

                 C#m    F#m  B6  C#m
I'm in love with you   ooooooo

               F#m    B6     C#m
Ooooo  ooooo  ooooo  ooooo  ooooo 

               F#m    B6     C#m
Ooooo  ooooo  ooooo  ooooo  ooooo 

               F#m    B6     C#m
Ooooo  ooooo  ooooo  ooooo  ooooo 


____________________________________________________________________________________________________________________________________________________________________________________________________________________________________________________


{Sent by Igor Travenec, travenec@savba.sk}

    A Taste of Honey    Scott-Marlow  (performed by Beatles 1962)
                                                    ^^^^^^^
A taste of [Ami]honey, [C]tasting much [G]sweeter than [Ami]wine

I [Ami]dream of [C]your first [G7]kiss and [D]then
I [Ami]feel a[C]part, my [G7]lips are [D]gett'n
A taste of [Ami]honey, [C]tasting much [G]sweeter than [Ami]wine

{Chorus:}
I [A]will re[C]turn, yes [D]I will re[Emi]turn
I'll come [F]back for the [G]honey and [Ami]you.

Those was a kiss that avowed my heart
They ring (in) still, though you far will part
A taste of honey, tasting much sweeter than wine

{Chorus.}

----
P.S. The words in 2nd verse are only aproximate, so are some chords 
in the chorus, too.


____________________________________________________________________________________________________________________________________________________________________________________________________________________________________________________


                                 There's a place
                        (by John Lennon and Paul McCartney)




Guitar Intro (2 times):
E                          A    
*        *        *        *        *        *        *                                          
|--------------------------|--------------------------|
|--4----------------5------|--------------------------|
|-----------------------4--|--------------------------|
|--------------------------|-6------------------------|
|--------------------------|--------------------------|
|--------------------------|--------------------------|


*        *        *        *        *        *        *                                          
A                          E            A              
         There _______                    There's  a 
E                          A                         
place                                 where   I   can   
E                          A                          
go                                   When    I     feel 
E                          C#m
low                                  When    I     feel 
E
blue____________________                     And it's my
G#m                        A
mind____________________                     and there's 
E
time____________________   A           When  I ' m    a-
C#m
lone                                      I ____________

           E      A                     E   
think of you            the things you do 
A               E        C#7  
    Go round my head    the things you've
B                    A
said________ Like I love             only 
B
you 
C#m                   F#7
   in my mind there's no sorrow
E
       Don't you know that it's 
G#             C#m
so             There'll be no sad to tom -
F#m             E
orrow             Don't you know that it's 
G#             C#m
so                  There______ 

there's 


Outro (3 times):
A               E    
      There's a place 

____________________________________________________________________________________________________________________________________________________________________________________________________________________________________________________


==============================================================================
I                    Transcribed by the Beatles Central Team                 I
I                        E-mail: jpgr_beatles@yahoo.com                      I
I   Visit Beatles Central for more great Beatles tabs and midis(220+ each).  I
I   Every album covered! http://members.tripod.com/jpgr_beatles/index.html   I
==============================================================================



                        TWIST AND SHOUT


INTRO
                               D               G                      
E------------------------------2------------------------------------
B------------------------------3------------------------------------
G------------------------------2------------------------------------
D------------------------0-----------------------0--------0---------
A------0-----2-----4-----------------------------2--------2---------
E------------------------------------------------3--------3---------
                                                                    

    A                                                                
E-------------------------------------------------------------------
B---2---------------------------------------------------------------
G---2---------------------------------------------------------------
D---2---------------------------------------------------------------
A---0-----0-----0-----0-----0---------------------------------------
E-------------------------------------------------------------------
                                                                    

         
PLAY INTRO UNDER THE VOCAL
		
Well shake it up baby now, twist and shout
Come on come on come on come on baby , now work it on out
Well work it on out  , you know you look so good
You know you got me goin' now , just like you knew you would



         Ahh            Ahh           Ahh             Ahh
E---------------------------------------0--------------3------------
B------------------------2--------------2--------------2------------
G---------2--------------2--------------2--------------2------------
D---------2-----2-----2--2-----2-----2--------2-----2---------------
A---------0--0-----0--------0-----0--------0-----0------------------
E-------------------------------------------------------------------




CONTINUE WITH THE INTRO UNDER THE VOCALS

Well shake it up baby now, twist and shout
Come on come on come on come on baby , now work it on out
You know you twist it little girl , you know you twist so fine
Come on and twist a little closer now, and let me know that you're mine 


Well shake it up baby now, twist and shout
Come on come on come on come on baby , now work it on out
You know you twist it little girl , you know you twist so fine
Come on and twist a little closer now, and let me know that you're mine 



Well shake it shake it shake it baby now
Well shake it shake it shake it baby now
Well shake it shake it shake it baby now

 

GUITAR BREAK           
                                                         ETC
E-------------------------------------------------------------------
B------------------------0-----3-----2-----------0------------------
G---------2--------2-----------4-----2-----2--------2---------------
D---------2--------2-----------------------2--------2---------------
A-------------------------------------------------------------------
E-------------------------------------------------------------------


Tabbed by John Constantine 
John_Constantine@bushboakeallen.com

________________________________________________________________________________________________________________________________________________________________________________________________________________________________________________________________________________________________________________________________________________________________________________________________________________________________________________________________________________________________________
comments
print report bad tab
I want to post or [tab]
guest
You may want to rate the tab now too:
select rating
Please do not post tabs as comments. Select "correction" instead!