Oops, an error
Loading. Please wait.

Please Please Me Tab

ver2
ver2

Album

Whole song

Interactive

More versions @911Tabs.com
42,318 views 42 this week
no commentswrite comment
1 2 3 4 5
excellent!
x 5
add to favorites launch autoscroll
font size
0
reset
Autoscroll
+/-
esc
set tempo
stop
Contributor
WARNING: You are trying to view
                                    content from Ultimate-Guitar.com
                                    in an unauthorized application,
                                    which is prohibited.

                                    Please use an official Ultimate
                                    Guitar Tabs application for iPhone,
                                    iPad or Android to access legitimate
                                    chords, guitar, bass, and drum tabs
                                    from Ultimate-Guitar.com database.

                                    Type "ultimate guitar tabs" in Apple
                                    App Store's or Android Market's
                                    search to find the application.

               THE BEATLES - PLEASE PLEASE ME

            1  I SAW HER STANDING THERE
            2  MISERY
            3  ANNA (GO TO HIM)
            4  CHAINS
            5  BOYS
            6  ASK ME WHY
            7  PLEASE PLEASE ME
            8  LOVE ME DO
            9  PS I LOVE YOU
           10  BABY IT'S YOU
           11  DO YOU WANT TO KNOW A SECRET
           12  A TASTE OF HONEY
           13  THERE'S A PLACE
           14  TWIST AND SHOUT


  ----------------------------------------------------------------

  THE BEATLES - I SAW HER STANDING THERE (McCartney & Lennon) From
                PLEASE, PLEASE ME album. Released 22nd March 1963.

  -----------------------------------------------------------------

  Tabbed by:PJVillanueva

  1 - 2 - 3 - 4 !

  Well, she was just seventeen,
  You know what I mean,
  And the way she looked was way beyond compare.
  So how could I dance with another (ooh)
  And I saw her standin' there.

  Well she looked at me, and I, I could see
  That before too long I'd fall in love with her.
  She wouldn't dance with another (whooh)
  And I saw her standin' there.

  Well, my heart went "boom,"
  When I crossed that room,
  And I held her hand in mine...

  Whoah, we danced through the night,
  And we held each other tight,
  And before too long I fell in love with her.
  Now I'll never dance with another (whooh)
  And I saw her standing there

  Solo

  Well, my heart went "boom,"
  When I crossed that room,
  And I held her hand in mine...

  Oh, we danced through the night,
  And we held each other tight,
  And before too long I fell in love with her.
  Now I'll never dance with another (whooh)
  Since I saw her standing there
  Whooh, since I saw her standing there.



e|------- ------- ------- -------|------- ------- ------- -------|
B|-------------------------------|-------------------------------|
G|-------------------------------|-------------------------------|
D|-------------------------------|-------------------------------|
A|-------------------------------|----------------------------2--|
E|-------------------------------|----------------------------0--|
                                  One     two     three   four

e|------- ------- ------- -------|------- ------- ------- -------|
B|-------------------------------|-------------------------------|
G|-------------------------------|-------------------------------|
D|-------------------------------|-------------------------------|
A|2---2---2-------2---2-------2--|2---2---2-------2---2-------2--|
E|0---0---0-------0---0-------0--|0---0---0-------0---0-------0--|

e|------- 4------ 4---4-- -------|4------ 4------ ------- -------|
B|--------3-------3---3----------|3-------3----------------------|
G|-------------------------------|-------------------------------|
D|-------------------------------|-------------------------------|
A|-------------------------------|-------------------------------|
E|-------------------------------|-------------------------------|


e|------- ------- ------- -------|------- ------- ------- -------|
B|-------------------------------|-------------------------------|
G|-------------------------------|-------------------------------|
D|-------------------------------|-------------------------------|
A|2---2---2-------2---2-------2--|2---2---2---2-------2---2------|
E|0---0---0-------0---0-------0--|0---0---0---0-------0---0------|
                                              Well, she was   just
e|------- 4------ 4---4-- -------|4------ 4------ ------- -------|
B|--------3-------3---3----------|3-------3----------------------|
G|-------------------------------|-------------------------------|
D|-------------------------------|-------------------------------|
A|-------------------------------|-------------------------------|
E|-------------------------------|-------------------------------|

          E7
e|------- ------- ------- -------|------- ------- ------- -------|
B|--------3-------3---3----------|--------3---3-------3---3------|
G|--------1-------1---1----------|--------1---1-------1---1------|
D|--------2-------2---2----------|--------2---2-------2---2------|
A|--------2-------2---2----------|--------2---2-------2---2------|
E|--------0-------0---0----------|--------0---0-------0---0------|
                  seventeen,                              you know
e|------- ------- ------- -------|------- ------- ------- -------|
B|-------------------------------|-------------------------------|
G|-------------------------------|-------------------------------|
D|-------------------------------|-------------------------------|
A|2---2---2-------2---2-------2--|2---2---2---2-------2-------2--|
E|0---0---0-------0---0-------0--|0---0---0---0-------0-------0--|

          A7                              E7
e|------- 3------ 3---3-- -------|------- 0------ 0---0-- -------|
B|--------2-------2---2----------|--------3-------3---3----------|
G|--------2-------2---2----------|--------1-------1---1----------|
D|--------2-------2---2----------|--------2-------2---2----------|
A|--------0-------0---0----------|--------2-------2---2----------|
E|-------------------------------|--------0-------0---0----------|
                  what I      mean                        and the
e|------- ------- ------- -------|------- ------- ------- -------|
B|-------------------------------|-------------------------------|
G|-------------------------------|-------------------------------|
D|-------------------------------|-------------------------------|
A|2---2---2-------2---2-------2--|2---2---2-------2---2-------2--|
E|0---0---0-------0---0-------0--|0---0---0-------0---0-------0--|


e|------- ------- ------- -------|------- ------- ------- -------|
B|--------3-------3---3----------|--------3-------3---3----------|
G|--------1-------1---1----------|--------1-------1---1----------|
D|--------2-------2---2----------|--------2-------2---2----------|
A|--------2-------2---2----------|--------2-------2---2----------|
E|--------0-------0---0----------|--------0-------0---0----------|
  way she looked              was way         beyond      compare
e|------- ------- ------- -------|------- ------- ------- -------|
B|-------------------------------|-------------------------------|
G|-------------------------------|-------------------------------|
D|-------------------------------|-------------------------------|
A|2---2---2-------2---2-------2--|2---2---2-------2---2-------2--|
E|0---0---0-------0---0-------0--|0---0---0-------0---0-------0--|

          B                               B7
e|------- 7------ 7---7-- -------|------- 7------ 7------ -------|
B|--------7-------7---7----------|-------10------10--------------|
G|--------8-------8---8----------|--------8-------8--------------|
D|--------9-------9---9----------|--------7-------7--------------|
A|--------9-------9---9----------|--------9-------9--------------|
E|--------7-------7---7----------|--------7-------7--------------|
                                                          So
e|------- ------- ------- -------|------- ------- ------- -------|
B|-------------------------------|-------------------------------|
G|-------------------------------|-------------------------------|
D|-------------------------------|-------------------------------|
A|9-------9-------9---9-------9--|--------9-------9--------------|
E|7-------7-------7---7-------7--|--------7-------7--------------|

e|------- ------- ------- -------|------- ------- ------- -------|
B|-------------------------------|-------------------------------|
G|-------------------------------|-------------------------------|
D|-------------------------------|--------7----------------------|
A|------------------------5---7-/|9---------------7---5----------|
E|--------7-------7--------------|-------------------------------|


          E                               E7
e|------- 0------ 0---0-- -------|------- 0---0-- ------- -------|
B|--------0-------0---0----------|--------3---3------------------|
G|--------1-------1---1----------|--------1---1------------------|
D|--------2-------2---2----------|--------2---2------------------|
A|--------2-------2---2----------|--------2---2------------------|
E|--------0-------0---0----------|--------0---0------------------|
  How             could I     dance               with an.....other

          A                               C
e|------- 0------ 0---0-- -------|------- 3------ 3---3-- -------|
B|--------2-------2---2----------|--------5-------5---5----------|
G|--------2-------2---2----------|--------5-------5---5----------|
D|--------2-------2---2----------|--------5-------5---5----------|
A|--------0-------0---0----------|--------3-------3---3----------|
E|-------------------------------|-------------------------------|
                                                      And I


          E7                              B7
e|------- 0------ 0---0-- -------|------- 7------ 7---7-- -------|
B|--------3-------3---3----------|-------10------10--10----------|
G|--------1-------1---1----------|--------8-------8---8----------|
D|--------2-------2---2----------|--------7-------7---7----------|
A|--------2-------2---2----------|--------9-------9---9----------|
E|--------0-------0---0----------|--------7-------7---7----------|
  saw              her            stan................din'    there

          E7
e|------- 0------ 0---0-- -------|0------ 0------ 0---0-- -------|
B|--------3-------3---3----------|3-------3-------3---3----------|
G|--------1-------1---1----------|1-------1-------1---1----------|
D|--------2-------2---2----------|2-------2-------2---2----------|
A|--------2-------2---2----------|2-------2-------2---2----------|
E|--------0-------0---0----------|0-------0-------0---0----------|
                                                          Well, she
e|------- 4------ 4---4-- -------|4------ 4------ ------- -------|
B|--------3-------3---3----------|3-------3----------------------|
G|-------------------------------|-------------------------------|
D|-------------------------------|-------------------------------|
A|-------------------------------|-------------------------------|
E|-------------------------------|-------------------------------|


e|------- 0------ 0---0-- -------|------- 0------ 0---0-- -------|
B|--------3-------3---3----------|--------3-------3---3----------|
G|--------1-------1---1----------|--------1-------1---1----------|
D|--------2-------2---2----------|--------2-------2---2----------|
A|--------2-------2---2----------|--------2-------2---2----------|
E|--------0-------0---0----------|--------0-------0---0----------|
                  looked at   me                          And I,
e|------- ------- ------- -------|------- ------- ------- -------|
B|-------------------------------|-------------------------------|
G|-------------------------------|-------------------------------|
D|-------------------------------|-------------------------------|
A|2---2---2-------2---2-------2--|2---2---2---2-------2-------2--|
E|0---0---0-------0---0-------0--|0---0---0---0-------0-------0--|

          A7                              E7
e|------- 3------ 3---3-- -------|------- 0------ 0---0-- ----0--|
B|--------2-------2---2----------|--------3-------3---3-------3--|
G|--------2-------2---2----------|--------1-------1---1-------1--|
D|--------2-------2---2----------|--------2-------2---2-------2--|
A|--------0-------0---0----------|--------2-------2---2-------2--|
E|-------------------------------|--------0-------0---0-------0--|
                  I   could   see                         that be..
e|------- ------- ------- -------|------- ------- ------- -------|
B|-------------------------------|-------------------------------|
G|-------------------------------|-------------------------------|
D|-------------------------------|-------------------------------|
A|2---2---2-------2---2-------2--|2---2---2-------2---2-------2--|
E|0---0---0-------0---0-------0--|0---0---0-------0---0-------0--|


e|------- 0------ 0---0-- -------|------- ----0-- ----0-- 0------|
B|--------3-------3---3----------|------------3-------3---3------|
G|--------1-------1---1----------|------------1-------1---1------|
D|--------2-------2---2----------|------------2-------2---2------|
A|--------2-------2---2----------|------------2-------2---2------|
E|--------0-------0---0----------|------------0-------0---0------|
  fore    too long            I'd     fall in love        with her
e|------- ------- ------- -------|------- ------- ------- -------|
B|-------------------------------|-------------------------------|
G|-------------------------------|-------------------------------|
D|-------------------------------|-------------------------------|
A|2---2---2-------2---2-------2--|2---2---2-------2---2-------2--|
E|0---0---0-------0---0-------0--|0---0---0-------0---0-------0--|

          B7
e|------- 7------ 7---7-- -------|------- 7------ 7------ -------|
B|--------7-------7---7----------|--------7-------7--------------|
G|--------8-------8---8----------|--------8-------8--------------|
D|--------9-------9---9----------|--------9-------9--------------|
A|--------9-------9---9----------|--------9-------9--------------|
E|--------7-------7---7----------|--------7-------7--------------|

e|------- ------- ------- -------|------- ------- ------- -------|
B|-------------------------------|-------------------------------|
G|-------------------------------|-------------------------------|
D|-------------------------------|-------------------------------|
A|9-------9-------9---9-------9--|--------9-------9--------------|
E|7-------7-------7---7-------7--|--------7-------7--------------|

e|------- ------- ------- -------|2------ ------- ------- -------|
B|-------------------------------|0------------------------------|
G|-------------------------------|4------------------------------|
D|-------------------------------|-------------------------------|
A|-------------------------------|-------------------------------|
E|-------------------------------|-------------------------------|

          E                               E7
e|------- 0------ 0---0-- -------|------- 0------ 0---0-- -------|
B|--------0-------0---0----------|--------3-------3---3----------|
G|--------1-------1---1----------|--------1-------1---1----------|
D|--------2-------2---2----------|--------2-------2---2----------|
A|--------2-------2---2----------|--------2-------2---2----------|
E|--------0-------0---0----------|--------0-------0---0----------|
  She             wouldn't    dance               with an.....other


          A                       C
e|------- 0------ 0---0-- -------|3------ ----3-- ------- 3------|
B|--------2-------2---2----------|5-----------5-----------5------|
G|--------2-------2---2----------|5-----------5-----------5------|
D|--------2-------2---2----------|5-----------5-----------5------|
A|--------0-------0---0----------|3-----------3-----------3------|
E|-------------------------------|-------------------------------|
                              Whooh                       And I


          E                       B
e|------- 0------ 0---0-- -------|7------ 7------ 7------ 7------|
B|--------0-------0---0----------|7-------7-------7-------7------|
G|--------1-------1---1----------|8-------8-------8-------8------|
D|--------2-------2---2----------|9-------9-------9-------9------|
A|--------2-------2---2----------|9-------9-------9-------9------|
E|--------0-------0---0----------|7-------7-------7-------7------|
  saw              her            stan................ding    there

          E7
e|------- 0------ 0---0-- -------|0------ 0---0-- ------- -------|
B|--------3-------3---3----------|3-------3---3------------------|
G|--------1-------1---1----------|1-------1---1------------------|
D|--------2-------2---2----------|2-------2---2------------------|
A|--------2-------2---2----------|2-------2---2------------------|
E|--------0-------0---0----------|0-------0---0------------------|
                                                  Well,   my
e|------- 4------ 4---4-- -------|4------ 4---4-- ------- -------|
B|--------3-------3---3----------|3-------3---3------------------|
G|-------------------------------|-------------------------------|
D|-------------------------------|-------------------------------|
A|-------------------------------|-------------------------------|
E|-------------------------------|-------------------------------|

  A
e|------- ------- ------- -------|------- ------- ------- -------|
B|-------------------------------|-------------------------------|
G|-------------------------------|-------------------------------|
D|2---2---2---2---2---2---2---2--|2---2---4---2---2---2---2---2--|
A|0---0---0---0---0---0---0---0--|0---0---0---0---0---0---0---0--|
E|-------------------------------|-------------------------------|
  heart           went       "boom"               When    I
e|------- ------- ------- -------|------- ------- ------- -------|
B|-------------------------------|-------------------------------|
G|-------------------------------|-------------------------------|
D|----------------2---2----------|----------------2--------------|
A|0---0---3---4-----------3---4--|0---0---4---0-------0---3---4--|
E|-------------------------------|-------------------------------|


e|------- ------- ------- -------|------- ------- ------- -------|
B|-------------------------------|-------------------------------|
G|-------------------------------|-------------------------------|
D|2---2---2---2---2---2---2---2--|2---2---4---2---2---2---2---2--|
A|0---0---0---0---0---0---0---0--|0---0---0---0---0---0---0---0--|
E|-------------------------------|-------------------------------|
  crossed         that        room                And     I
e|------- ------- ------- -------|------- ------- ------- -------|
B|-------------------------------|-------------------------------|
G|-------------------------------|-------------------------------|
D|----------------2---2----------|----------------2--------------|
A|0---0---3---4-----------3---4--|0---0---4---0-------0---3---4--|
E|-------------------------------|-------------------------------|

  B
e|------- ------- ------- -------|------- ------- ------- -------|
B|-------------------------------|-------------------------------|
G|-------------------------------|-------------------------------|
D|2---2---2---2---2---2---2---2--|2---2---4---2---2---2---2---2--|
A|0---0---0---0---0---0---0---0--|0---0---0---0---0---0---0---0--|
E|-------------------------------|-------------------------------|
  held            her         hand                in
e|------- ------- ------- -------|------- ------- ------- -------|
B|-------------------------------|-------------------------------|
G|-------------------------------|-------------------------------|
D|-------------------------------|-------------------------------|
A|3---4-------3---4-------3---4--|----3---4--------3---4---------|
E|-------------------------------|-------------------------------|


e|------- ------- ------- -------|------- ------- ------- -------|
B|-------------------------------|-------------------------------|
G|-------------------------------|-------------------------------|
D|4---4---4---4---4---4---4---4--|4---4---4---4---4---4---4---4--|
A|2---2---2---2---2---2---2---2--|2---2---2---2---2---2---2---2--|
E|-------------------------------|-------------------------------|
  mine
e|------- ------- ------- -------|------- ------- ------- -------|
B|-------------------------------|-------------------------------|
G|-------------------------------|-------------------------------|
D|-------------------------------|----7--------------------------|
A|----------------5---7---------7H9-------------9\7---5----------|
E|--------7----------------------|-------------------------------|

  A
e|------- ------- ------- -------|------- ------- ------- -------|
B|-------------------------------|-------------------------------|
G|-------------------------------|-------------------------------|
D|2---2---4---2---2---2---4---2--|2---2---4---2---2---2---4---2--|
A|0---0---0---0---0---0---0---0--|0---0---0---0---0---0---0---0--|
E|-------------------------------|-------------------------------|
                                              Whoah   we      danced
e|------- ------- ------- -------|------- ------- ------- -------|
B|--------7-------5--------------|-------------------------------|
G|--------7-------6--------------|-------------------------------|
D|--------------------7----------|-------------------------------|
A|-------------------------------|-------------------------------|
E|-------------------------------|-------------------------------|

          E7
e|------- 0------ 0---0-- -------|----0-- ------- 0---0-- -------|
B|--------3-------3---3----------|3---------------3---3----------|
G|--------1-------1---1----------|1---------------1---1----------|
D|--------2-------2---2----------|2---------------2---2----------|
A|--------2-------2---2----------|2---------------2---2----------|
E|--------0-------0---0----------|0---------------0---0----------|
                  through the night                       And we
e|------- ------- ------- -------|------- ------- ------- -------|
B|-------------------------------|-------------------------------|
G|-------------------------------|-------------------------------|
D|-------------------------------|-------------------------------|
A|2---2---2-------2---2-------2--|2---2---2---2-------2-------2--|
E|0---0---0-------0---0-------0--|0---0---0---0-------0-------0--|

          A7                              E7
e|------- 3------ 3---3-- -------|------- 0------ 0---0-- -------|
B|--------2-------2---2----------|--------3-------3---3----------|
G|--------2-------2---2----------|--------1-------1---1----------|
D|--------2-------2---2----------|--------2-------2---2----------|
A|--------0-------0---0----------|--------2-------2---2----------|
E|-------------------------------|--------0-------0---0----------|
  held    each    other       tight                       And be..
e|------- ------- ------- -------|------- ------- ------- -------|
B|-------------------------------|-------------------------------|
G|-------------------------------|-------------------------------|
D|-------------------------------|-------------------------------|
A|2---2---2-------2---2-------2--|2---2---2-------2---2-------2--|
E|0---0---0-------0---0-------0--|0---0---0-------0---0-------0--|

          E7
e|------- 0------ 0---0-- -------|------- ----0-- ----0-- 0------|
B|--------3-------3---3----------|------------3-------3---3------|
G|--------1-------1---1----------|------------1-------1---1------|
D|--------2-------2---2----------|------------2-------2---2------|
A|--------2-------2---2----------|------------2-------2---2------|
E|--------0-------0---0----------|------------0-------0---0------|
  fore    too long            I       fell in love        with her
e|------- ------- ------- -------|------- ------- ------- -------|
B|-------------------------------|-------------------------------|
G|-------------------------------|-------------------------------|
D|-------------------------------|-------------------------------|
A|2---2---2-------2---2-------2--|2---2---2-------2---2-------2--|
E|0---0---0-------0---0-------0--|0---0---0-------0---0-------0--|

          B
e|------- 7------ 7---7-- ----7--|----7-- 7------ 7---7-- -------|
B|--------7-------7---7-------7--|----7---7-------7---7----------|
G|--------8-------8---8-------8--|----8---8-------8---8----------|
D|--------9-------9---9-------9--|----9---9-------9---9----------|
A|--------9-------9---9-------9--|----9---9-------9---9----------|
E|--------7-------7---7-------7--|----7---7-------7---7----------|
                                                          Now
e|------- ------- ------- -------|------- ------- ------- -------|
B|-------------------------------|-------------------------------|
G|-------------------------------|-------------------------------|
D|-------------------------------|-------------------------------|
A|9-------9-------9---9-------9--|--------9-------9--------------|
E|7-------7-------7---7-------7--|--------7-------7--------------|

e|------- 7------ ------- -------|----5-- ------- 5------ -------|
B|--------7----------------------|----7-----------7--------------|
G|-------------------------------|-------------------------------|
D|-------------------------------|-------------------------------|
A|-------------------------------|-------------------------------|
E|-------------------------------|-------------------------------|


          E                               E7
e|------- 0------ 0---0-- -------|------- 0------ 0---0-- -------|
B|--------0-------0---0----------|--------3-------3---3----------|
G|--------1-------1---1----------|--------1-------1---1----------|
D|--------2-------2---2----------|--------2-------2---2----------|
A|--------2-------2---2----------|--------2-------2---2----------|
E|--------0-------0---0----------|--------0-------0---0----------|
  I'll            never       dance               with an.....other

          A7                      C
e|------- 3------ 3---3-- -------|3------ 3------ 3------ 3------|
B|--------2-------2---2----------|5-------5-------5-------5------|
G|--------2-------2---2----------|5-------5-------5-------5------|
D|--------2-------2---2----------|5-------5-------5-------5------|
A|--------0-------0---0----------|3-------3-------3-------3------|
E|-------------------------------|-------------------------------|
                              Whooh                   And I


          E                       B
e|------- 0------ 0---0-- -------|7------ 7------ 7---7-- -------|
B|--------0-------0---0----------|7-------7-------7---7----------|
G|--------1-------1---1----------|8-------8-------8---8----------|
D|--------2-------2---2----------|9-------9-------9---9----------|
A|--------2-------2---2----------|9-------9-------9---9----------|
E|--------0-------0---0----------|7-------7-------7---7----------|
  saw              her            stan................din'    there

          E7
e|------- 0------ 0---0-- -------|0------ 0------ ------- -------|
B|--------3-------3---3----------|3-------3----------------------|
G|--------1-------1---1----------|1-------1----------------------|
D|--------2-------2---2----------|2-------2----------------------|
A|--------2-------2---2----------|2-------2----------------------|
E|--------0-------0---0----------|0-------0----------------------|

e|------- 4------ 4---4-- -------|4------ 4------ ------- -------|
B|--------3-------3---3----------|3-------3----------------------|
G|-------------------------------|-------------------------------|
D|-------------------------------|-------------------------------|
A|-------------------------------|-------------------------------|
E|-------------------------------|-------------------------------|

Solo

  E
e|------- ------- ------- -------|------- ------- ------- -------|
B|-------------------------------|---------------------------------|
G|-------------------------------|---------------------------------|
D|----8-------7------------------|----------------5---7---------7--|
A|--------------------7-------7-5H7-------7------------------------|
E|-------------------------------|---------------------------------|


e|------- ------- ------- -------|------- ------- ------- -------|
B|-------------------------------|---------------------------------|
G|----7--------------------------|---------------------------------|
D|9-------------9\7---5----------|--------------------5------------|
A|----------------------------7--|--------------5H7-------------7--|
E|-------------------------------|--------7------------------------|


e|------- ------- ------- -------|4---4-- ------- ------- -------|
B|-------------------------------|3---3--------------------------|
G|----7--------------------------|--------------4\2---0----------|
D|9-------------9\7---5----------|-------------------------------|
A|-------------------------------|-------------------------------|
E|-------------------------------|-------------------------------|

  B
e|------- ------- ------- -------|------- ------- ------- -------|
B|-------------------------------|-------------------------------|
G|-------------------------------|----2--------------------------|
D|----------------0---2---------2H4---------------4---0-------0--|
A|2-------2----------------------|-------------------------------|
E|-------------------------------|-------------------------------|

  E                               E7
e|------- ------- ------- -------|------- ------- ------- -------|
B|------------------------8------|10B12---10B12---10-P8----------|
G|------------7---9--------------|------------------------9------|
D|5-----7/9----------------------|-------------------------------|
A|-------------------------------|-------------------------------|
E|-------------------------------|-------------------------------|

  A                               C
e|------- 10----- -----10 -----10|10--10- ------- ------- -------|
B|----------------10H12------1010H12--12-------12\10--8----------|
G|-------------------------------|-------------------------------|
D|-------------------------------|-------------------------------|
A|-------------------------------|-------------------------------|
E|-------------------------------|-------------------------------|

  E                               B
e|------- ----10- ------- -------|------- ------- ------- -------|
B|-----------1212\10--8----------|-------------------------------|
G|-------------------------------|9---7--------------------------|
D|-------------------------------|--------------9\7---5----------|
A|-------------------------------|-------------------------------|
E|-------------------------------|-------------------------------|

          E7
e|------- 0------ 0---0-- -------|0------ 0------ 0------ 0------|
B|--------3-------3---3----------|3-------3-------3-------3------|
G|--------1-------1---1----------|1-------1-------1-------1------|
D|--------2-------2---2----------|2-------2-------2-------2------|
A|--------2-------2---2----------|2-------2-------2-------2------|
E|--------0-------0---0----------|0-------0-------0-------0------|
                                                  Well,   my
e|------- ------- ------- -------|------- ------- ------- -------|
B|-------------------------------|-------------------------------|
G|-------------------------------|--------0----------------------|
D|-------------------------------|--0-H-2------------------------|
A|7-------7-------------------0-H|2------------------------------|
E|--------------7\5---3----------|-------------------------------|

  A
e|------- ------- ------- -------|------- ------- ------- -------|
B|-------------------------------|-------------------------------|
G|-------------------------------|-------------------------------|
D|2---2---2---2---2---2---2---2--|2---2---4---2---2---2---2---2--|
A|0---0---0---0---0---0---0---0--|0---0---0---0---0---0---0---0--|
E|-------------------------------|-------------------------------|
  heart           went       "boom"               When    I
e|------- ------- ------- -------|------- ------- ------- -------|
B|-------------------------------|-------------------------------|
G|-------------------------------|-------------------------------|
D|----------------2---2----------|----------------2--------------|
A|0---0---4---0-----------3---4--|0---0---4---0-------0---3---4--|
E|-------------------------------|-------------------------------|


e|------- ------- ------- -------|------- ------- ------- -------|
B|-------------------------------|-------------------------------|
G|-------------------------------|-------------------------------|
D|2---2---2---2---2---2---2---2--|2---2---4---2---2---2---2---2--|
A|0---0---0---0---0---0---0---0--|0---0---0---0---0---0---0---0--|
E|-------------------------------|-------------------------------|
  crossed         that        room                And     I
e|------- ------- ------- -------|------- ------- ------- -------|
B|-------------------------------|-------------------------------|
G|-------------------------------|-------------------------------|
D|----------------2---2----------|----------------2--------------|
A|0---0---4---0-----------3---4--|0---0---4---0-------0---3---4--|
E|-------------------------------|-------------------------------|


e|------- ------- ------- -------|------- ------- ------- -------|
B|-------------------------------|-------------------------------|
G|-------------------------------|-------------------------------|
D|2---2---2---2---2---2---2---2--|2---2---4---2---2---2---2---2--|
A|0---0---0---0---0---0---0---0--|0---0---0---0---0---0---0---0--|
E|-------------------------------|-------------------------------|
  held            her         hand                in
e|------- ------- ------- -------|------- ------- ------- -------|
B|-------------------------------|-------------------------------|
G|-------------------------------|-------------------------------|
D|----------------2--------------|-------------------------------|
A|0---0---4---0-------0---3---4--|0---3---4---0---0---0---0---1--|
E|-------------------------------|-------------------------------|

  B
e|------- ------- ------- -------|------- ------- ------- -------|
B|-------------------------------|-------------------------------|
G|-------------------------------|-------------------------------|
D|4---4---4---4---4---4---4---4--|4---4---4---4---4---4---4---4--|
A|2---2---2---2---2---2---2---2--|2---2---2---2---2---2---2---2--|
E|-------------------------------|-------------------------------|
  mine
e|------- ------- ------- -------|------- ------- ------- -------|
B|-------------------------------|-------------------------------|
G|-------------------------------|-------------------------------|
D|--------1-------4-------1---4--|--------1-------4--------------|
A|2---2-------2------------------|2---2---------------2---1------|
E|-------------------------------|-------------------------------|

  A
e|------- ------- ------- -------|------- ------- ------- -------|
B|-------------------------------|-------------------------------|
G|-------------------------------|-------------------------------|
D|2---2---4---2---2---2---4---2--|2---2---4---2---2---2---4---2--|
A|0---0---0---0---0---0---0---0--|0---0---0---0---0---0---0---0--|
E|-------------------------------|-------------------------------|
                                          Oh          we
e|------- ------- ------- -------|------- ------- ------- -------|
B|--------7-------5--------------|--------7-----7-7---5----------|
G|--------7-------6--------------|--------7-----7-7---6----------|
D|--------------------7----------|-------------------------------|
A|0------------------------------|-------------------------------|
E|-------------------------------|-------------------------------|

          E7
e|------- 0------ 0---0-- -------|------- 0---0-- ----0-- 0------|
B|--------3-------3---3----------|--------3---3-------3---3------|
G|--------1-------1---1----------|--------1---1-------1---1------|
D|--------2-------2---2----------|--------2---2-------2---2------|
A|--------2-------2---2----------|--------2---2-------2---2------|
E|--------0-------0---0----------|--------0---0-------0---0------|
  danced          through the night                       And we
e|------- ------- ------- -------|------- ------- ------- -------|
B|-------------------------------|-------------------------------|
G|-------------------------------|-------------------------------|
D|-------------------------------|-------------------------------|
A|2---2---2-------2---2-------2--|2---2---2---2-------2-------2--|
E|0---0---0-------0---0-------0--|0---0---0---0-------0-------0--|

e|------- 0------ ------- -------|------- ------- ------- -------|
B|--------------------3----------|-------------------------------|
G|-------------------------------|-------------------------------|
D|-------------------------------|-------------------------------|
A|-------------------------------|-------------------------------|
E|-------------------------------|-------------------------------|

          A7                              E7
e|------- 3------ 3---3-- -------|------- 0------ 0---0-- -------|
B|--------2-------2---2----------|--------3-------3---3----------|
G|--------2-------2---2----------|--------1-------1---1----------|
D|--------2-------2---2----------|--------2-------2---2----------|
A|--------0-------0---0----------|--------2-------2---2----------|
E|-------------------------------|--------0-------0---0----------|
  held    each    other       tight                       And be..
e|------- ------- ------- -------|------- ------- ------- -------|
B|-------------------------------|-------------------------------|
G|-------------------------------|-------------------------------|
D|-------------------------------|-------------------------------|
A|2---2---2-------2---2-------2--|2---2---2-------2---2-------2--|
E|0---0---0-------0---0-------0--|0---0---0-------0---0-------0--|


e|------- 0------ 0---0-- -------|------- 0------ 0---0-- -------|
B|--------3-------3---3----------|--------3-------3---3----------|
G|--------1-------1---1----------|--------1-------1---1----------|
D|--------2-------2---2----------|--------2-------2---2----------|
A|--------2-------2---2----------|--------2-------2---2----------|
E|--------0-------0---0----------|--------0-------0---0----------|
  fore    too long            I       fell in love        with her
e|------- ------- ------- -------|------- ------- ------- -------|
B|-------------------------------|-------------------------------|
G|-------------------------------|-------------------------------|
D|-------------------------------|-------------------------------|
A|2---2---2-------2---2-------2--|2---2---2-------2---2-------2--|
E|0---0---0-------0---0-------0--|0---0---0-------0---0-------0--|

e|------- ------- ------- -------|------- ------- ------- -------|
B|-------------------------------|-------------------------------|
G|-------------------------------|-------------------------------|
D|-------------------------------|-------------------------------|
A|-------------------------------|-------------------------------|
E|-------------------------------|----------------------------7--|


          B7
e|------- 7------ 7---7-- -------|------- 7------ 7------ -------|
B|-------10------10--10----------|-------10------10--------------|
G|--------8-------8---8----------|--------8-------8--------------|
D|--------9-------9---9----------|--------9-------9--------------|
A|--------9-------9---9----------|--------9-------9--------------|
E|--------7-------7---7----------|--------7-------7--------------|
                                                          Now
e|------- ------- ------- -------|------- ------- ------- -------|
B|-------------------------------|-------------------------------|
G|-------------------------------|-------------------------------|
D|-------------------------------|-------------------------------|
A|9-------9-------9---9-------9--|--------9-------9--------------|
E|7-------7-------7---7-------7--|--------7-------7--------------|

e|------- ------- ------- -------|------- ------- ------- -------|
B|-------------------------------|-------------------------------|
G|-------------------------------|-------------------------------|
D|-------------------------------|----7--------------------------|
A|----------------5---7---------7/9-------------9\7---5----------|
E|--------7----------------------|-------------------------------|


  E                               E7
e|0------ ----0-- ------- -------|0------ ----0-- ------- -------|
B|0-----------0------------------|3-----------3------------------|
G|1-----------1------------------|1-----------1------------------|
D|2-----------2------------------|2-----------2------------------|
A|2-----------2------------------|2-----------2------------------|
E|0-----------0------------------|0-----------0------------------|
  I'll            never       dance               with an.....other

          A                       C
e|------- 0------ 0---0-- -------|3------ ----3-- ------- 3------|
B|--------2-------2---2----------|5-----------5-----------5------|
G|--------2-------2---2----------|5-----------5-----------5------|
D|--------2-------2---2----------|5-----------5-----------5------|
A|--------0-------0---0----------|3-----------3-----------3------|
E|-------------------------------|-------------------------------|
                              Whooh                   And I


          E                       B
e|------- 0------ 0---0-- -------|7------ 7---7-- ----7-- -------|
B|--------0-------0---0----------|7-------7---7-------7----------|
G|--------1-------1---1----------|8-------8---8-------8----------|
D|--------2-------2---2----------|9-------9---9-------9----------|
A|--------2-------2---2----------|9-------9---9-------9----------|
E|--------0-------0---0----------|7-------7---7-------7----------|
  saw              her            stan................din'    there

          E7
e|------- 0------ 0---0-- -------|0------ 0------ 0---0-- -------|
B|--------3-------3---3----------|3-------3-------3---3----------|
G|--------1-------1---1----------|1-------1-------1---1----------|
D|--------2-------2---2----------|2-------2-------2---2----------|
A|--------2-------2---2----------|2-------2-------2---2----------|
E|--------0-------0---0----------|0-------0-------0---0----------|
                                          Oh,     since I
e|------- ------- ------- -------|------- ------- ------- -------|
B|-------------------------------|-------------------------------|
G|-------------------------------|-------------------------------|
D|-------------------------------|-------------------------------|
A|2---2---2-------2---2-------2--|2---2---2-------2---2-------2--|
E|0---0---0-------0---0-------0--|0---0---0-------0---0-------0--|

e|------- 4------ 4---4-- -------|4------ 4------ ------- -------|
B|--------3-------3---3----------|3-------3----------------------|
G|-------------------------------|-------------------------------|
D|-------------------------------|-------------------------------|
A|-------------------------------|-------------------------------|
E|-------------------------------|-------------------------------|

          E7                      B
e|------- 0------ 0---0-- -------|7------ 7------ 7---7-- -------|
B|--------3-------3---3----------|7-------7-------7---7----------|
G|--------1-------1---1----------|8-------8-------8---8----------|
D|--------2-------2---2----------|9-------9-------9---9----------|
A|--------2-------2---2----------|9-------9-------9---9----------|
E|--------0-------0---0----------|7-------7-------7---7----------|
  saw             her             standing                    there
e|------- ------- ------- -------|------- ------- ------- -------|
B|-------------------------------|-------------------------------|
G|-------------------------------|-------------------------------|
D|-------------------------------|-------------------------------|
A|2---2---2-------2---2-------2--|9---9---9-------9---9-------2--|
E|0---0---0-------0---0-------0--|7---7---7-------7---7-------0--|

          E7
e|------- 0------ 0---0-- -------|0------ 0------ 0---0-- -------|
B|--------3-------3---3----------|3-------3-------3---3----------|
G|--------1-------1---1----------|1-------1-------1---1----------|
D|--------2-------2---2----------|2-------2-------2---2----------|
A|--------2-------2---2----------|2-------2-------2---2----------|
E|--------0-------0---0----------|0-------0-------0---0----------|
                                  Yeah,   well    since I
e|------- 4------ 4---4-- -------|4------ 4------ ------- -------|
B|--------3-------3---3----------|3-------3----------------------|
G|-------------------------------|-------------------------------|
D|-------------------------------|-------------------------------|
A|-------------------------------|-------------------------------|
E|-------------------------------|-------------------------------|

                                  B
e|------- 0------ 0---0-- -------|7------ 7---7-- ----7-- 7------|
B|--------3-------3---3----------|7-------7---7-------7---7------|
G|--------1-------1---1----------|8-------8---8-------8---8------|
D|--------2-------2---2----------|9-------9---9-------9---9------|
A|--------2-------2---2----------|9-------9---9-------9---9------|
E|--------0-------0---0----------|7-------7---7-------7---7------|
  saw             her             standing                    there
e|------- ------- ------- -------|------- ------- ------- -------|
B|-------------------------------|-------------------------------|
G|-------------------------------|-------------------------------|
D|-------------------------------|-------------------------------|
A|2---2---2-------2---2-------2--|9---9---9-------9---9----------|
E|0---0---0-------0---0-------0--|7---7---7-------7---7----------|


                                                          (.
  A                               E7
e|5------ 5------ ----5-- -------|0------ ----0-- ------- 0------|
B|5-------5-----------5----------|3-----------3-----------3------|
G|6-------6-----------6----------|1-----------1-----------1------|
D|7-------7-----------7----------|2-----------2-----------2------|
A|7-------7-----------7----------|2-----------2-----------2------|
E|5-------5-----------5----------|0-----------0-----------0------|
                                                          E9
e|------- 7------ ------- -------|------- ------- ------- -------|
B|--------7-------5--------------|------------------------7------|
G|--------7-------6--------------|------------------------7------|
D|--------7-----------7----------|------------------------6------|
A|-------------------------------|------------------------7------|
E|-------------------------------|-------------------------------|



        B  Bend
        R  Release
        /  slide up
        \  slide down
        H  hammer-on
        P  pull-off
        ~  vibrato
        +  harmonic
        x  Mute note
        . - play note like a dot in standard notation
        ^ - ties two notes together
        (. Pause

  ----------------------------------------------------------------

  THE BEATLES - MISERY (McCartney & Lennon) From PLEASE, PLEASE ME
                album. Released 22nd March 1963.

  ----------------------------------------------------------------

  Tabbed by:PJVillanueva

  The world is treating me bad... Misery.

  I'm the kind of guy,
  Who never used to cry,
  The world is treatin' me bad... Misery!

  I've lost her now for sure,
  I won't see her no more,
  It's gonna be a drag... Misery!

  I'll remember all the little things we've done
  Can't she see she'll always be the only one, only one.

  Send hewr back to me,
  'Cause everyone can see
  Without her I will be in misery

  I'll remember all the little things we've done.
  She'll remember and she'll miss her only one, lonely one.

  Send her back to me,
  'Cause everyone can see,
  Without her I will be in misery (oh oh oh)
  In misery (ooh ee ooh ooh)
  My misery (la la la la la la)


                                  F
e|------- ------- ------- -------|1------ ------- ------- -------|
B|-------------------------------|1------------------------------|
G|-------------------------------|2------------------------------|
D|-------------------------------|3------------------------------|
A|-------------------------------|3------------------------------|
E|-------------------------------|1------------------------------|
The
e|------- ------- ------- -------|----1-- ------- ------- -------|
B|-------------------------------|---1---------------------------|
G|-------------------------------|--2----------------------------|
D|-------------------------------|-3-----------------------------|
A|-------------------------------|-------------------------------|
E|-------------------------------|1------------------------------|


                                  G
e|------- ------- ------- -------|3------ ------- ------- -------|
B|-------------------------------|3------------------------------|
G|-------------------------------|4------------------------------|
D|-------------------------------|5------------------------------|
A|-------------------------------|5------------------------------|
E|-------------------------------|3------------------------------|
  world       is  treating    me  bad
e|------- ------- ------- -------|------- ------- ------- -------|
B|-------------------------------|-------------------------------|
G|-------------------------------|-------------------------------|
D|-------------------------------|-------------------------------|
A|-------------------------------|-------------------------------|
E|----------------0-----1-----2--|3------------------------------|

  C                               Am              G
e|0------ ------- ------- -------|0------ ----0-- 3---3-- 3------|
B|1------------------------------|1-----------1---3---3---3------|
G|0------------------------------|2-----------2---0---0---0------|
D|2------------------------------|2-----------2---0---0---0------|
A|3------------------------------|0-----------0---2---2---2------|
E|3------------------------------|----------------3---3---3------|
  Misery
e|0------ ------- ------- -------|------- ------- ------- -------|
B|1------------------------------|-------------------------------|
G|0------------------------------|-------------------------------|
D|2------------------------------|-------------------------------|
A|3-----------------------------/|7------/7---7---5---5----------|
E|3-----------------------------/|5------/5---5---3---3---5---5--|

  C                               F
e|0------ 0---0-- ----0-- 0------|1------ 1---1-- ------- 1---1--|
B|1-------1---1-------1---1------|1-------1---1-----------1---1--|
G|0-------0---0-------0---0------|2-------2---2-----------2---2--|
D|2-------2---2-------2---2------|3-------3---3-----------3---3--|
A|3-------3---3-------3---3------|3-------3---3-----------3---3--|
E|3-------3---3-------3---3------|1-------1---1-----------1---1--|
  I'm         the kind        of  guy                         who
e|------- ------- ------- -------|------- ------- ------- -------|
B|1-------1-------1-------1---1--|1-------3-------1-------3------|
G|0-------2-------0-------2---0--|2-------2-------2-------2------|
D|2-------2-------2-------2---2--|3-------3-------3-------3------|
A|-------------------------------|-------------------------------|
E|-------------------------------|-------------------------------|


  C                               F
e|0------ 0---0-- ----0-- 0------|1------ 1---1-- ------- 1---1--|
B|1-------1---1-------1---1------|1-------1---1-----------1---1--|
G|0-------0---0-------0---0------|2-------2---2-----------2---2--|
D|2-------2---2-------2---2------|3-------3---3-----------3---3--|
A|3-------3---3-------3---3------|3-------3---3-----------3---3--|
E|3-------3---3-------3---3------|1-------1---1-----------1---1--|
  never          used         to  cry                         the
e|------- ------- ------- -------|------- ------- ------- -------|
B|--------1-------1-------1---1--|--------3---1-----------3---1--|
G|--------2-------0-------2---0--|--------2---2-----------2---2--|
D|--------2-------2-------2---2--|--------3---3-----------3---3--|
A|-------------------------------|-------------------------------|
E|-------------------------------|-------------------------------|


                                  G
e|1------ 1---1-- ----1-- 1------|3------ 3---3-- ------- 3---3--|
B|1-------1---1-------1---1------|3-------3---3-----------3---3--|
G|2-------2---2-------2---2------|4-------4---4-----------4---4--|
D|3-------3---3-------3---3------|5-------5---5-----------5---5--|
A|3-------3---3-------3---3------|5-------5---5-----------5---5--|
E|1-------1---1-------1---1------|3-------3---3-----------3---3--|
  world       is  treating    me  bad
e|------- ------- ------- -------|------- ------- ------- -------|
B|1-------3---1---1-------3---1--|3-------5---3---3-------5---3--|
G|2-------2---2---2-------2---2--|4-------4---4---4-------4---4--|
D|3-------3---3---3-------3---3--|5-------5---5---5-------5---5--|
A|-------------------------------|-------------------------------|
E|-------------------------------|-------------------------------|


  C                                       Am
e|0------ 0---0-- 0---0-- 0------|------- 0---0-- 0------ 0------|
B|1-------1---1---1---1---1------|--------1---1---1-------1------|
G|0-------0---0---0---0---0------|--------2---2---2-------2------|
D|2-------2---2---2---2---2------|--------2---2---2-------2------|
A|3-------3---3---3---3---3------|--------0---0---0-------0------|
E|3-------3---3---3---3---3------|-------------------------------|
  Misery                                                      I've
e|------- ------- ------- -------|------- ------- ------- -------|
B|1-------1-------1-------1---1--|--------1---1---1-------1------|
G|0-------2-------0-------2---0--|--------2---2---2-------2------|
D|2-------2-------2-------2---2--|--------2---2---2-------2------|
A|-------------------------------|-------------------------------|
E|-------------------------------|-------------------------------|


  C                               F
e|0------ 0---0-- 0------ 0------|1------ 1---1-- 1------ 1------|
B|1-------1---1---1-------1------|1-------1---1---1-------1------|
G|0-------0---0---0-------0------|2-------2---2---2-------2------|
D|2-------2---2---2-------2------|3-------3---3---3-------3------|
A|3-------3---3---3-------3------|3-------3---3---3-------3------|
E|3-------3---3---3-------3------|1-------1---1---1-------1------|
  lost        her now         for sure                        I
e|------- ------- ------- -------|------- ------- ------- -------|
B|--------1-------1-------1---1--|--------3-------1-------3---1--|
G|--------2-------0-------2---0--|--------2-------2-------2---2--|
D|--------2-------2-------2---2--|--------3-------3-------3---3--|
A|-------------------------------|-------------------------------|
E|-------------------------------|-------------------------------|


  C                               F
e|0------ 0---0-- 0------ 0------|1------ 1---1-- ------- 1---1--|
B|1-------1---1---1-------1------|1-------1---1-----------1---1--|
G|0-------0---0---0-------0------|2-------2---2-----------2---2--|
D|2-------2---2---2-------2------|3-------3---3-----------3---3--|
A|3-------3---3---3-------3------|3-------3---3-----------3---3--|
E|3-------3---3---3-------3------|1-------1---1-----------1---1--|
  won't       see her         no  more                        It's
e|------- ------- ------- -------|------- ------- ------- -------|
B|--------1-------1---1---1------|--------3---1---1---1---3---1--|
G|--------2-------0---0---2------|--------2---2---2---2---2---2--|
D|--------2-------2---2---2------|--------3---3---3---3---3---3--|
A|-------------------------------|-------------------------------|
E|-------------------------------|-------------------------------|


                                  G
e|1------ 1---1-- 1------ 1---1--|3------ 3---3-- 3------ 3---3--|
B|1-------1---1---1-------1---1--|3-------3---3---3-------3---3--|
G|2-------2---2---2-------2---2--|4-------4---4---4-------4---4--|
D|3-------3---3---3-------3---3--|5-------5---5---5-------5---5--|
A|3-------3---3---3-------3---3--|5-------5---5---5-------5---5--|
E|1-------1---1---1-------1---1--|3-------3---3---3-------3---3--|
  gonna           be          a   drag
e|------- ------- ------- -------|------- ------- ------- -------|
B|1-------3---1---1-------3---1--|3---3---5-------3-------5---3--|
G|2-------2---2---2-------2---2--|4---4---4-------4-------4---4--|
D|3-------3---3---3-------3---3--|5---5---5-------5-------5---5--|
A|-------------------------------|-------------------------------|
E|-------------------------------|-------------------------------|


  C
e|0------ 0------ 0------ 0---0--|0------ 0---0-- 0---0-- 0------|
B|1-------1-------1-------1---1--|1-------1---1---1---1---1------|
G|0-------0-------0-------0---0--|0-------0---0---0---0---0------|
D|2-------2-------2-------2---2--|2-------2---2---2---2---2------|
A|3-------3-------3-------3---3--|3-------3---3---3---3---3------|
E|3-------3-------3-------3---3--|3-------3---3---3---3---3------|
  Misery
e|------- ------- ------- -------|------- ------- ------- -------|
B|--------1-------1-------1---1--|--------1-------1-------1---1--|
G|--------2-------0-------2---0--|--------2-------2-------2---0--|
D|--------2-------2-------2---2--|--------2-------2-------2---2--|
A|-------------------------------|-------------------------------|
E|-------------------------------|-------------------------------|

  Am
e|0------ 0---0-- 0------ 0------|0------ 0---0-- 0------ 0---0--|
B|1-------1---1---1-------1------|1-------1---1---1-------1---1--|
G|2-------2---2---2-------2------|2-------2---2---2-------2---2--|
D|2-------2---2---2-------2------|2-------2---2---2-------2---2--|
A|0-------0---0---0-------0------|0-------0---0---0-------0---0--|
E|-------------------------------|-------------------------------|
  I'll        remember            all         the little
e|------- ------- ------- -------|------- ------- ------- -------|
B|--------1---1-----------1---1--|--------1---1-----------1---1--|
G|--------2---2-----------2---2--|--------2---2-----------2---2--|
D|--------2---2-----------2---2--|--------2---2-----------2---2--|
A|--------0---0-----------0---0--|--------0---0-----------0---0--|
E|-------------------------------|-------------------------------|

  C
e|0------ 0------ 0------ 0---0--|0------ 0------ 0------ 0---0--|
B|1-------1-------1-------1---1--|1-------1-------1-------1---1--|
G|0-------0-------0-------0---0--|0-------0-------0-------0---0--|
D|2-------2-------2-------2---2--|2-------2-------2-------2---2--|
A|3-------3-------3-------3---3--|3-------3-------3-------3---3--|
E|3-------3-------3-------3---3--|3-------3-------3-------3---3--|
  things      we've done
e|------- ------- ------- -------|------- ------- ------- -------|
B|--------1---1-----------1---1--|--------1---1-----------1---1--|
G|--------0---0-----------0---0--|--------0---0-----------0---0--|
D|--------2---2-----------2---2--|--------2---2-----------2---2--|
A|-------------------------------|-------------------------------|
E|-------------------------------|-------------------------------|

e|------- ------- ------- -------|------- ------- ------- -------|
B|-------------------------------|8----10-9----------------------|
G|-------------------------------|-------------------------------|
D|-------------------------------|5-----8-7----12-10----9-7---5--|
A|-------------------------------|-------------------------------|
E|-------------------------------|-------------10--8----7-5---3--|

  Am
e|0------ 0---0-- 0------ 0---0--|0------ 0---0-- 0------ 0------|
B|1-------1---1---1-------1---1--|1-------1---1---1-------1------|
G|2-------2---2---2-------2---2--|2-------2---2---2-------2------|
D|2-------2---2---2-------2---2--|2-------2---2---2-------2------|
A|0-------0---0---0-------0---0--|0-------0---0---0-------0------|
E|-------------------------------|-------------------------------|
  Can't       she see        she'll always        be          the
e|------- ------- ------- -------|------- ------- ------- -------|
B|--------1---1-----------1---1--|--------1---1-----------1---1--|
G|--------2---2-----------2---2--|--------2---2-----------2---2--|
D|--------2---2-----------2---2--|--------2---2-----------2---2--|
A|--------0---0-----------0---0--|--------0---0-----------0---0--|
E|-------------------------------|-------------------------------|

e|------- ------- ------- -------|------- ------- ------- -------|
B|-------------------------------|-------------------------------|
G|-------------------------------|-------------------------------|
D|7------------------------------|-------------------------------|
A|-------------------------------|-------------------------------|
E|5------------------------------|-------------------------------|

  G
e|3------ 3---3-- ------- 3------|3------ 3---3-- ------- 3---3--|
B|3-------3---3-----------3------|3-------3---3-----------3---3--|
G|4-------4---4-----------4------|4-------4---4-----------4---4--|
D|5-------5---5-----------5------|5-------5---5-----------5---5--|
A|5-------5---5-----------5------|5-------5---5-----------5---5--|
E|3-------3---3-----------3------|3-------3---3-----------3---3--|
  only            one             only             one
e|------- ------- ------- -------|------- ------- ------- -------|
B|-------------------------------|-------------------------------|
G|-------------------------------|-------------------------------|
D|--------5---5-----------5---5--|--------5---5-----------5---5--|
A|--------5---5-----------5---5--|--------5---5-----------5---5--|
E|--------3---3-----------3---3--|--------3---3-----------3---3--|

e|------- ------- ------- -------|------- ------- ------- -------|
B|------------------------8------|------------------------8------|
G|-------------------------------|-------------------------------|
D|------------------------5------|------------------------5------|
A|-------------------------------|-------------------------------|
E|-------------------------------|-------------------------------|


  C                               F
e|0------ 0---0-- 0------ 0------|1------ 1---1-- 1------ 1------|
B|1-------1---1---1-------1------|1-------1---1---1-------1------|
G|0-------0---0---0-------0------|2-------2---2---2-------2------|
D|2-------2---2---2-------2------|3-------3---3---3-------3------|
A|3-------3---3---3-------3------|3-------3---3---3-------3------|
E|3-------3---3---3-------3------|1-------1---1---1-------1------|
  Send        her back        to  me                          'cause
e|------- ------- ------- -------|------- ------- ------- -------|
B|--------1-------1-------1---1--|----1---3---1---1---1---3---1--|
G|--------2-------0-------2---0--|----2---2---2---2---2---2---2--|
D|--------2-------2-------2---2--|----3---3---3---3---3---3---3--|
A|-------------------------------|-------------------------------|
E|-------------------------------|-------------------------------|


  C                               F
e|0------ 0---0-- 0---0-- 0------|1------ 1---1-- 1---1-- 1---1--|
B|1-------1---1---1---1---1------|1-------1---1---1---1---1---1--|
G|0-------0---0---0---0---0------|2-------2---2---2---2---2---2--|
D|2-------2---2---2---2---2------|3-------3---3---3---3---3---3--|
A|3-------3---3---3---3---3------|3-------3---3---3---3---3---3--|
E|3-------3---3---3---3---3------|1-------1---1---1---1---1---1--|
  everyone                    can see                         with..
e|------- ------- ------- -------|------- ------- ------- -------|
B|--------1-------1-------1---1--|--------3---1---1---1---3---1--|
G|--------2-------0-------2---0--|--------2---2---2---2---2---2--|
D|--------2-------2-------2---2--|--------3---3---3---3---3---3--|
A|-------------------------------|-------------------------------|
E|-------------------------------|-------------------------------|


                                  G
e|1------ 1---1-- 1---1-- 1------|3------ 3---3-- 3------ 3------|
B|1-------1---1---1---1---1------|3-------3---3---3-------3------|
G|2-------2---2---2---2---2------|4-------4---4---4-------4------|
D|3-------3---3---3---3---3------|5-------5---5---5-------5------|
A|3-------3---3---3---3---3------|5-------5---5---5-------5------|
E|1-------1---1---1---1---1------|3-------3---3---3-------3------|
  out         her I       will    be                      in
e|------- ------- ------- -------|------- ------- ------- -------|
B|--------3-------1-------3---1--|----3---5-------3-------5------|
G|--------2-------2-------2---2--|----4---4-------4-------4------|
D|--------3-------3-------3---3--|----5---5-------5-------5------|
A|-------------------------------|-------------------------------|
E|-------------------------------|-------------------------------|


  C
e|0------ 0---0-- 0------ 0---0--|0------ 0---0-- 0------ 0------|
B|1-------1---1---1-------1---1--|1-------1---1---1-------1------|
G|0-------0---0---0-------0---0--|0-------0---0---0-------0------|
D|2-------2---2---2-------2---2--|2-------2---2---2-------2------|
A|3-------3---3---3-------3---3--|3-------3---3---3-------3------|
E|3-------3---3---3-------3---3--|3-------3---3---3-------3------|
  Misery
e|------- ------- ------- -------|------- ------- ------- -------|
B|----1---1-------1-------1---1--|----1---1-------1-------1---1--|
G|----0---2-------0-------2---0--|----0---2-------0-------2---0--|
D|----2---2-------2-------2---2--|----2---2-------2-------2---2--|
A|-------------------------------|-------------------------------|
E|-------------------------------|-------------------------------|

  Am
e|0------ 0------ 0---0-- 0------|0------ 0---0-- 0---0-- 0---0--|
B|1-------1-------1---1---1------|1-------1---1---1---1---1---1--|
G|2-------2-------2---2---2------|2-------2---2---2---2---2---2--|
D|2-------2-------2---2---2------|2-------2---2---2---2---2---2--|
A|0-------0-------0---0---0------|0-------0---0---0---0---0---0--|
E|-------------------------------|-------------------------------|
  I'll        remember            all         the little
e|------- ------- ------- -------|------- ------- ------- -------|
B|-------------------------------|-------------------------------|
G|-------------------------------|-------------------------------|
D|--------7---7-----------7---7--|--------7---7-----------7---7--|
A|--------7---7-----------7---7--|--------7---7-----------7---7--|
E|--------5---5-----------5---5--|--------5---5-----------5---5--|

  C
e|0------ 0------ 0------ 0---0--|0------ 0---0-- 0------ 0---0--|
B|1-------1-------1-------1---1--|1-------1---1---1-------1---1--|
G|0-------0-------0-------0---0--|0-------0---0---0-------0---0--|
D|2-------2-------2-------2---2--|2-------2---2---2-------2---2--|
A|3-------3-------3-------3---3--|3-------3---3---3-------3---3--|
E|3-------3-------3-------3---3--|3-------3---3---3-------3---3--|
  things      we've done
e|------- ------- ------- -------|------- ------- ------- -------|
B|-------------------------------|-------------------------------|
G|--------5---5-----------5---5--|--------5---5-----------5---5--|
D|--------5---5-----------5---5--|--------5---5-----------5---5--|
A|--------3---3-----------3---3--|--------3---3-----------3---3--|
E|-------------------------------|-------------------------------|

e|------- ------- ------- -------|------- ------- ------- -------|
B|-------------------------------|8----10-9----------------------|
G|-------------------------------|-------------------------------|
D|-------------------------------|5-----8-7----12-10----9-7---5--|
A|-------------------------------|-------------------------------|
E|-------------------------------|-------------10--8----7-5---3--|

  Am
e|0------ 0---0-- 0------ 0---0--|0------ 0------ ------- -------|
B|1-------1---1---1-------1---1--|1-------1----------------------|
G|2-------2---2---2-------2---2--|2-------2----------------------|
D|2-------2---2---2-------2---2--|2-------2----------------------|
A|0-------0---0---0-------0---0--|0-------0----------------------|
E|-------------------------------|-------------------------------|
  She'll      remember            and         she'll miss     her
e|------- ------- ------- -------|------- ------- ------- -------|
B|-------------------------------|-------------------------------|
G|-------------------------------|-------------------------------|
D|--------7---7-----------7---7--|--------7---7-------7---7---7--|
A|--------7---7-----------7---7--|--------7---7-------7---7---7--|
E|--------5---5-----------5---5--|--------5---5-------5---5---5--|

e|------- ------- ------- -------|------- ------- ------- -------|
B|-------------------------------|-------------------------------|
G|-------------------------------|-------------------------------|
D|7------------------------------|-------------------------------|
A|-------------------------------|-------------------------------|
E|5------------------------------|-------------------------------|

          G
e|------- 3---3-- ------- 3------|------- 3---3-- ------- 3---3--|
B|--------3---3-----------3------|--------3---3-----------3---3--|
G|--------4---4-----------4------|--------4---4-----------4---4--|
D|--------5---5-----------5------|--------5---5-----------5---5--|
A|--------5---5-----------5------|--------5---5-----------5---5--|
E|--------3---3-----------3------|--------3---3-----------3---3--|
  only            one             lonely           one
e|------- ------- ------- -------|------- ------- ------- -------|
B|-------------------------------|-------------------------------|
G|-------------------------------|-------------------------------|
D|--------5---5-----------5---5--|--------5---5-------5---5---5--|
A|--------5---5-----------5---5--|--------5---5-------5---5---5--|
E|--------3---3-----------3---3--|--------3---3-------3---3---3--|

e|------- ------- ------- -------|------- ------- ------- -------|
B|------------------------8------|------------------------8------|
G|-------------------------------|-------------------------------|
D|------------------------5------|------------------------5------|
A|-------------------------------|-------------------------------|
E|-------------------------------|-------------------------------|


  C                               F
e|0------ 0------ 0---0-- 0------|1------ 1---1-- 1---1-- 1------|
B|1-------1-------1---1---1------|1-------1---1---1---1---1------|
G|0-------0-------0---0---0------|2-------2---2---2---2---2------|
D|2-------2-------2---2---2------|3-------3---3---3---3---3------|
A|3-------3-------3---3---3------|3-------3---3---3---3---3------|
E|3-------3-------3---3---3------|1-------1---1---1---1---1------|
  Send        her back        to  me                          'cause
e|------- ------- ------- -------|------- ------- ------- -------|
B|--------1-------1---1---1------|-------------------------------|
G|--------2-------0---0---2------|-------------------------------|
D|--------2-------2---2---2------|-------------------------------|
A|-------------------------------|-------------------------------|
E|-------------------------------|-------------------------------|


  C                               F
e|0------ 0------ 0---0-- 0------|1------ 1---1-- 1---1-- 1---1--|
B|1-------1-------1---1---1------|1-------1---1---1---1---1---1--|
G|0-------0-------0---0---0------|2-------2---2---2---2---2---2--|
D|2-------2-------2---2---2------|3-------3---3---3---3---3---3--|
A|3-------3-------3---3---3------|3-------3---3---3---3---3---3--|
E|3-------3-------3---3---3------|1-------1---1---1---1---1---1--|
  everyone                    can see                         with..
e|------- ------- ------- -------|------- ------- ------- -------|
B|----1---1-------1-------1---1--|-------------------------------|
G|----0---2-------0-------2---0--|-------------------------------|
D|----2---2-------2-------2---2--|-------------------------------|
A|-------------------------------|-------------------------------|
E|-------------------------------|-------------------------------|

                                  G
e|1---1-- 1------ 1------ 1---1--|3---3-- 3------ 3------ 3---3--|
B|1---1---1-------1-------1---1--|3---3---3-------3-------3---3--|
G|2---2---2-------2-------2---2--|4---4---4-------4-------4---4--|
D|3---3---3-------3-------3---3--|5---5---5-------5-------5---5--|
A|3---3---3-------3-------3---3--|5---5---5-------5-------5---5--|
E|1---1---1-------1-------1---1--|3---3---3-------3-------3---3--|
  out         her I       will    be                      in
e|------- ------- ------- -------|------- ------- ------- -------|
B|-------------------------------|-------------------------------|
G|-------------------------------|-------------------------------|
D|----3---3-------3-------3---3--|----5---5-------5-------5---5--|
A|----3---3-------3-------3---3--|----5---5-------5-------5---5--|
E|----1---1-------1-------1---1--|----3---3-------3-------3---3--|

  C                               Am
e|0------ 0------ 0------ 0------|0------ 0------ 0---0-- 0------|
B|1-------1-------1-------1------|1-------1-------1---1---1------|
G|0-------0-------0-------0------|2-------2-------2---2---2------|
D|2-------2-------2-------2------|2-------2-------2---2---2------|
A|3-------3-------3-------3------|0-------0-------0---0---0------|
E|3-------3-------3-------3------|-------------------------------|
  Misery                          Oh,                     in
e|------- ------- ------- -------|------- ------- ------- -------|
B|--------1-------1-------1---1--|-------------------------------|
G|--------2-------0-------2---0--|------------2-----------2---2--|
D|--------2-------2-------2---2--|------------2-----------2---2--|
A|-------------------------------|------------0-----------0---0--|
E|-------------------------------|-------------------------------|

  C                               Am
e|0------ 0------ 0------ 0------|0------ 0---0-- ------- 0---0--|
B|1-------1-------1-------1------|1-------1---1-----------1---1--|
G|0-------0-------0-------0------|2-------2---2-----------2---2--|
D|2-------2-------2-------2------|2-------2---3-----------2---2--|
A|3-------3-------3-------3------|0-------0---0-----------0---0--|
E|3-------3-------3-------3------|-------------------------------|
  Misery                          Oooooooooooohhhhhhhhhh  my
e|------- ------- ------- -------|------- ------- ------- -------|
B|----1---1-------1-------1---1--|-------------------------------|
G|----0---2-------0-------2---0--|--------2---2-----------2---2--|
D|----2---2-------2-------2---2--|--------2---2-----------2---2--|
A|-------------------------------|--------0---0-----------0---0--|
E|-------------------------------|-------------------------------|

  C                               Am
e|0------ 0------ 0------ 0------|0------ 0---0-- 0---0-- 0------|
B|1-------1-------1-------1------|1-------1---1---1---1---1------|
G|0-------0-------0-------0------|2-------2---2---2---2---2------|
D|2-------2-------2-------2------|2-------2---2---2---2---2------|
A|3-------3-------3-------3------|0-------0---0---0---0---0------|
E|3-------3-------3-------3------|-------------------------------|
  Misery                          La   la   la    la    la    la
e|------- ------- ------- -------|------- ------- ------- -------|
B|----1---1-------1-------1---1--|-------------------------------|
G|----0---2-------0-------2---0--|--------2---2-----------2---2--|
D|----2---2-------2-------2---2--|--------2---2-----------2---2--|
A|-------------------------------|--------0---0-----------0---0--|
E|-------------------------------|-------------------------------|
  .............................Fade..............................


  C                               Am
e|0------ 0------ 0------ 0------|0------ 0------ 0---0-- 0------|
B|1-------1-------1-------1------|1-------1-------1---1---1------|
G|0-------0-------0-------0------|2-------2-------2---2---2------|
D|2-------2-------2-------2------|2-------2-------2---2---2------|
A|3-------3-------3-------3------|0-------0-------0---0---0------|
E|3-------3-------3-------3------|-------------------------------|
  Misery
e|------- ------- ------- -------|------- ------- ------- -------|
B|----1---1-------1-------1---1--|-------------------------------|
G|----0---2-------0-------2---0--|--------2---2-----------2---2--|
D|----2---2-------2-------2---2--|--------2---2-----------2---2--|
A|-------------------------------|--------0---0-----------0---0--|
E|-------------------------------|-------------------------------|
  .......................


        B  Bend
        R  Release
        /  slide up
        \  slide down
        H  hammer-on
        P  pull-off
        ~  vibrato
        +  harmonic
        x  Mute note
        . - play note like a dot in standard notation
        ^ - ties two notes together
        (. Pause

  -------------------------------------------------------------

  THE BEATLES - ANNA (Go To Him) (Alexander) From PLEASE PLEASE
                ME album. Released on March, 22nd 1963.

  -------------------------------------------------------------

  Tabbed by:PJVillanueva

  The song is a cover from Arthur Alexander, also author of
  A SHOT OF RHYTHM AND BLUES, YOU BETTER MOVE ON and SOLDIER
  OF LOVE, among other hits. This version by The Beatles is
  more defined than the original, which also had a string
  arrangement . The Beatles recorded it at a higher pitch for
  John, who, although at first sounds as If he's got a cold,
  delivers a great vocal part, more varied and confident than
  Alexander's and with some very smart rhythm changes too.
  This, like the rest of the covers on PLEASE PLEASE ME (ANNA,
  BOYS, CHAINS and TWIST AND SHOUT) were recorded live without
  any overdubs, with the exception of the celesta recorded by
  Martin on BABY IT'S YOU, to reinforce its guitar solo.

  Anna, you come and ask me girl
  To set you free, girl
  You say he loves you more than me
  So I will set you free
  Go with him, go with him

  Anna, girl, before you go now
  I want you to know now
  That I still love you so
  But if he loves you more, go with him

  All of my life I've been searching for a girl
  To love me like I love you. Oh, now

  But every girl I've ever had breaks my heart
  And leaves me sad, what am I
  What am I supposed to do oh, oh, oh

  Anna, just one more thing, girl
  You give back your ring to me
  And I will set you free, go with him

  All of my life I've been searching for a girl
  To love me like I love you

  Cause let me tell you now
  But every girl I've ever had breaks my heart
  And leaves me sad, what am I
  What am I suppose to do oh, oh, oh

  Anna, just one more thing, girl
  You give back your ring to me
  And I will set you free,
  Go with him, go with him
  You can go with him, girl, go with him

    INTRO
                                                                x

  e|------- ------- ------- -------|------- ------- ------- -------|
  B|-------------------------------|-------------------------------|
  G|-------------------------------|-------------------------------|
  D|-------------------------------|-------------------------------|
  A|-------------------------------|-------------------------------|
  E|-------------------------------|-------------------------------|

    D                               Bm
  e|2---2-- ----2-- ----2-- 2------|2---2-- ----2-- 2---2-- 2------|
  B|3---3-------3-------3---3---3--|3---3-------3---3---3---3---3--|
  G|2---2-------2-------2---2---2--|4---4-------4---4---4---4---4--|
  D|0---0-------0-------0---0---0--|4---4-------4---4---4---4---4--|
  A|-------------------------------|2---2-------2---2---2---2---2--|
  E|-------------------------------|-------------------------------|

  e|------- ------2 ------- -------|------- ------- ------- -------|
  B|------------3---3--------------|-------------------------------|
  G|--------------------2---3---4--|------------3---4---3---4---3--|
  D|-------------------------------|-------------------------------|
  A|-------------------------------|-------------------------------|
  E|-------------------------------|-------------------------------|

    D                               Bm
  e|2---2-- ----2-- ----2-- 2------|2------ ----2-- 2---2-- 2------|
  B|3---3-------3-------3---3------|3-----------3---3---3---3---3--|
  G|2---2-------2-------2---2------|4-----------4---4---4---4---4--|
  D|0---0-------0-------0---0------|4-----------4---4---4---4---4--|
  A|-------------------------------|2-----------2---2---2---2---2--|
  E|-------------------------------|-------------------------------|

  e|------- ------2 ------- -------|------- ------- ------- -------|
  B|------------3---3--------------|-------------------------------|
  G|2-------------------2---3---4--|------------3---4---3---4---3--|
  D|-------------------------------|-------------------------------|
  A|-------------------------------|-------------------------------|
  E|-------------------------------|-------------------------------|

    VERSE
    00:09

  e|2------ ----2-- ----2-- 2------|2---2-- 2---2-- ----2-- 2------|
  B|3-----------3-------3---3---3--|3---3---3---3-------3---3------|
  G|2-----------2-------2---2---2--|4---4---4---4-------4---4------|
  D|0-----------0-------0---0---0--|4---4---4---4-------4---4------|
  A|-------------------------------|2---2---2---2-------2---2------|
  E|-------------------------------|-------------------------------|
    Anna                                        you come    ask
                                                        and
  e|------- ------2 ------- -------|------- ------- ------- -------|
  B|------------3---3--------------|-------------------------------|
  G|2-------------------2---3---4--|------------3---4---3---4---3--|
  D|-------------------------------|-------------------------------|
  A|-------------------------------|-------------------------------|
  E|-------------------------------|-------------------------------|


  e|2------ ----2-- 2---2-- 2------|2------ ----2-- ----2-- 2------|
  B|3-----------3---3---3---3---3--|3-----------3-------3---3---3--|
  G|2-----------2---2---2---2---2--|4-----------4-------4---4---4--|
  D|0-----------0---0---0---0---0--|4-----------4-------4---4---4--|
  A|-------------------------------|2-----------2-------2---2---2--|
  E|-------------------------------|-------------------------------|
    me, girl                                    to  set     you
  e|------- ------2 ------- -------|------- ------- ------- -------|
  B|------------3---3--------------|-------------------------------|
  G|2-------------------2---3---4--|------------3---4---3---4---3--|
  D|-------------------------------|-------------------------------|
  A|-------------------------------|-------------------------------|
  E|-------------------------------|-------------------------------|


                                                REFRAIN

  e|2---2-- ----2-- 2---2-- 2------|2------ ----2-- ----2-- 2------|
  B|3---3-------3---3---3---3---3--|3-----------3-------3---3------|
  G|2---2-------2---2---2---2---2--|4-----------4-------4---4------|
  D|0---0-------0---0---0---0---0--|4-----------4-------4---4------|
  A|-------------------------------|2-----------2-------2---2------|
  E|-------------------------------|-------------------------------|
    free,                                       You say he  loves
        girl                                                    you
  e|------- ------2 ------- -------|------- ------- ------- -------|
  B|------------3---3--------------|-------------------------------|
  G|2-------------------2---3---4--|------------3---4---3---4---3--|
  D|-------------------------------|-------------------------------|
  A|-------------------------------|-------------------------------|
  E|-------------------------------|-------------------------------|

    D           Bm              Em              A
  e|2---2-- ----2-- ----2-- 2---0--|----0-- 0---0-- ----0-- 0------|
  B|3---3-------3-------3---3---0--|----0---0---2-------2---2------|
  G|2---2-------4-------4---4---0--|----0---0---2-------2---2------|
  D|0---0-------4-------4---4---2--|----2---2---2-------2---2------|
  A|------------2-------2---2---2--|----2---2---0-------0---0------|
  E|----------------------------0--|----0---0----------------------|
    more        me      so  I       set you     free.       Go  with
        than                    will
  e|------- ------- ------- -------|------- ------- ------- -------|
  B|-------------------------------|-------------------------------|
  G|2-----------4---------------0--|--------0---0H2-----2---2------|
  D|-------------------------------|-------------------------------|
  A|-------------------------------|-------------------------------|
  E|-------------------------------|-------------------------------|


                                    INTERLUDE
    D                               Bm
  e|2---2-- ----2-- 2---2-- 2------|2------ ----2-- 2---2-- 2------|
  B|3---3-------3---3---3---3------|3-----------3---3---3---3------|
  G|2---2-------2---2---2---2------|4-----------4---4---4---4------|
  D|0---0-------0---0---0---0------|4-----------4---4---4---4------|
  A|-------------------------------|2-----------2---2---2---2------|
  E|-------------------------------|-------------------------------|
    him.                                                    Go  with
                               (Anna)
  e|------- ------2 ------- -------|------- ------- ------- -------|
  B|------------3---3--------------|-------------------------------|
  G|--------------------2---3------|4-----------3---4---3---4---3--|
  D|-------------------------------|-------------------------------|
  A|-------------------------------|-------------------------------|
  E|-------------------------------|-------------------------------|

    D                               Bm
  e|2---2-- ----2-- 2---2-- 2------|2------ ----2-- ----2-- 2---2--|
  B|3---3-------3---3---3---3---3--|3-----------3-------3---3---3--|
  G|2---2-------2---2---2---2---2--|4-----------4-------4---4---4--|
  D|0---0-------0---0---0---0---0--|4-----------4-------4---4---4--|
  A|-------------------------------|2-----------2-------2---2---2--|
  E|-------------------------------|-------------------------------|
    him.
                               (Anna)
  e|------- ------2 ------- -------|------- ------- ------- -------|
  B|------------3---3--------------|-------------------------------|
  G|--------------------2---3------|4-----------3---4---3---4---3--|
  D|-------------------------------|-------------------------------|
  A|-------------------------------|-------------------------------|
  E|-------------------------------|-------------------------------|

    VERSE
    00:35

  e|2------ 2---2-- ----2-- 2------|2------ 2---2-- ----2-- 2---2--|
  B|3-------3---3-------3---3---3--|3-------3---3-------3---3---3--|
  G|2-------2---2-------2---2---2--|4-------4---4-------4---4---4--|
  D|0-------0---0-------0---0---0--|4-------4---4-------4---4---4--|
  A|-------------------------------|2-------2---2-------2---2---2--|
  E|-------------------------------|-------------------------------|
    Anna,                                       girl,   before  you
  e|------- ------2 ------- -------|------- ------- ------- -------|
  B|------------3---3--------------|-------------------------------|
  G|--------------------2---3---4--|------------3---4---3---4---3--|
  D|-------------------------------|-------------------------------|
  A|-------------------------------|-------------------------------|
  E|-------------------------------|-------------------------------|


  e|2------ 2---2-- 2---2-- 2------|2---2-- 2---2-- ----2-- 2---2--|
  B|3-------3---3---3---3---3---3--|3---3---3---3-------3---3---3--|
  G|2-------2---2---2---2---2---2--|4---4---4---4-------4---4---4--|
  D|0-------0---0---0---0---0---0--|4---4---4---4-------4---4---4--|
  A|-------------------------------|2---2---2---2-------2---2---2--|
  E|-------------------------------|-------------------------------|
    go  now                                     I   want    you to
  e|------- ------2 ------- -------|------- ------- ------- -------|
  B|------------3---3--------------|-------------------------------|
  G|--------------------2---3---4--|------------3---4---3---4---3--|
  D|-------------------------------|-------------------------------|
  A|-------------------------------|-------------------------------|
  E|-------------------------------|-------------------------------|


                                                REFRAIN

  e|2------ 2---2-- 2---2-- 2------|2------ 2---2-- ----2-- 2------|
  B|3-------3---3---3---3---3---3--|3-------3---3-------3---3------|
  G|2-------2---2---2---2---2---2--|4-------4---4-------4---4------|
  D|0-------0---0---0---0---0---0--|4-------4---4-------4---4------|
  A|-------------------------------|2-------2---2-------2---2------|
  E|-------------------------------|-------------------------------|
    know now                                    that        still
                                                    I
  e|------- ------2 ------- -------|------- ------- ------- -------|
  B|------------3---3--------------|-------------------------------|
  G|--------------------2---3---4--|------------3---4---3---4---3--|
  D|-------------------------------|-------------------------------|
  A|-------------------------------|-------------------------------|
  E|-------------------------------|-------------------------------|


  e|2------ ----2-- 2---2-- 2---0--|0------ 0---0-- ----0-- 0------|
  B|3-----------3---3---3---3---0--|0-------0---2-------2---2------|
  G|2-----------4---4---4---4---0--|0-------0---2-------2---2------|
  D|0-----------4---4---4---4---2--|2-------2---2-------2---2------|
  A|------------2---2---2---2---2--|2-------2---0-------0---0------|
  E|----------------------------0--|0-------0----------------------|
    love        so,     but If  he  loves       more        go  with
        you                             you
  e|------- ------- ------- -------|------- ------- ------- -------|
  B|-------------------------------|0------------------------------|
  G|2---------------------------0--|--------0---2-------2---2------|
  D|------------4------------------|-------------------------------|
  A|-------------------------------|-------------------------------|
  E|-------------------------------|-------------------------------|


  e|2------ 2---2-- ----2-- 2------|2------ 2---2-- 2---2-- 2------|
  B|3-------3---3-------3---3------|3-------3---3---3---3---3------|
  G|2-------2---2-------2---2------|2-------2---2---2---2---2------|
  D|0-------0---0-------0---0------|0-------0---0---0---0---0------|
  A|-------------------------------|-------------------------------|
  E|-------------------------------|-------------------------------|
    him.
  e|2------ ----2-- ------- ----2--|2------ 2------ ------- -------|
  B|3-----------3---------------3--|3-------3----------------------|
  G|2-----------2---------------2--|2-------2----------------------|
  D|0-----------0---------------0--|0-------0----------------------|
  A|-------------------------------|-------------------------------|
  E|-------------------------------|-------------------------------|

    MIDDLE SIXTEEN
    00:57
    G
  e|3------ 3------ 3---3-- 3------|3------ 3---3-- ----3-- 3------|
  B|3-------3-------3---3---3------|3-------3---3-------3---3------|
  G|0-------0-------0---0---0------|0-------0---0-------0---0------|
  D|0-------0-------0---0---0------|0-------0---0-------0---0------|
  A|2-------2-------2---2---2------|2-------2---2-------2---2------|
  E|3-------3-------3---3---3------|3-------3---3-------3---3------|
                    All of  my  life                        I've
                                                                been
  e|------- ----7-- ------- 7------|------- ----7-- ------- 7------|
  B|------------8-----------8------|------------8-----------8------|
  G|------------7-----------7------|------------7-- ------- 7------|
  D|------------9-----------9------|------------9-----------9------|
  A|-------------------------------|-------------------------------|
  E|-------------------------------|-------------------------------|


  e|3------ 3---3-- 3------ 3---3--|3------ 3---3-- ----3-- 3------|
  B|3-------3---3---3-------3---3--|3-------3---3-------3---3------|
  G|0-------0---0---0-------0---0--|0-------0---0-------0---0------|
  D|0-------0---0---0-------0---0--|0-------0---0-------0---0------|
  A|2-------2---2---2-------2---2--|2-------2---2-------2---2------|
  E|3-------3---3---3-------3---3--|3-------3---3-------3---3------|
    searching           for a   girl                            to
  e|------- ----7-- ------- 7------|------- ----7-- ------- 7------|
  B|------------8-----------8------|------------8-----------8------|
  G|------------7-----------7------|------------7-- ------- 7------|
  D|------------9-----------9------|------------9-----------9------|
  A|-------------------------------|-------------------------------|
  E|-------------------------------|-------------------------------|

    D
  e|2------ 2---2-- 2---2-- 2---2--|2------ 2---2-- 2---2-- 2------|
  B|3-------3---3---3---3---3---3--|3-------3---3---3---3---3------|
  G|2-------2---2---2---2---2---2--|2-------2---2---2---2---2------|
  D|0-------0---0---0---0---0---0--|0-------0---0---0---0---0------|
  A|-------------------------------|-------------------------------|
  E|-------------------------------|-------------------------------|
    love                    like    I                       love
        me
  e|------- ----5-- ------- 5------|------- ----5-- ------- 5------|
  B|------------7-----------7------|------------7-----------7------|
  G|------------7-----------7------|------------7-----------7------|
  D|------------7-----------7------|------------7-----------7------|
  A|------------5-----------5------|------------5-----------5------|
  E|-------------------------------|-------------------------------|
        me

  e|2------ 2---2-- 2---2-- 2---2--|2---2-- 2------ 2------ 2------|
  B|3-------3---3---3---3---3---3--|3---3---3-------3-------3------|
  G|2-------2---2---2---2---2---2--|2---2---2-------2-------2------|
  D|0-------0---0---0---0---0---0--|0---0---0-------0-------0------|
  A|-------------------------------|-------------------------------|
  E|-------------------------------|-------------------------------|
    you.                                        Oh, now
  e|------- ----5-- ------- 5------|------- ------- ------- -------|
  B|------------7-----------7------|--------3-------5-------7------|
  G|------------7-----------7------|-------------------------------|
  D|------------7-----------7------|--------4-------5-------7------|
  A|------------5-----------5------|-------------------------------|
  E|-------------------------------|-------------------------------|

    G
  e|3------ 3---3-- 3------ 3------|3------ 3---3-- ----3-- 3---3--|
  B|3-------3---3---3-------3------|3-------3---3-------3---3---3--|
  G|0-------0---0---0-------0------|0-------0---0-------0---0---0--|
  D|0-------0---0---0-------0------|0-------0---0-------0---0---0--|
  A|2-------2---2---2-------2------|2-------2---2-------2---2---2--|
  E|3-------3---3---3-------3------|3-------3---3-------3---3---3--|
                But     every girl      I've   ever had
  e|------- ----7-- ------- 7------|------- ----7-- ------- 7------|
  B|------------8-----------8------|------------8-----------8------|
  G|------------7-----------7------|------------7-- ------- 7------|
  D|------------9-----------9------|------------9-----------9------|
  A|-------------------------------|-------------------------------|
  E|-------------------------------|-------------------------------|


  e|3---3-- ----3-- 3------ 3------|3------ 3---3-- 3---3-- 3------|
  B|3---3-------3---3-------3------|3-------3---3---3---3---3------|
  G|0---0-------0---0-------0------|0-------0---0---0---0---0------|
  D|0---0-------0---0-------0------|0-------0---0---0---0---0------|
  A|2---2-------2---2-------2------|2-------2---2---2---2---2------|
  E|3---3-------3---3-------3------|3-------3---3---3---3---3------|
                breaks my heart and  leave  me   sad
  e|------- ----7-- ------- -------|------- ----7-- ------- 7------|
  B|------------8------------------|------------8-------8---8------|
  G|------------7------------------|------------7-- ----7-- 7------|
  D|------------9------------------|------------9-------9---9------|
  A|-------------------------------|-------------------------------|
  E|-------------------------------|-------------------------------|

    E
  e|0---0-- 0------ 0------ 0---0--|0------ 0---0-- ------- 0------|
  B|0---0---0-------0-------0---0--|0-------0---0-----------0------|
  G|1---1---1-------1-------1---1--|1-------1---1-----------1------|
  D|2---2---2-------2-------2---2--|2-------2---2-----------2------|
  A|2---2---2-------2-------2---2--|2-------2---2-----------2------|
  E|0---0---0-------0-------0---0--|0-------0---0-----------0------|
              what            what              supposed        to
               am I            am I
  e|------- ----7-- ------- 7------|------- ----7-- ------- 7------|
  B|------------9-----------9------|------------9-----------9------|
  G|------------9-----------9------|------------9-----------9------|
  D|------------9-----------9------|------------9-----------9------|
  A|------------7-----------7------|------------7-----------7------|
  E|-------------------------------|-------------------------------|

    A
  e|0------ 0---0-- 0------ 0---0--|0---0-- 0------ 0---0-- 0------|
  B|2-------2---2---2-------2---2--|2---2---2-------2---2---2------|
  G|2-------2---2---2-------2---2--|2---2---2-------2---2---2------|
  D|2-------2---2---2-------2---2--|2---2---2-------2---2---2------|
  A|0-------0---0---0-------0---0--|0---0---0-------0---0---0------|
  E|-------------------------------|-------------------------------|
    do.                             Oh, oh,     oh, oh, oh,     oh
  e|------- ----5-- ------- 5------|------- ----5-- ------- 5--- --|
  B|------------5-----------5------|------------5-----------5------|
  G|------------6-----------6------|------------6-----------6------|
  D|------------7-----------7------|------------7-----------7------|
  A|------------7-----------7------|------------7-----------7------|
  E|------------5-----------5------|------------5-----------5------|

    VERSE/REFRAIN
    01:31
    Anna, just one more thing, girl
    You give back your ring to me
    And I will set you free, go with him

    MIDDLE SIXTEEN
    01:49
    All of my life I've been searching for a girl
    To love me like I love you
    But let me tell you now
    But every girl I've ever had breaks my heart
    And leaves me sad, what am I
    What am I suppose to do oh, oh, oh

    CODA
    02:23
    Anna, just one more thing, girl
    You give back your ring to me
    And I will set you free,
    Go with him, go with him
    You can go with him, girl, go with him.



        B  Bend
        R  Release
        /  Slide up
        \  Slide down
        H  Hammer-on
        P  Pull-off
        ~  Vibrato
        +  Harmonic
        x  Mute note
        .  Play note like a dot in standard notation
        ^  Ties two notes together
        (. Pause

  ------------------------------------------------------------------

  THE BEATLES - CHAINS (Goffin & King) From PLEASE, PLEASE ME album.
                Released on 22nd March 1963.

  ------------------------------------------------------------------

  Tabbed by:PJVillanueva

  Chains, my baby's got me locked up in chains.
  And they ain't the kind that you can see.
  Whoah, oh, these chains of love got a hold on me, yeah.

  Chains, well I can't break away from these chains.
  Can't run around, 'cause I'm not free.
  Whoah, oh, these chains of love won't let me be, yeah.

  I wanna tell you, pretty baby,
  I think you're fine.
  I'd like to love you,
  But, darlin', I'm imprisoned by these...

  Chains, my baby's got me locked up in chains,
  And they ain't the kind that you can see,
  Oh, oh, these chains of love got a hold on me.

  Please believe me when I tell you,
  Your lips are sweet.
  I'd like to kiss them,
  But I can't break away from all of these...

  Chains, my baby's got me locked up in chains.
  And they ain't the kind that you can see.
  Whoah, oh, these chains of love got a hold on me, yeah.

  Chains, chains of love ...


                 (Use a capo on the first fret)


    INTRO

    A
  e|5----- 5----- 5----- ------|5---5- ----5- 5----- ------|
  B|5------5------5------------|5---5------5--5------------|
  G|6------6------6------------|6---6------6--6------------|
  D|7------7------7------------|7---7------7--7------------|
  A|7------7------7------------|7---7------7--7------------|
  E|5------5------5------------|5---5------5--5------------|

  e|5----- 5----- 5----- ----5-|----5- ------ 5----- ------|
  B|5------5------5----------5-|----5---------5------------|
  G|6------6------6----------6-|----6---------6------------|
  D|7------7------7----------7-|----7---------7------------|
  A|7------7------7----------7-|----7---------7------------|
  E|5------5------5----------5-|----5---------5------------|

    VERSE
    00:07

  e|5----- 5----- 5----- ------|5----- 5----- 5----- 5-----|
  B|5------5------5------------|5------5------5------5-----|
  G|6------6------6------------|6------6------6------6-----|
  D|7------7------7------------|7------7------7------7-----|
  A|7------7------7------------|7------7------7------7-----|
  E|5------5------5------------|5------5------5------5-----|
    Chains,                 my  baby's        got    me

  e|------ 5----- 5----- ----5-|------ 5----- 5----- ------|
  B|-------5------5----------5-|-------5------5------------|
  G|-------6------6----------6-|-------6------6------------|
  D|-------7------7----------7-|-------7------7------------|
  A|-------7------7----------7-|-------7------7------------|
  E|-------5------5----------5-|-------5------5------------|
    locked in  chains.                 And    ain't  the
        up                                 they


    D7sus2
  e|5----- 5----- 5----- ----5-|------ 5----- 5----- ------|
  B|5------5------5----------5-|-------5------5------------|
  G|5------5------5----------5-|-------5------5------------|
  D|7------7------7----------7-|-------7------7------------|
  A|5------5------5----------5-|-------5------5------------|
  E|---------------------------|---------------------------|
    kind                               that   you    can

    A
  e|5----- 5----- 5----- ----5-|------ 5----- 5----- ------|
  B|5------5------5----------5-|-------5------5------------|
  G|6------6------6----------6-|-------6------6------------|
  D|7------7------7----------7-|-------7------7------------|
  A|7------7------7----------7-|-------7------7------------|
  E|5------5------5----------5-|-------5------5------------|
    see                                Woah,  oh,    these

    E7sus2                      D7sus2
  e|7----- ------ 7----- ------|5----- ------ 5----- ------|
  B|7-------------7------------|5-------------5------------|
  G|7-------------7------------|5-------------5------------|
  D|9-------------9------------|7-------------7------------|
  A|7-------------7------------|5-------------5------------|
  E|---------------------------|---------------------------|
    chains of     love                 got    hold   on
                                           a


    A                               E
  e|5----- 5----- 5----- 5-----|5---0- 0---0- 0---0- 0-----|
  B|5------5------5------5-----|5---0--0---0--0---0--0-----|
  G|6------6------6------6-----|6---1--1---1--1---1--1-----|
  D|7------7------7------7-----|7---2--2---2--2---2--2-----|
  A|7------7------7------7-----|7---2--2---2--2---2--2-----|
  E|5------5------5------5-----|5---0--0---0--0---0--0-----|
    me,           yeah


    VERSE
    00:29
    A      A13 A
  e|5----- 5---5- ----5- 5-----|5----- 5----- 5----- 5-----|
  B|5------7---5------5--5-----|5------5------5------5-----|
  G|6------6---6------6--6-----|6------6------6------6-----|
  D|7------5---7------7--7-----|7------7------7------7-----|
  A|7------7---7------7--7-----|7------7------7------7-----|
  E|5------5---7------5--5-----|5------5------5------5-----|
    Chains,                  well      can't  break  away
                                I


                         A13 A
  e|------ 5----- 5---5- 5---5-|----5- 5----- 5----- 5-----|
  B|-------5------5---5--7---5-|----5--5------5------5-----|
  G|-------6------6---6--6---6-|----6--6------6------6-----|
  D|-------7------7---7--5---7-|----7--7------7------7-----|
  A|-------7------7---7--7---7-|----7--7------7------7-----|
  E|-------5------5---5--5---5-|----5--5------5------5-----|
        from   chains.                 Can't  run    around
           these

           D7  D7sus2    D7  D7sus2
  e|------ 5---5- ----5- 5---5-|------ 5----- 5----- ------|
  B|-------7---5------5--7---5-|-------5------5------------|
  G|-------5---5------5--5---5-|-------5------5------------|
  D|-------7---7------7--7---7-|-------7------7------------|
  A|-------5---5------5--5---5-|-------5------5------------|
  E|---------------------------|---------------------------|
                                      'cause  I'm    not

    A                    A13 A
  e|5----- 5---5- 5---5- 5---5-|------ ------ 5----- 5-----|
  B|5------5---5--5---5--7---5-|--------------5------5-----|
  G|6------6---6--6---6--6---6-|--------------6------6-----|
  D|7------7---7--7---7--5---7-|--------------7------7-----|
  A|7------7---7--7---7--7---7-|--------------7------7-----|
  E|5------5---5--5---5--5---5-|--------------5------5-----|
    free.                              Whoah, oh,    these

    E7sus2                      D7sus2
  e|7----- ------ 7----- ------|5----- ------ ------ ------|
  B|7-------------7------------|5--------------------------|
  G|7-------------7------------|5--------------------------|
  D|9-------------9------------|7--------------------------|
  A|7-------------7------------|5--------------------------|
  E|---------------------------|---------------------------|
    chains of     love                 won't  let    me

    A                               A7
  e|5----- 5---5- 5----- ------|----5- 5---5- 5---5- 5-----|
  B|5------5---5--5------------|----8--8---8--8---8--8-----|
  G|6------6---6--6------------|----6--6---6--6---6--6-----|
  D|7------7---7--7------------|----5--5---5--5---5--5-----|
  A|7------7---7--7------------|----7--7---7--7---7--7-----|
  E|5------5---5--5------------|----5--5---5--5---5--5-----|
    be,           yeah.

    BRIDGE
    00:51
    D          D7sus2    D   D7sus2    D   D7sus2 D      A
  e|5----- 5---5- ----5- 5---5-|----5- 5---5- ----5- 5---5-|
  B|7------7---5------5--7---5-|----5--7---5------7--7---5-|
  G|7------7---5------5--7---5-|----5--7---5------7--7---6-|
  D|7------7---7------7--7---7-|----7--7---7------7--7---7-|
  A|5------5---5------5--5---5-|----5--5---5------5--5---7-|
  E|---------------------------|-------------------------5-|
        I  wanna  tell   pretty baby,
                      you,

           A13 A         A13 A         A13 A7        A13 A
  e|----5- 5---5- ----5- 5---5-|----5- 5---5- ----55 5---5-|
  B|----5--7---5------5--7---5-|----5--7---8------88\7---5-|
  G|----6--6---6------6--6---6-|----6--6---6------66-6---6-|
  D|----7--5---7------7--5---7-|----7--5---5------55-5---5-|
  A|----7--7---7------7--7---7-|----7--7---7------77-7---7-|
  E|----5--5---5------5--5---5-|----5--5---5------55-5---5-|
           I          think  you're
                                fine.

    D          D7sus2    D   D7sus2    D   D7sus2 D
  e|5----- 5---5- ------ 5---5-|------ 5---5- ----5- 5-----|
  B|7------7---5---------7---5-|-------7---5------7--7-----|
  G|7------7---5---------7---5-|-------7---5------7--7-----|
  D|7------7---7---------7---7-|-------7---7------7--7-----|
  A|5------5---5---------5---5-|-------5---5------5--5-----|
  E|---------------------------|---------------------------|
           I'd    like   to         love   you,          But,

           E
  e|------ 7----- ------ 7-----|------ 7----- ------ ------|
  B|-------9-------------9-----|-------9-------------------|
  G|-------9-------------9-----|-------9-------------------|
  D|-------9-------------9-----|-------9-------------------|
  A|-------7-------------7-----|-------7-------------------|
  E|---------------------------|---------------------------|
    darlin',      I'm    imprisoned           by     these


    VERSE
    01:06
    A
  e|5----- 5----- 5----- ------|5----- 5----- 5----- 5-----|
  B|5------5------5------------|5------5------5------5-----|
  G|6------6------6------------|6------6------6------6-----|
  D|7------7------7------------|7------7------7------7-----|
  A|7------7------7------------|7------7------7------7-----|
  E|5------5------5------------|5------5------5------5-----|
    Chains,                  my baby's        got    me

                         A13 A
  e|------ 5----- 5---5- 5---5-|------ 5----- 5----- ------|
  B|-------5------5---5--7---5-|-------5------5------------|
  G|-------6------6---6--6---6-|-------6------6------------|
  D|-------7------7---7--5---7-|-------7------7------------|
  A|-------7------7---7--7---7-|-------7------7------------|
  E|-------5------5---5--5---5-|-------5------5------------|
    locked in chains.                  And they      the
        up                                    ain't

           D7  D7sus2    D7  D7sus2
  e|------ 5---5- ----5- 5---5-|------ 5----- 5----- 5-----|
  B|-------7---5------5--7---5-|-------5------5------5-----|
  G|-------5---5------5--5---5-|-------5------5------5-----|
  D|-------7---7------7--7---7-|-------7------7------7-----|
  A|-------5---5------5--5---5-|-------5------5------5-----|
  E|---------------------------|---------------------------|
    kind                               that   you    can


    A                    A13 A
  e|5----- 5---5- 5---5- 5---5-|----5- 5----- 5----- ------|
  B|5------5---5--5---5--7---5-|----5--5------5------------|
  G|6------6---6--6---6--6---6-|----6--6------6------------|
  D|7------7---7--7---7--5---7-|----7--7------7------------|
  A|7------7---7--7---7--7---7-|----7--7------7------------|
  E|5------5---5--5---5--5---5-|----5--5------5------------|
    see                                Woah,  oh,    these

    E7sus2                      D7sus2
  e|7----- 7----- 7----- ------|5----- ------ 5----- ------|
  B|7------7------7------------|5-------------5------------|
  G|7------7------7------------|5-------------5------------|
  D|9------9------9------------|7-------------7------------|
  A|7------7------7------------|5-------------5------------|
  E|---------------------------|---------------------------|
    chains of     love                 got a  hold   on

    A                               A7
  e|5----- 5----- 5----- 5-----|----5- 5---5- 5----- 5-----|
  B|5------5------5------5-----|----8--8---8--8------8-----|
  G|6------6------6------6-----|----6--6---6--6------6-----|
  D|7------7------7------7-----|----5--5---5--5------5-----|
  A|7------7------7------7-----|----7--7---7--7------7-----|
  E|5------5------5------5-----|----5--5---5--5------5-----|
    me,           yeah


    BRIDGE
    01:28
    D          D7sus2    D   D7sus2    D   D7sus2 D      Am
  e|5----- 5---5- ------ 5---5-|----5- 5---5- ----5- 5---5---|
  B|7------7---5---------7---5-|----5--7---5------7--7---5---|
  G|7------7---5---------7---5-|----5--7---5------7--7---5---|H
  D|7------7---7---------7---7-|----7--7---7------7--7---7---|
  A|5------5---5---------5---5-|----5--5---5------5--5---7---|
  E|---------------------------|-------------------------5---|
           Please     me when       tell   you,
               believe       I

    A      A13 A         A13 A         A13 A7        A13 A
  e|----5- 5---5- ----5- 5---5-|----5- 5---5- ----55 5---5-|
  B|----5--7---5------5--7---5-|----5--7---8------88\7---5-|
  G|6---6--6---6------6--6---6-|----6--6---6------66-6---6-|
  D|----7--5---7------7--5---7-|----7--5---5------55-5---5-|
  A|----7--7---7------7--7---7-|----7--7---7------77-7---7-|
  E|----5--5---5------5--5---5-|----5--5---5------55-5---5-|
           Your       lips   are
                                sweet.


                  D
    D          D7sus2        D7sus2    D   D7sus2 D      D7sus2
  e|5----- 5---5- 5----- 5---5-|----5- 5---5- ----5- 5---5-|
  B|7------7---5--7------7---5-|----5--7---5------7--7---5-|
  G|7------7---5--7------7---5-|----5--7---5------7--7---7-|
  D|7------7---7--7------7---7-|----7--7---7------7--7---7-|
  A|5------5---5--5------5---5-|----5--5---5------5--5---5-|
  E|---------------------------|---------------------------|
           I'd    like   to         kiss   them,         but

                                            E
    E          E7sus2    E   E7sus2    E   E7sus2
  e|7----- 7---7- 7----- 7---7-|7----- 7---7- 7----- ------|
  B|9------9---7--9------9---7-|9------9---7--9------------|
  G|9------9---7--9------9---7-|9------9---7--9------------|
  D|9------9---9--9------9---9-|9------9---9--9------------|
  A|7------7---7--7------7---7-|7------7---7--7------------|
  E|---------------------------|---------------------------|
    I      can't  break  away          from   all of these


    VERSE
    01:43
    A
  e|5----- 5----- 5---5- ----5-|5----- 5----- 5----- 5-----|
  B|5------5------5---5------5-|5------5------5------5-----|
  G|6------6------6---6------6-|6------6------6------6-----|
  D|7------7------7---7------7-|7------7------7------7-----|
  A|7------7------7---7------7-|7------7------7------7-----|
  E|5------5------5---5------5-|5------5------5------5-----|
    Chains,                  my baby's        got    me


  e|------ 5----- 5---5- 5---5-|----5- 5----- 5----- ------|
  B|-------5------5---5--7---5-|----5--5------5------------|
  G|-------6------6---6--6---6-|----6--6------6------------|
  D|-------7------7---7--5---7-|----7--7------7------------|
  A|-------7------7---7--7---7-|----7--7------7------------|
  E|-------5------5---5--5---5-|----5--5------5------------|
    locked in  chains.                 And they      the
        up                                    ain't

           D7  D7sus2    D7  D7sus2
  e|------ 5---5- ----5- 5---5-|----5- 5----- 5----- 5-----|
  B|-------7---5------5--7---5-|----5--5------5------5-----|
  G|-------5---5------5--5---5-|----5--5------5------5-----|
  D|-------7---7------7--7---7-|----7--7------7------7-----|
  A|-------5---5------5--5---5-|----5--5------5------5-----|
  E|---------------------------|---------------------------|
    kind                               that   you    can

    A                    A13 A
  e|5----- 5---5- 5----- 5---5-|------ 5----- 5----- ------|
  B|5------5---5--5------7---5-|-------5------5------------|
  G|6------6---6--6------6---6-|-------6------6------------|
  D|7------7---7--7------5---7-|-------7------7------------|
  A|7------7---7--7------7---7-|-------7------7------------|
  E|5------5---5--5------5---5-|-------5------5------------|
    see                                Woah,  oh,    these

    E7sus2                      D7sus2
  e|7----- ----7- 7----- ------|5----- ------ 5----- 5-----|
  B|7----------7--7------------|5-------------5------5-----|
  G|7----------7--7------------|5-------------5------5-----|
  D|9----------9--9------------|7-------------7------7-----|
  A|7----------7--7------------|5-------------5------5-----|
  E|---------------------------|---------------------------|
    chains of     love                 got a  hold   on

           A                        E
  e|------ 5----- 5----- 5-----|----0- 0---0- 0---0- 0-----|
  B|-------5------5------5-----|----0--0---0--0---0--0-----|
  G|-------6------6------6-----|----1--1---1--1---1--1-----|
  D|-------7------7------7-----|----2--2---2--2---2--2-----|
  A|-------7------7------7-----|----2--2---2--2---2--2-----|
  E|-------5------5------5-----|----0--0---0--0---0--0-----|
    me,           yeah


   CODA
   02:05
   A
  e|5----- 5----- 5----- ----5-|------ 5----- 5----- ------|
  B|5------5------5----------5-|-------5------5------------|
  G|6------6------6----------6-|-------6------6------------|
  D|7------7------7----------7-|-------7------7------------|
  A|7------7------7----------7-|-------7------7------------|
  E|5------5------5----------5-|-------5------5------------|
    Chains,                                   chains of

  e|------ ----5- ----5- ----5-|------ 5----- 5----- ------|
  B|-----------5------5------5-|-------5------5------------|
  G|-----------6------6------6-|-------6------6------------|
  D|-----------7------7------7-|-------7------7------------|
  A|-----------7------7------7-|-------7------7------------|
  E|-----------5------5------5-|-------5------5------------|
    love                                      Chains of

  e|------ 5----- 5----- ----5-|------ 5----- 5----- ------|
  B|-------5------5----------5-|-------5------5------------|
  G|-------6------6----------6-|-------6------6------------|
  D|-------7------7----------7-|-------7------7------------|
  A|-------7------7----------7-|-------7------7------------|
  E|-------5------5----------5-|-------5------5------------|
    Love                                      Chains of

    D                           Dm
  e|5----- 5----- 5----- 5-----|5----- 5----- 5----- 5-----|
  B|7------7------7------7-----|6------6------6------6-----|
  G|7------7------7------7-----|7------7------7------7-----|
  D|7------7------7------7-----|7------7------7------7-----|
  A|5------5------5------5-----|5------5------5------5-----|
  E|---------------------------|---------------------------|
    Love
    ........................ Fade .........................

    A

  e|5----- 5----- 5----- ------|------ ------ ------ ------|
  B|5------5------5------------|---------------------------|
  G|6------6------6------------|---------------------------|
  D|7------7------7------------|---------------------------|
  A|7------7------7------------|---------------------------|
  E|5------5------5------------|---------------------------|
    ..............



        B  Bend
        R  Release
        /  slide up
        \  slide down
        H  hammer-on
        P  pull-off
        ~  vibrato
        +  harmonic
        x  Mute note
        . - play note like a dot in standard notation
        ^ - ties two notes together
        (. Pause

  ----------------------------------------------------------

  THE BEATLES - BOYS (Dixon & Farrell) From PLEASE PLEASE ME
                album. Released on March, 22nd 1963.

  ----------------------------------------------------------

  Tabbed by:PJVillanueva


  Pete Best singed this, so Ringo should have the number too.
  Another Shirelles cover, for long in their act, The Beatles
  made another rocker of this number. Ringo gives an energetic
  vocal delivery, but among the strong and original points are
  George's E chord on the dowmbeats in stop time (he seems to
  be muting D and G strings), and that fine double-stop solo.
  (rockabilly really was George's thing). John's guitar doubles
  Paul's bass on the choruses and solo.


  I been told when a boy kiss a girl,
  Take a trip around the world,
  Hey, hey, (bop shuop, m'bop bop shuop)
  Hey, hey, (bop shuop, m'bop bop shuop)
  Hey, hey, (bop shuop) yeah, she say you do. (Bop shuop)

  My girl says when I kiss her lips,
  Gets a thrill through her fingertips,
  Hey, hey, (bop shuop, m'bop bop shuop)
  Hey, hey, (bop shuop, m'bop bop shuop)
  Hey, hey, (bop shuop) yeah, she say you do. (Bop shuop)

  Well, I talk about boys,
  Don't you know I mean boys,
  Well, I talk about boys, now,
  Aaaaahhh, boys,
  Well, I talk about boys, now,
  What a bundle of joy! (Allright, George!)

  My girl says when I kiss her lips,
  Gets a thrill through her fingertips,
  Hey, hey, (bop shuop, m'bop bop shuop)
  Hey, hey, (bop shuop, m'bop bop shuop)
  Hey, hey, (bop shuop) yeah, she say you do. (Bop shuop)

  Well, I talk about boys,
  Don't you know I mean boys,
  Well, I talk about boys, now,
  Aaaaaaaaaaaaaaaaaaaahhh
  Well, I talk about boys, now,
  What a bundle of joy!
  Woah, woah, uuuh, yeaaaaaaahhh, boys (yeah yeah, boys)
  Don't you know I mean boys (yeah yeah, boys)
  Wooooooooooooohhh, boys (yeah yeah, boys)
  Aaaaaaaaaaaaaaahaaaaa (yeah yeah, boys)
  Well, I talk about boys, now


    INTRO

    4/4 time

                                                        x   x   x

  e|------- ------- ------- -------|------- ------- ------- -------|
  B|-------------------------------|-------------------------------|
  G|-------------------------------|-------------------------------|
  D|-------------------------------|-------------------------------|
  A|-------------------------------|-------------------------------|
  E|-------------------------------|--------------------4---5---6--|


            B7                      A7
  e|------- 7------ 7---7-- 7------|5------ 5------ 5------ 3------|
  B|-------10------10--10--10------|8-------8-------8-------8------|
  G|--------8-------8---8---8------|6-------6-------6-------6------|
  D|--------x-------x---x---x------|x-------x-------x-------x------|
  A|--------9-------9---9---9------|7-------7-------7-------7------|
  E|--------7-------7---7---7------|5-------5-------5-------5------|

  e|------- ------- ------- -------|------- 5------ ----5-- -------|
  B|--------9-------7--------------|----------------3--------------|
  G|--------9-------7H8------------|-------------------------------|
  D|--------9-----------9----------|-------------------------------|
  A|-------------------------------|-------------------------------|
  E|7------------------------------|-------------------------------|


                                            x   x   X   x x x   x
            E       A       E           B
  e|------- 0------ 0------ 0------|----2-- 2---2-- 2---2-- 2------|
  B|--------0-------2-------0------|----4---4---4---4---4---4------|
  G|--------1-------2-------1------|----4---4---4---4---4---4------|
  D|--------2-------2-------2------|----4---4---4---4---4---4------|
  A|--------2-------0-------2------|----2---2---2---2---2---2------|
  E|--------0---------------0------|-------------------------------|

  e|------- 0------ ------- -------|------- ------- ------- -------|
  B|-------------------------------|-------------------------------|
  G|----------------4\2-0----------|----2---2---2---2---2---2------|
  D|------------------------2---0--|--------1---1---1---1---1------|
  A|-------------------------------|2-------2---2---2---2---2------|
  E|-------------------------------|-------------------------------|

    X                       xxx x   X                       xxx x
    00:07
    E5
  e|------- ------- ------- -------|------- ------- ------- -------|
  B|0------------------------------|0------------------------------|
  G|x------------------------------|x------------------------------|
  D|x------------------------------|x------------------------------|
  A|2------------------------------|2------------------------------|
  E|0------------------------------|0------------------------------|
    I       been    told    when    boy     kiss
                                a             a girl

    X                               x x x x x x x x x x x x x   x

  e|0------ ------- ------- -------|------- ------- ------- -------|
  B|0------------------------------|-------------------------------|
  G|x------------------------------|-------------------------------|
  D|x------------------------------|-------------------------------|
  A|2------------------------------|----------------2---2----------|
  E|0------------------------------|----------------0---0----------|
            Take    trip        around      the world,  Hey
                a
    00:13
            A       G   A   G               A       G   A
  e|------- 9------ 7---9-- 7---7--|------- 9------ 7---9-- -------|
  B|-------10-------8--10---8---8--|-------10-------8--10----------|
  G|--------9-------7---9---7---7--|--------9-------7---9----------|
  D|-------------------------------|-------------------------------|
  A|-------------------------------|-------------------------------|
  E|-------------------------------|-------------------------------|
    hey                                                 Hey
           (bop     shuop,      m ' bop     bop     shuop)
  e|------- ------- ------- -------|------- ------- ------- -------|
  B|--------7-------5--------------|--------7-------5--------------|
  G|--------7-------6--------------|--------7-------6--------------|
  D|--------7-----------7----------|--------7-----------7----------|
  A|-------------------------------|-------------------------------|
  E|-------------------------------|-------------------------------|

            E       D   E                           D   E
  e|------- ------- ------- -------|------- ------- ------- -------|
  B|--------9-------7---9----------|9-------9-------7---9----------|
  G|--------9-------7---9----------|9-------9-------7---9----------|
  D|--------9-------7---9----------|9-------9-------7---9--------/-|
  A|-------------------------------|-----------------------------/-|
  E|-------------------------------|-----------------------------/-|
        hey                                             Hey
           (bop     shuop,      m ' bop     bop     shuop)
  e|------- ------- ------- -------|------- ------- ------- -------|
  B|--------2-------0--------------|--------2-------0--------------|
  G|--------2-------0--------------|--------2-------0--------------|
  D|--------2-----------2----------|--------2-----------2----------|
  A|-------------------------------|-------------------------------|
  E|-------------------------------|-------------------------------|

    B5      B7                      A7
  e|------- 7------ 7---7-- -------|5------ 5------ 5---5-- 5------|
  B|-------10------10--10----------|8-------8-------8---8---8------|
  G|--------8-------8---8----------|6-------6-------6---6---6------|
  D|9-------x-------x---x----------|x-------x-------x---x---x------|
  A|9-------9-------9---9----------|7-------7-------7---7---7------|
  E|7-------7-------7---7-------0--|5-------5-------5---5---5------|
    hey                             Yeah,           she say you do
           (bop     shuop,      m ' bop     bop     shuop)
  e|------- ------- ------- -------|------- ------- ------- -------|
  B|--------9-------7--------------|--------7-------5--------------|
  G|--------9-------8--------------|--------7-------6--------------|
  D|--------9-----------9----------|--------7-----------7----------|
  A|-------------------------------|-------------------------------|
  E|-------------------------------|-------------------------------|


                                        x x x x x x x x x x x   x

  e|0------ 0------ 0---0-- ----0--|----7-- 7---7-- 7---7-- 7------|
  B|0-------0-------0---0-------0--|----7---7---7---7---7---7------|
  G|1-------1-------1---1-------1--|----8---8---8---8---8---8------|
  D|2-------2-------2---2-------2--|----9---9---9---9---9---9------|
  A|2-------2-------2---2-------2--|----9---9---9---9---9---9------|
  E|0-------0-------0---0-------0--|----7---7---7---7---7---7------|
           (bop     shuop)
  e|------- ------- ------- -------|------- ------- ------- -------|
  B|--------2-------0--------------|-------------------------------|
  G|--------2-------0--------------|-------------------------------|
  D|--------2-----------2----------|-------------------------------|
  A|------------------------------/|9-----------9-------9---9------|
  E|------------------------------/|7-----------7-------7---7------|


    00:26
    X                       xxx x   X                       xxx x

  e|------- ------- ------- -------|------- ------- ------- -------|
  B|0------------------------------|0------------------------------|
  G|x------------------------------|x------------------------------|
  D|x------------------------------|x------------------------------|
  A|2------------------------------|2------------------------------|
  E|0------------------------------|0------------------------------|
    My      girl    says    when        kiss    lips
                                I           her

    X                               x x     x x x x x x x x x  x

  e|------- ------- ------- -------|------- ------- ------- -------|
  B|0------------------------------|-------------------------------|
  G|1------------------------------|--------1---1---1-------1------|
  D|2------------------------------|--------2---2---2-------2------|
  A|2------------------------------|--------2---2---2-------2------|
  E|0------------------------------|--------0---0---0-------0------|
            Gets    thrill  through fingertips,         Hey
                a               her
  e|------- ------- ------- -------|------- ------- ------- -------|
  B|0------------------------------|-------------------------------|
  G|x------------------------------|------------1-----------1------|
  D|x------------------------------|----0---------------0----------|
  A|2------------------------------|0H2----------------------------|
  E|0------------------------------|-------------------------------|


    00:33

  e|------- 9------ 7---9-- 7---7--|------- 9------ 7---9-- -------|
  B|-------10-------8--10---8---8--|-------10-------8--10----------|
  G|--------9-------7---9---7---7--|--------9-------7---9----------|
  D|-------------------------------|-------------------------------|
  A|-------------------------------|-------------------------------|
  E|-------------------------------|-------------------------------|
    hey                                                 Hey
           (bop     shuop,      m ' bop     bop     shuop)
  e|------- ------- ------- -------|------- ------- ------- -------|
  B|--------7-------5--------------|--------7-------5--------------|
  G|--------7-------6--------------|--------7-------6--------------|
  D|--------7-----------7----------|--------7-----------7----------|
  A|-------------------------------|-------------------------------|
  E|-------------------------------|-------------------------------|


  e|------- ------- ------- -------|------- ------- ------- -------|
  B|--------9-------7---9---7---7--|--------9-------7---9----------|
  G|--------9-------7---9---7---7--|--------9-------7---9----------|
  D|--------9-------7---9---7---7--|--------9-------7---9----------|
  A|-------------------------------|------------------------------/|
  E|-------------------------------|------------------------------/|
    hey                                                 Hey
           (bop     shuop,      m ' bop     bop     shuop)
  e|------- ------- ------- -------|------- ------- ------- -------|
  B|--------2-------0--------------|--------2-------0--------------|
  G|--------2-------0--------------|--------2-------0--------------|
  D|--------2-----------2----------|--------2-----------2----------|
  A|-------------------------------|-------------------------------|
  E|-------------------------------|-------------------------------|


  e|------- 7------ 7---7-- -------|5------ 5------ 5---5-- 5------|
  B|-------10------10--10----------|8-------8-------8---8---8------|
  G|--------8-------8---8----------|6-------6-------6---6---6------|
  D|x-------x-------x---x-------x--|x-------x-------x---x---x------|
  A|9-------9-------9---9-------x--|7-------7-------7---7---7------|
  E|7-------7-------7---7-------x--|5-------5-------5---5---5------|
    hey                             Yeah,           she say you do
           (bop     shuop,      m ' bop     bop     shuop)
  e|------- ------- ------- -------|------- ------- ------- -------|
  B|-------------------------------|-------------------------------|
  G|-------------------------------|-------------------------------|
  D|-------------------------------|-------------------------------|
  A|9-------9-------9---9-------x--|7-------7-------7---7---7------|
  E|7-------7-------7---7-------x--|5-------5-------5---5---5------|


  e|0------ 0------ 0---0-- ----0--|----7-- 7---7-- 7---7-- 7------|
  B|0-------0-------0---0-------0--|----7-- 7---7-- 7---7-- 7------|
  G|1-------1-------1---1-------1--|----8---8---8---8---8---8------|
  D|2-------2-------2---2-------2--|----9---9---9---9---9---9------|
  A|2-------2-------2---2-------2--|----9---9---9---9---9---9------|
  E|0-------0-------0---0-------0--|----7---7---7---7---7---7------|
                                        Well,   I   talk
           (bop     shuop)                              about
  e|------- ------- ------- -------|------- ------- ------- -------|
  B|-------------------------------|-------------------------------|
  G|-------------------------------|-------------------------------|
  D|-------------------------------|-------------------------------|
  A|2-------2-------2---2-------2--/9---9---9---9---9---9---9---9--|
  E|0-------0-------0---0-------0--/7---7---7---7---7---7---7---7--|


    00:46
    E
  e|------- ------- ------- -------|------- ------- ------- -------|
  B|-------------------------------|-------------------------------|
  G|-------------------------------|-------------------------------|
  D|----------------0---0----------|----------------0---0----------|
  A|------------2-----------4---2--|------------2-----------4---2--|
  E|0---0---4----------------------|0---0---4----------------------|
        boys                            Don't   you know    mean
           (Yeah,   yeah,       boys)                   I
  e|------- ------- ------- -------|------- ------- ------- -------|
  B|-------------------------------|-------------------------------|
  G|-------------------------------|-------------------------------|
  D|-------------------------------|-------------------------------|
  A|-------------------------------|-------------------------------|
  E|0---0--------------------------|0---0--------------------------|

  e|------- ------- ------- -------|------- ------- ------- -------|
  B|--------2-------0--------------|--------2-------0--------------|
  G|--------2-------1--------------|--------2-------0--------------|
  D|--------2-------2--------------|--------2-----------2----------|
  A|-------------------------------|-------------------------------|
  E|-------------------------------|-------------------------------|


  e|------- ------- ------- -------|------- ------- ------- -------|
  B|-------------------------------|-------------------------------|
  G|-------------------------------|-------------------------------|
  D|----------------0---0----------|----------------0---0----------|
  A|------------2-----------4---2--|------------2-----------4---2--|
  E|0---0---4----------------------|0---0---4----------------------|
        boys                            Well,       talk        boys
           (Yeah,   yeah,       boys)       I           about
  e|------- ------- ------- -------|------- ------- ------- -------|
  B|-------------------------------|-------------------------------|
  G|-------------------------------|-------------------------------|
  D|-------------------------------|-------------------------------|
  A|-------------------------------|----------------------------0--|
  E|0---0--------------------------|0---0-------0-------0---0------|

  e|------- ------- ------- -------|------- ------- ------- -------|
  B|--------2-------0--------------|--------2-------0--------------|
  G|--------2-------0--------------|--------2-------0--------------|
  D|--------2-----------2----------|--------2-----------2----------|
  A|-------------------------------|-------------------------------|
  E|-------------------------------|-------------------------------|

    A
  e|------- ------- ------- -------|------- ------- ------- -------|
  B|-------------------------------|-------------------------------|
  G|----------------0---0----------|----------------0---0----------|
  D|------------2-----------4---2--|------------2-----------4---2--|
  A|0---0---4----------------------|0---0---4----------------------|
  E|-------------------------------|-------------------------------|
        now                             Aaaaaaaaaaaaaaaaaaaaaaahhhh
           (Yeah,   yeah,       boys)
  e|------- ------- ------- -------|------- ------- ------- -------|
  B|-------------------------------|-------------------------------|
  G|-------------------------------|-------------------------------|
  D|-------------------------------|-------------------------------|
  A|----0--------------------------|0---0-------0---0---0----------|
  E|-------------------------------|-------------------------------|

  e|------- ------- ------- -------|------- ------- ------- -------|
  B|--------7-------5--------------|--------7-------5--------------|
  G|--------7-------6--------------|--------7-------6--------------|
  D|--------7-----------7----------|--------7-----------7----------|
  A|-------------------------------|-------------------------------|
  E|-------------------------------|-------------------------------|

    E
  e|------- ------- ------- -------|------- ------- ------- -------|
  B|-------------------------------|-------------------------------|
  G|-------------------------------|-------------------------------|
  D|----------------0---0----------|----------------0---0----------|
  A|------------2-----------4------|------------2-----------4---2--|
  E|0---0---4----------------------|0---0---4----------------------|
    boys                                    Well    talk        boys
           (Yeah,   yeah,       boys)           I       about
  e|------- ------- ------- -------|------- ------- ------- -------|
  B|-------------------------------|-------------------------------|
  G|-------------------------------|-------------------------------|
  D|-------------------------------|-------------------------------|
  A|-------------------------------|-------------------------------|
  E|0---0--------------------------|0---0-------0------------------|

  e|------- ------- ------- -------|------- 7------ ------- -------|
  B|--------2-------0--------------|--------0---0------------------|
  G|--------2-------1--------------|-------------------------------|
  D|--------2-----------2----------|-------------------------------|
  A|-------------------------------|--------------------2---4---5--|
  E|-------------------------------|--------------------4---5---6--|

    B                               A
  e|------- ------- ------- -------|------- ------- ------- -------|
  B|-------------------------------|-------------------------------|
  G|----------------2---2---1------|----------------0---0----------|
  D|--------1---4------------------|------------2-----------4---2--|
  A|2---2--------------------------|0---0---4----------------------|
  E|-------------------------------|-------------------------------|
        now                                 What    bundle  of  joy!
           (Yeah,   yeah,       boys)           a
  e|------- ------- ------- -------|------- ------- ------- -------|
  B|-------------------------------|-------------------------------|
  G|-------------------------------|-------------------------------|
  D|-------------------------------|-------------------------------|
  A|2---2-----------------------0--|0---0-------0------------------|
  E|-------------------------------|-------------------------------|

  e|------- ------- ------- -------|------- ------- ------- -------|
  B|-------------------------------|-------------------------------|
  G|-------------------------------|-------------------------------|
  D|-------------------------------|-------------------------------|
  A|6-------6-------------------6--|4-------4-------4---4----------|
  E|7-------7-------------------7--|5-------5-------5---5----------|


                                          x x x   x x x   x x   x
    E                               B5
  e|------- ------- ------- -------|------- ------- ------- -------|
  B|-------------------------------|-------------------------------|
  G|-------------------------------|4-------4-------4---4-------4--|
  D|----------------0---0----------|4-------4-------4---4-------4--|
  A|------------2-----------4---0--|2-------2-------2---2-------2--|
  E|0---0---4----------------------|-------------------------------|
                    Allright,   George!
  e|------- ------- ------- -------|------- ------- ------- -------|
  B|-------------------------------|-------------------------------|
  G|-------------------------------|-------------------------------|
  D|-------------------------------|-------------------------------|
  A|-------------------------------|-------------------------------|
  E|0---0--------------------------|-------------------------------|

  e|------- ------- ------- -------|------- ----3-- ------- -------|
  B|-------------------------------|--/-5---------/-5-/-5-----/-5--|
  G|-------------------------------|-------------------------------|
  D|-------------------------------|-------------------------------|
  A|-------------------------------|-------------------------------|
  E|-------------------------------|-------------------------------|


    SOLO
    01:06

  e|------- ------- ------- -------|------- ------- ------- -------|
  B|-------------------------------|-------------------------------|
  G|-------------------------------|-------------------------------|
  D|-------------------------------|-------------------------------|
  A|----------------2---2---0------|----------------2---2---0------|
  E|0---0---4---0---------------4--|0---0---4---0---------------4--|

  e|3------ ------- ----3-- -------|------- ------- ------- -------|
  B|------/-5-----/-5--------------|----3---3---3---3---3----------|
  G|-------------------------------|----4---4---4---4---4---4\2-0--|
  D|-------------------------------|-------------------------------|
  A|-------------------------------|-------------------------------|
  E|-------------------------------|-------------------------------|


  e|------- ------- ------- -------|------- ------- ------- -------|
  B|-------------------------------|-------------------------------|
  G|-------------------------------|-------------------------------|
  D|----------------0---0----------|----------------0---0----------|
  A|------------2-----------4---2--|------------2-----------4---2--|
  E|0---0---4----------------------|0---0---4----------------------|

  e|------- ------- ------- -------|---12-- -----12 12---12 12---12|
  B|-------------------------------|--------9-------10------11-----|
  G|-------------------------------|-------------------------------|
  D|2-------2----------------------|-------------------------------|
  A|-------------------------------|-------------------------------|
  E|-------------------------------|-------------------------------|


  e|------- ------- ------- -------|------- ------- ------- -------|
  B|-------------------------------|-------------------------------|
  G|----------------0---0----------|----------------0---0----------|
  D|------------2-----------4---2--|------------2-----------4---2--|
  A|0---0---4----------------------|0---0---4----------------------|
  E|-------------------------------|-------------------------------|

  e|------- ------- ---15b- ---15b-|15b---- ------- ------- -------|
  B|12-----------------14b-----14b-|14b------------------------14b-|
  G|-------------------------------|---------------------------14b-|
  D|-------------------------------|-------------------------------|
  A|-------------------------------|-------------------------------|
  E|-------------------------------|-------------------------------|


  e|------- ------- ------- -------|------- ------- ------- -------|
  B|-------------------------------|-------------------------------|
  G|-------------------------------|-------------------------------|
  D|----------------0---0----------|----------------0---0----------|
  A|------------2-----------4---2--|------------2-----------4---2--|
  E|0---0---4----------------------|0---0---4----------------------|

  e|------- ------- ------- -------|------- ------- ------- -------|
  B|14b---14b---14b----/-12--------|-------------------------------|
  G|14b---14b---14b----/-13--------|-------------------------------|
  D|---------------------------14--|14-----------------------------|
  A|-------------------------------|-------------------------------|
  E|-------------------------------|-------------------------------|


  e|------- ------- ------- -------|------- ------- ------- -------|
  B|-------------------------------|-------------------------------|
  G|----------------2---2---1------|----------------0---0----------|
  D|--------1---4---------------4--|------------2-----------4---2--|
  A|2---2--------------------------|0---0---4----------------------|
  E|-------------------------------|-------------------------------|

  e|------- 12----- 12----- 12-----|12----- 12----- ------- -------|
  B|12------12------12------12-----|12------12---------------------|
  G|15B16---16------16------16-----|16-----R15-----1514-12---------|
  D|-------------------------------|-----------------\------14-----|
  A|-------------------------------|-------------------------------|
  E|-------------------------------|-------------------------------|


                                                      x x x x   x

  e|------- ------- ------- -------|------- ------- ------- -------|
  B|-------------------------------|-------------------------------|
  G|-------------------------------|----4---4---4---4--------------|
  D|----------------0---0----------|----4---4---4---4--------------|
  A|------------2-----------4---0--|----2---2---2---2--------------|
  E|0---0---4----------------------|-------------------------------|

  e|------- 0------ ------- -------|------- ------- ------- -------|
  B|--------0-----0-0-----0-0-----0|0-----0------------------------|
  G|----------------3-------2------|0------------------------------|
  D|-------------------------------|--------2-------0--------------|
  A|-------------------------------|------------------------2------|
  E|-------------------------------|-------------------------------|


    01:26

  e|------- ------- ------- -------|------- ------- ------- -------|
  B|0------------------------------|0------------------------------|
  G|x------------------------------|x------------------------------|
  D|x------------------------------|x------------------------------|
  A|2------------------------------|2------------------------------|
  E|0------------------------------|0------------------------------|
    My      girl    says    when        kiss    lips
                                I           her

                                    x x x x x x x x x x x x x  x

  e|------- ------- ------- -------|----7-- ------- 7------ -------|
  B|0------------------------------|----7-----------7--------------|
  G|x------------------------------|----7-----------7--------------|
  D|x------------------------------|----6-----------6--------------|
  A|2------------------------------|----7-----------7--------------|
  E|0------------------------------|-------------------------------|
            Gets    thrill  through fingertips,         Hey
                a               her
                           (Aaaaaaaaaaaaaaaaaaaaahhhhhhh


    01:33

  e|------- 5------ 3---5-- -------|5------ 5------ 3---5-- -------|
  B|--------5-------3---5----------|5-------5-------3---5----------|
  G|--------6-------4---6----------|6-------6-------4---6----------|
  D|--------7-------5---7----------|7-------7-------5---7----------|
  A|--------7-------5---7----------|7-------7-------5---7----------|
  E|--------5-------3---5----------|5-------5-------3---5----------|
    hey                                                 Hey
           (bop     shuop,      m ' bop     bop     shuop)
  e|------- ------- ------- -------|------- ------- ------- -------|
  B|--------7-------5--------------|--------7-------5--------------|
  G|--------7-------6--------------|--------7-------6--------------|
  D|--------7-----------7----------|--------7-----------7----------|
  A|-------------------------------|-------------------------------|
  E|-------------------------------|-------------------------------|


  e|------- ------- ------- -------|------- ------- ------- -------|
  B|--------9-------7---9---7---7--|--------9-------7---9----------|
  G|--------9-------7---9---7---7--|--------9-------7---9----------|
  D|--------9-------7---9---7---7--|--------9-------7---9----------|
  A|-------------------------------|------------------------------/|
  E|-------------------------------|------------------------------/|
    hey                                                 Hey
           (bop     shuop,      m ' bop     bop     shuop)
  e|------- ------- ------- -------|------- ------- ------- -------|
  B|--------2-------0--------------|--------2-------0--------------|
  G|--------2-------0--------------|--------2-------0--------------|
  D|--------2-----------2----------|--------2-----------2----------|
  A|-------------------------------|-------------------------------|
  E|-------------------------------|-------------------------------|


  e|------- 7------ 7---7-- 7------|5------ 5------ 5---5-- 5------|
  B|--------7-------7---7---7------|8-------8-------8---8---8------|
  G|--------8-------8---8---8------|6-------6-------6---6---6------|
  D|9-------9-------9---9---9------|x-------x-------x---x---x------|
  A|9-------9-------9---9---9------|7-------7-------7---7---7------|
  E|7-------7-------7---7---7------|5-------5-------5---5---5------|
    hey                             Yeah,           she say you do
           (bop     shuop,      m ' bop     bop     shuop)
  e|------- ------- ------- -------|------- ------- ------- -------|
  B|-------------------------------|-------------------------------|
  G|-------------------------------|-------------------------------|
  D|-------------------------------|-------------------------------|
  A|9-------9-------9---9-------x--|7-------7-------7---7---7------|
  E|7-------7-------7---7-------x--|5-------5-------5---5---5------|


  e|0---0-- 0------ 0---0-- ----0--|7-----7 7---7-- ----7-- 7------|
  B|0---0---0-------0---0-------0--|7-----7-7---7-------7---7------|
  G|1---1---1-------1---1-------1--|8-----8-8---8-------8---8------|
  D|2---2---2-------2---2-------2--|9-----9-9---9-------9---9------|
  A|2---2---2-------2---2-------2--|9-----9-9---9-------9---9------|
  E|0---0---0-------0---0-------0--|7-----7-7---7-------7---7------|
                                        Well,   I   talk
           (bop     shuop)                              about
  e|------- ------- ------- -------|------- ------- ------- -------|
  B|-------------------------------|-------------------------------|
  G|-------------------------------|-------------------------------|
  D|-------------------------------|-------------------------------|
  A|2-------2-------2---2-------2--|7/9---9-9---9-------9---9------|
  E|0-------0-------0---0-------0--|5/7---7-7---7-------7---7------|


    01:47

  e|------- ------- ------- -------|------- ------- ------- -------|
  B|-------------------------------|-------------------------------|
  G|-------------------------------|-------------------------------|
  D|----------------0---0----------|----------------0---0----------|
  A|------------2-----------4---2--|------------2-----------4---2--|
  E|0---0---4----------------------|0---0---4----------------------|
        boys                            Don't   you know    mean
           (Yeah,   yeah,       boys)                   I
  e|------- ------- ------- -------|------- ------- ------- -------|
  B|-------------------------------|-------------------------------|
  G|-------------------------------|-------------------------------|
  D|-------------------------------|-------------------------------|
  A|-------------------------------|-------------------------------|
  E|0---0---0-------0-------0---0--|0---0---0-------0---0---0---0--|

  e|------- ------- ------- -------|------- ------- ------- -------|
  B|--------2-------0--------------|--------2-------0--------------|
  G|--------2-------0--------------|--------2-------0--------------|
  D|--------2-----------2----------|--------2-----------2----------|
  A|-------------------------------|-------------------------------|
  E|-------------------------------|-------------------------------|


  e|------- ------- ------- -------|------- ------- ------- -------|
  B|-------------------------------|-------------------------------|
  G|-------------------------------|-------------------------------|
  D|----------------0---0----------|----------------0---0----------|
  A|------------2-----------4---2--|------------2-----------4---2--|
  E|0---0---4----------------------|0---0---4----------------------|
        boys                            Well,       talk        boys
           (Yeah,   yeah,       boys)       I           about
  e|------- ------- ------- -------|------- ------- ------- -------|
  B|-------------------------------|-------------------------------|
  G|-------------------------------|-------------------------------|
  D|-------------------------------|-------------------------------|
  A|-------------------------------|-------------------------------|
  E|0---0---0---0---0---0---0------|0---0---0---0---0---0---0---0--|

  e|------- ------- ------- -------|------- ------- ------- -------|
  B|--------2-------0--------------|--------2-------0--------------|
  G|--------2-------0--------------|--------2-------0--------------|
  D|--------2-----------2----------|--------2-----------2----------|
  A|-------------------------------|-------------------------------|
  E|-------------------------------|-------------------------------|


    01:54

  e|------- ------- ------- -------|------- ------- ------- -------|
  B|-------------------------------|-------------------------------|
  G|----------------0---0----------|----------------0---0----------|
  D|------------2-----------4---2--|------------2-----------4---2--|
  A|0---0---4----------------------|0---0---4----------------------|
  E|-------------------------------|-------------------------------|
        now                             Aaaaaaaaaaaaaaaaaaaaaaaaaaa
           (Yeah,   yeah,       boys)
  e|------- ------- ------- -------|------- ------- ------- -------|
  B|-------------------------------|-------------------------------|
  G|-------------------------------|-------------------------------|
  D|-------------------------------|-------------------------------|
  A|0---0-------0---------------0--|0---0-------0---------------0--|
  E|-------------------------------|-------------------------------|

  e|------- ------- ------- -------|------- ------- ------- -------|
  B|--------7-------5--------------|--------7-------5--------------|
  G|--------7-------6--------------|--------7-------6--------------|
  D|--------7-----------7----------|--------7-----------7----------|
  A|-------------------------------|-------------------------------|
  E|-------------------------------|-------------------------------|


  e|------- ------- ------- -------|------- ------- ------- -------|
  B|-------------------------------|-------------------------------|
  G|-------------------------------|-------------------------------|
  D|----------------0---0----------|----------------0---0----------|
  A|------------2-----------4------|------------2-----------4---2--|
  E|0---0---4----------------------|0---0---4----------------------|
    aaaaaaaaaaaaaaaaaaaaaaaaahhhhhhhh       Well    talk        boys
           (Yeah,   yeah,       boys)           I       about
  e|------- ------- ------- -------|------- ------- ------- -------|
  B|-------------------------------|-------------------------------|
  G|-------------------------------|-------------------------------|
  D|-------------------------------|-------------------------------|
  A|-------------------------------|----------------------------1--|
  E|0---0---0---0---0--------------|0---0---0---0---0---0---0------|

  e|------- ------- ------- -------|------- ------- ------- -------|
  B|--------2-------0--------------|-------------------------------|
  G|--------2-------0--------------|-------------------------------|
  D|--------2-----------2----------|------------0-------0----------|
  A|-------------------------------|----------------------------2--|
  E|-------------------------------|-------------------------------|


  e|------- ------- ------- -------|------- ------- ------- -------|
  B|-------------------------------|-------------------------------|
  G|----------------2---2---1------|----------------0---0----------|
  D|--------1---4---------------4--|------------2-----------4---2--|
  A|2---2--------------------------|0---0---4----------------------|
  E|-------------------------------|-------------------------------|
        now                                 What    bundle  of  joy!
           (Yeah,   yeah,       boys)           a
  e|------- ------- ------- -------|------- ------- ------- -------|
  B|-------------------------------|-------------------------------|
  G|-------------------------------|-------------------------------|
  D|-------------------------------|-------------------------------|
  A|2---2-------2-------2----------|0---0-------0-------0----------|
  E|-------------------------------|----------------------------0--|

  e|------- ------- ------- -------|------- ------- ---12-- -------|
  B|-------------------------------|--------10---------10----------|
  G|-------------------------------|----------------12-------------|
  D|-------------------------------|-------------------------------|
  A|6-------6-------6---6-------6--|-------------------------------|
  E|7-------7-------7---7-------7--|-------------------------------|


  e|------- ------- ------- -------|------- ------- ------- -------|
  B|-------------------------------|-------------------------------|
  G|-------------------------------|-------------------------------|
  D|-------------------------------|7/9---9-9---9-------9-9-9---9--|
  A|----------------2-------0------|7/9---9-9---9-------9-9-9---9--|
  E|0---0---4---0---------------4--|5/7---7-7---7-------7-7-7---7--|
            Woah,       woah,   uuuuuuuuh,      Yeaaaaaaaaaaaaaahhh
  e|------- 0------ ----0-- -------|------- ----0-- ------- -------|
  B|-------------------------------|-------------------------------|
  G|-------------------------------|-------------------------------|
  D|-------------------------------|-------------------------------|
  A|-------------------------------|-------------------------------|
  E|-------------------------------|-------------------------------|


    02:07

  e|------- ------- ------- -------|------- ------- ------- -------|
  B|-------------------------------|-------------------------------|
  G|-------------------------------|-------------------------------|
  D|----------------0---0----------|----------------0---0----------|
  A|------------2-----------4---2--|------------2-----------4---2--|
  E|0---0---4----------------------|0---0---4----------------------|
        boys                            Don't   you know    mean
           (Yeah,   yeah,       boys)                   I
  e|------- ------- ------- -------|------- ------- ------- -------|
  B|-------------------------------|-------------------------------|
  G|-------------------------------|-------------------------------|
  D|-------------------------------|-------------------------------|
  A|-------------------------------|-------------------------------|
  E|0---0--------------------------|0---0--------------------------|

  e|------- 0------ ------- -------|------- 0------ ----0-- 2------|
  B|-------------------------------|----------------3--------------|
  G|-------------------------------|-------------------------------|
  D|-------------------------------|-------------------------------|
  A|-------------------------------|-------------------------------|
  E|-------------------------------|-------------------------------|


  e|------- ------- ------- -------|------- ------- ------- -------|
  B|-------------------------------|-------------------------------|
  G|-------------------------------|-------------------------------|
  D|----------------0---0----------|----------------0---0----------|
  A|------------2-----------4---2--|------------2-----------4---2--|
  E|0---0---4----------------------|0---0---4----------------------|
        boys                        Woooooooooooooooooooohhh    boys
           (Yeah,   yeah,       boys)
  e|------- ------- ------- -------|------- ------- ------- -------|
  B|-------------------------------|-------------------------------|
  G|-------------------------------|-------------------------------|
  D|-------------------------------|-------------------------------|
  A|-------------------------------|-------------------------------|
  E|0---0--------------------------|0---0---0-------0-------0------|

  e|------- 0------ ----0-- -------|------- 0------ ----0-- -------|
  B|-------------------------------|----------------3--------------|
  G|-------------------------------|-------------------------------|
  D|-------------------------------|-------------------------------|
  A|-------------------------------|-------------------------------|
  E|-------------------------------|-------------------------------|


    02:14

  e|------- ------- ------- -------|------- ------- ------- -------|
  B|-------------------------------|-------------------------------|
  G|----------------0---0----------|----------------0---0----------|
  D|------------2-----------4---2--|------------2-----------4---2--|
  A|0---0---4----------------------|0---0---4----------------------|
  E|-------------------------------|-------------------------------|
                                        Aaaaaaaaaaaaaaaaaaaaaaaahaa
           (Yeah,   yeah,       boys)
  e|------- ------- ------- -------|------- ------- ------- -------|
  B|-------------------------------|-------------------------------|
  G|-------------------------------|-------------------------------|
  D|-------------------------------|-------------------------------|
  A|----0--------------------------|0---0-------0---0---0----------|
  E|-------------------------------|-------------------------------|

  e|------- 0------ ------- -------|----7-- ------- 7------ ---7---|
  B|-------------------------------|-------------------------------|
  G|-------------------------------|-------------------------------|
  D|-------------------------------|-------------------------------|
  A|-------------------------------|-------------------------------|
  E|-------------------------------|-------------------------------|


  e|------- ------- ------- -------|------- ------- ------- -------|
  B|-------------------------------|-------------------------------|
  G|-------------------------------|-------------------------------|
  D|----------------0---0----------|----------------0---0----------|
  A|------------2-----------4------|------------2-----------4---2--|
  E|0---0---4----------------------|0---0---4----------------------|
    aahh                                Well        talk
           (Yeah,   yeah,       boys)           I       about
  e|------- ------- ------- -------|------- ------- ------- -------|
  B|-------------------------------|-------------------------------|
  G|-------------------------------|-------------------------------|
  D|-------------------------------|-------------------------------|
  A|-------------------------------|-------------------------------|
  E|0---0--------------------------|0---0--------------------------|

  e|------- ------- ------- -------|------- ---7--- ----7-- -------|
  B|-------------------------------|-------------------------------|
  G|-------------------------------|-------------------------------|
  D|-------------------------------|-------------------------------|
  A|-------------------------------|-------------------------------|
  E|-------------------------------|-------------------------------|
    .......................... Fade Out ...........................


  e|------- ------- ------- -------|------- ------- ------- -------|
  B|-------------------------------|-------------------------------|
  G|-------------------------------|-------------------------------|
  D|-------------------------------|-------------------------------|
  A|2---2--------------------------|-------------------------------|
  E|-------------------------------|-------------------------------|
    boys
        now (Yeah   yeah
  e|------- ------- ------- -------|------- ------- ------- -------|
  B|-------------------------------|-------------------------------|
  G|-------------------------------|-------------------------------|
  D|-------------------------------|-------------------------------|
  A|2---2--------------------------|-------------------------------|
  E|-------------------------------|-------------------------------|
    ............



        b  Small bend
        B  Bend
        R  Release
        /  Slide up
        \  Slide down
        H  Hammer-on
        P  Pull-off
        ~  Vibrato
        +  Harmonic
        x  Mute note
        .  Play note like a dot in standard notation
        ^  Ties two notes together
        (. Pause

  ----------------------------------------------------------------

  THE BEATLES - ASK ME WHY (McCartney & Lennon) From PLEASE PLEASE
                ME album. Released on March, 22nd 1963.

  ----------------------------------------------------------------

  Tabbed by:PJVillanueva

  I love you, 'cause you tell me things I want to know.
  And it's true that it really only goes to show,
  That I know,
  That I, I, I, I should never, never, never be blue.

  Now you're mine, my happiness still makes me cry.
  And in time you'll understand the reason why,
  If I cry, It's not because I'm sad,
  But you're the only love that I've ever had.

  I can't believe it's happened to me
  I can't conceive of any more misery.

  Ask me why, I'll say I love you,
  And I'm always thinking of you.

  I love you, 'cause you tell me things I want to know.
  And it's true that it really only goes to show,
  That I know,
  That I, I, I, I should never, never, never be blue.

  Ask me why, I'll say I love you,
  And I'm always thinking of you.

  I can't believe it's happened to me.
  I can't conceive of any more misery.

  Ask me why, I'll say I love you,
  And I'm always thinking of you.


    E
  e|0------ ----0-- ------- 0------|0------ ------- ------- -------|
  B|0-----------0-----------0------|0------------------------------|
  G|1-----------1-----------1------|1------------------------------|
  D|2-----------2-----------2------|2------------------------------|
  A|2-----------2-----------2------|2------------------------------|
  E|0-----------0-----------0------|0------------------------------|
                                                    I       love
  e|------- ------- ------- -------|------- ------- ------- -------|
  B|-----------12------------------|-------------------------------|
  G|9------------------------------|9---------------4-------6------|
  D|------------9-----------9------|----------------6-------7------|
  A|7------------------------------|7------------------------------|
  E|------------------------7------|-------------------------------|


    00:03
    G#m                             F#m
  e|4------ 4---4-- ----4-- 4------|2------ 2---2-- ------- 2------|
  B|4-------4---4-------4---4------|2-------2---2-----------2------|
  G|4-------4---4-------4---4------|2-------2---2-----------2------|
  D|6-------6---6-------6---6------|4-------4---4-----------4------|
  A|6-------6---6-------6---6------|4-------4---4-----------4------|
  E|4-------4---4-------4---4------|2-------2---2-----------2------|
    you                                    'cause   tell    things
                                                you     me      I
  e|4------ ------- ------- -------|2------ ------- ------- -------|
  B|4------------------------------|2------------------------------|
  G|4------------------------------|2------------------------------|
  D|6------------------------------|4------------------------------|
  A|6------------------------------|4------------------------------|
  E|4------------------------------|2------------------------------|

    E
  e|0------ ----0-- ------- 0------|0------ ------- ------- -------|
  B|0-----------0-----------0------|0------------------------------|
  G|1-----------1-----------1------|1------------------------------|
  D|2-----------2-----------2------|2------------------------------|
  A|2-----------2-----------2------|2------------------------------|
  E|0-----------0-----------0------|0------------------------------|
    want    to  know                                And     it's
  e|------- ------- ------- -------|------- ------- ------- -------|
  B|-----------12------------------|-------------------------------|
  G|9------------------------------|9---------------4-------6------|
  D|------------9-----------9------|----------------6-------7------|
  A|7------------------------------|7------------------------------|
  E|------------------------7------|-------------------------------|

    G#m                             F#m
  e|4------ 4---4-- ----4-- 4------|2-----2 2---2-- ----2-- 2------|
  B|4-------4---4-------4---4------|2-----2-2---2-------2---2------|
  G|4-------4---4-------4---4------|2-----2-2---2-------2---2------|
  D|6-------6---6-------6---6------|4-----4-4---4-------4---4------|
  A|6-------6---6-------6---6------|4-----4-4---4-------4---4------|
  E|4-------4---4-------4---4------|2-----2-2---2-------2---2------|
    true                                    that    really  only
                                                it
  e|4------ ------- ------- -------|2------ ------- ------- -------|
  B|4------------------------------|2------------------------------|
  G|4------------------------------|2------------------------------|
  D|6------------------------------|4------------------------------|
  A|6------------------------------|4------------------------------|
  E|4------------------------------|2------------------------------|

    E                               G#
  e|0------ ----0-- ------- 0---0--|4------ ----4-- ------- 4------|
  B|0-----------0-----------0---0--|4-----------4-----------4------|
  G|1-----------1-----------1---1--|5-----------5-----------5------|
  D|2-----------2-----------2---2--|6-----------6-----------6------|
  A|2-----------2-----------2---2--|6-----------6-----------6------|
  E|0-----------0-----------0---0--|4-----------4-----------4------|
    goes    to  show                that        know            that
                                        I
  e|------- ------- ------- -------|------- ------- ------- -------|
  B|-------------------------------|--------7---7------------------|
  G|-------------------------------|-------5-----------------------|
  D|--------2---------------2------|------6------------------------|
  A|-------2-----------------------|-----6------------------6------|
  E|------0------------------------|-------------------------------|


    00:17
    C
  e|4------ 4---4-- ------- 4------|4---4-4 4---4-- ----4-- 4------|
  B|5-------5---5-----------5------|5---5-5-5---5-------5---5------|
  G|6-------6---6-----------6------|6---6-6-6---6-------6---6------|
  D|6-------6---6-----------6------|6---6-6-6---6-------6---6------|
  A|4-------4---4-----------4------|4---4-4-4---4-------4---4------|
  E|-------------------------------|-------------------------------|
    I               I   I       I                           should


    Am                              F#
  e|5------ 5---5-- 5---5-- 5------|2------ ----2-- 2---2-- 2------|
  B|5-------5---5---5---5---5------|2-----------2---2---2---2------|
  G|5-------5---5---5---5---5------|3-----------3---3---3---3------|
  D|7-------7---7---7---7---7------|4-----------4---4---4---4------|
  A|7-------7---7---7---7---7------|4-----------4---4---4---4------|
  E|5-------5---5---5---5---5------|2-----------2---2---2---2------|
    never   never   never   be      blue.


    B
  e|2------ ------- ------- -------|
  B|4------------------------------|
  G|4------------------------------|
  D|4------------------------------|
  A|2------------------------------|
  E|-------------------------------|
                    Now     you're
  e|------- ------- ------- -------|
  B|-------------------------------|
  G|----------------4-------6------|
  D|----------------6-------7------|
  A|-------------------------------|
  E|-------------------------------|


    00:26
    G#m                             F#m
  e|4------ ----4-- 4------ 4------|2---2-2 2---2-- 2---2-- 2------|
  B|4-----------4---4-------4------|2---2-2-2---2---2---2---2------|
  G|4-----------4---4-------4------|2---2-2-2---2---2---2---2------|
  D|6-----------6---6-------6------|4---4-4-4---4---4---4---4------|
  A|6-----------6---6-------6------|4---4-4-4---4---4---4---4------|
  E|4-----------4---4-------4------|2---2-2-2---2---2---2---2------|
    mine                                        my  happiness   still
  e|4------ ------- ------- -------|2------ ------- ------- -------|
  B|4------------------------------|2------------------------------|
  G|4------------------------------|2------------------------------|
  D|6------------------------------|4------------------------------|
  A|6------------------------------|4------------------------------|
  E|4------------------------------|2------------------------------|

    E
  e|0------ 0---0-- ------- 0------|0------ ------- ------- -------|
  B|0-------0---0-----------0------|0------------------------------|
  G|1-------1---1-----------1------|1------------------------------|
  D|2-------2---2-----------2------|2------------------------------|
  A|2-------2---2-----------2------|2------------------------------|
  E|0-------0---0-----------0------|0------------------------------|
    makes   me  cry                                 And     in
  e|------- ------- ------- -------|------- ------- ------- -------|
  B|-----------12------------------|-------------------------------|
  G|9------------------------------|9---------------4-------6------|
  D|------------9-----------9------|----------------6-------7------|
  A|7------------------------------|7------------------------------|
  E|------------------------7------|-------------------------------|

    G#m                             F#m
  e|4------ 4---4-- ----4-- 4------|2---2-2 2---2-- ----2-- 2------|
  B|4-------4---4-------4---4------|2---2-2-2---2-------2---2------|
  G|4-------4---4-------4---4------|2---2-2-2---2-------2---2------|
  D|6-------6---6-------6---6------|4---4-4-4---4-------4---4------|
  A|6-------6---6-------6---6------|4---4-4-4---4-------4---4------|
  E|4-------4---4-------4---4------|2---2-2-2---2-------2---2------|
    time                                        you'll          the
                                                    understand
  e|4------ ------- ------- -------|2------ ----2-- ------- -------|
  B|4------------------------------|2-----------2------------------|
  G|4------------------------------|2-----------2------------------|
  D|6------------------------------|4-----------4------------------|
  A|6------------------------------|4-----------4------------------|
  E|4------------------------------|2-----------2------------------|

    E                               G#
  e|0------ 0---0-- ----0-- 0------|4------ 4---4-- ------- 4------|
  B|0-------0---0-------0---0------|4-------4---4-----------4------|
  G|1-------1---1-------1---1------|5-------5---5-----------5------|
  D|2-------2---2-------2---2------|6-------6---6-----------6------|
  A|2-------2---2-------2---2------|6-------6---6-----------6------|
  E|0-------0---0-------0---0------|4-------4---4-----------4------|
    reason      why                 If  I       cry             it's
  e|------- ------- ------- -------|------- ------- ------- -------|
  B|------------0------------------|--------7---7-------7----------|
  G|--------------------1----------|-------5-----------------------|
  D|--------2----------------------|------6------------------------|
  A|-------2-----------------------|-----6-------------------------|
  E|0------------------------------|-------------------------------|


    00:40
    C#m
  e|4------ ----4-- ------- 4------|4---4-4 4---4-- ----4-- 4------|
  B|5-----------5-----------5------|5---5-5-5---5-------5---5------|
  G|6-----------6-----------6------|6---6-6-6---6-------6---6------|
  D|6-----------6-----------6------|6---6-6-6---6-------6---6------|
  A|4-----------4-----------4------|4---4-4-4---4-------4---4------|
  E|-------------------------------|-------------------------------|
    not         beacuse I'm     sad                     but you're
                                                                the
  e|4------ ------- ------- -------|4------ ----4-- ------- -------|
  B|5------------------------------|5-----------5------------------|
  G|6------------------------------|6-----------6------------------|
  D|6------------------------------|6-----------6------------------|
  A|4------------------------------|4-----------4------------------|
  E|-------------------------------|-------------------------------|

    Am                              E
  e|5------ 5---5-- ----5-- 5------|0------ ----0-- ----0-- 0------|
  B|5-------5---5-------5---5------|0-----------0-------0---0------|
  G|5-------5---5-------5---5------|1-----------1-------1---1------|
  D|7-------7---7-------7---7------|2-----------2-------2---2------|
  A|7-------7---7-------7---7------|2-----------2-------2---2------|
  E|5-------5---5-------5---5------|0-----------0-------0---0------|
    only    love    I've    ever    had.
                that
  e|------- ------- ------- -------|------- ------- ------- -------|
  B|1------------------------------|0-----------0------------------|
  G|2------------------------------|1-----------------------1------|
  D|2------------------------------|2---------------------------2--|
  A|0------------------------------|2------------------------------|
  E|-------------------------------|-------------------------------|


    00:48
    E+5                             A
  e|0-----0 0---0-- ------- 0------|0------ ----0-- ----0-- 0------|
  B|1-----1-1---1-----------1------|2-----------2-------2---2------|
  G|1-----1-1---1-----------1------|2-----------2-------2---2------|
  D|2-----2-2---2-----------2------|2-----------2-------2---2------|
  A|2-----2-2---2-----------2------|0-----------0-------0---0------|
  E|0-----0-0---0-----------0------|-------------------------------|
                    I   can't   believe
  e|------- ------- ------- -------|------- ------- ------- -------|
  B|1-----------1---1----1----1----|2-------------------2-------2--|
  G|1-----------1---1----1----1----|2-------------------2-------2--|
  D|2-----------2---2----2----2----|2-------------------2-------2--|
  A|-------------------------------|-------------------------------|
  E|-------------------------------|-------------------------------|

    B                               E
  e|2-----2 2---2-- 2---2-- 2------|0------ ----0-- ----0-- 0---0--|
  B|4-----4-4---4---4---4---4------|0-----------0-------0---0---0--|
  G|4-----4-4---4---4---4---4------|1-----------1-------1---1---1--|
  D|4-----4-4---4---4---4---4------|2-----------2-------2---2---2--|
  A|2-----2-2---2---2---2---2------|2-----------2-------2---2---2--|
  E|-------------------------------|0-----------0-------0---0---0--|
                It's        to      me
                    happened
  e|------- ------- ------- -------|------- ------- ------- -------|
  B|0-----------0---0----0----0----|0-------------------0---0---0--|
  G|2-----------2---2----2----2----|1-------------------1---1---1--|
  D|1-----------1---1----1----1----|2-------------------2---2---2--|
  A|2-----------2---2----2----2----|2-------------------2---2---2--|
  E|-------------------------------|-------------------------------|

    E+5                             A
  e|0-----0 0---0-- ----0-- 0------|0-----0 0---0-- ----0-- 0---0--|
  B|1-----1-1---1-------1---1------|2-----2-2---2-------2---2---2--|
  G|1-----1-1---1-------1---1------|2-----2-2---2-------2---2---2--|
  D|2-----2-2---2-------2---2------|2-----2-2---2-------2---2---2--|
  A|2-----2-2---2-------2---2------|0-----0-0---0-------0---0---0--|
  E|0-----0-0---0-------0---0------|-------------------------------|
                    I   can't   conceive
  e|------- ------- ------- -------|------- ------- ------- -------|
  B|1-----------1---1----1----1----|2-------------------2-------2--|
  G|1-----------1---1----1----1----|2-------------------2-------1--|
  D|2-----------2---2----2----2----|2-------------------2-------2--|
  A|-------------------------------|-------------------------------|
  E|-------------------------------|-------------------------------|

    B                               E
  e|2-----2 2---2-- ----2-- 2------|0---0-- 0------ ------- -------|
  B|4-----4-4---4-------4---4------|0---0---0----------------------|
  G|4-----4-4---4-------4---4------|1---1---1----------------------|
  D|4-----4-4---4-------4---4------|2---2---2----------------------|
  A|2-----2-2---2-------2---2------|2---2---2----------------------|
  E|-------------------------------|0---0---0----------------------|
                of  anymore                         misery
  e|------- ------- ------- -------|------- ------- ------- -------|
  B|-------------------------------|0---0---0----------------------|
  G|-------------------------------1----1---1----------------------|
  D|------------------------------2|----2---2----------------------|
  A|-----------------------------2-|----2---2----------------------|
  E|----------------------------0--|----0---0----------------------|

            B
  e|------- 2------ ------- -------|
  B|--------4----------------------|
  G|--------4----------------------|
  D|--------4----------------------|
  A|--------2----------------------|
  E|-------------------------------|
                    Ask     me
  e|------- ------- ------- -------|
  B|-------------------------------|
  G|----------------4-------6------|
  D|----------------6-------7------|
  A|-------------------------------|
  E|-------------------------------|


    01:04
    G#m                             A
  e|4------ ----4-- ------- 4------|5-----5 5---5-- ----5-- 5------|
  B|4-----------4-----------4------|5-----5-5---5-------5---5------|
  G|4-----------4-----------4------|6-----6-6---6-------6---6------|
  D|6-----------6-----------6------|7-----7-7---7-------7---7------|
  A|6-----------6-----------6------|7-----7-7---7-------7---7------|
  E|4-----------4-----------4------|5-----5-5---5-------5---5------|
    why                 I'll    I   love                    and I'm
                            say         you

    G#m                             A
  e|4-----4 4---4-- ----4-- 4------|5-----5 5---5-- ----5-- 5------|
  B|4-----4-4---4-------4---4------|5-----5-5---5-------5---5------|
  G|4-----4-4---4-------4---4------|6-----6-6---6-------6---6------|
  D|6-----6-6---6-------6---6------|7-----7-7---7-------7---7------|
  A|6-----6-6---6-------6---6------|7-----7-7---7-------7---7------|
  E|4-----4-4---4-------4---4------|5-----5-5---5-------5---5------|
    always      thinking        of  you

    E
  e|0---0-0 0---0-- 0---0-- 0------|0------ ------- ------- -------|
  B|0---0-0-0---0---0---0---0------|0------------------------------|
  G|1---1-1-1---1---1---1---1------|1------------------------------|
  D|2---2-2-2---2---2---2---2------|2------------------------------|
  A|2---2-2-2---2---2---2---2------|2------------------------------|
  E|0---0-0-0---0---0---0---0------|0------------------------------|
                                                    I       love
  e|------- ------- ------- -------|------- ------- ------- -------|
  B|-----------12------------------|-------------------------------|
  G|9------------------------------|9---------------4-------6------|
  D|------------9-----------9------|----------------6-------7------|
  A|7------------------------------|7------------------------------|
  E|------------------------7------|-------------------------------|


    01:14
    G#m                             F#m
  e|4------ 4---4-- ----4-- 4------|2------ 2---2-- ------- 2------|
  B|4-------4---4-------4---4------|2-------2---2-----------2------|
  G|4-------4---4-------4---4------|2-------2---2-----------2------|
  D|6-------6---6-------6---6------|4-------4---4-----------4------|
  A|6-------6---6-------6---6------|4-------4---4-----------4------|
  E|4-------4---4-------4---4------|2-------2---2-----------2------|
    you                                    'cause   tell    things
                                                you     me      I
  e|4------ ------- ------- -------|2------ ------- ------- -------|
  B|4------------------------------|2------------------------------|
  G|4------------------------------|2------------------------------|
  D|6------------------------------|4------------------------------|
  A|6------------------------------|4------------------------------|
  E|4------------------------------|2------------------------------|

    E
  e|0---0-- ----0-- ------- 0------|0------ ------- ------- -------|
  B|0---0-------0-----------0------|0------------------------------|
  G|1---1-------1-----------1------|1------------------------------|
  D|2---2-------2-----------2------|2------------------------------|
  A|2---2-------2-----------2------|2------------------------------|
  E|0---0-------0-----------0------|0------------------------------|
    want    to  know                                And     it's
  e|------- ------- ------- -------|------- ------- ------- -------|
  B|-----------12------------------|-------------------------------|
  G|9------------------------------|9---------------4-------6------|
  D|------------9-----------9------|----------------6-------7------|
  A|7------------------------------|7------------------------------|
  E|------------------------7------|-------------------------------|

    G#m                             F#m
  e|4------ 4---4-- ----4-- 4------|2-----2 2---2-- ----2-- 2------|
  B|4-------4---4-------4---4------|2-----2-2---2-------2---2------|
  G|4-------4---4-------4---4------|2-----2-2---2-------2---2------|
  D|6-------6---6-------6---6------|4-----4-4---4-------4---4------|
  A|6-------6---6-------6---6------|4-----4-4---4-------4---4------|
  E|4-------4---4-------4---4------|2-----2-2---2-------2---2------|
    true                                    that    really  only
                                                it
  e|4------ ------- ------- -------|2------ ------- ------- -------|
  B|4------------------------------|2------------------------------|
  G|4------------------------------|2------------------------------|
  D|6------------------------------|4------------------------------|
  A|6------------------------------|4------------------------------|
  E|4------------------------------|2------------------------------|

    E                               G#
  e|0------ ----0-- ----0-- 0------|4------ 4---4-- ------- 4------|
  B|0-----------0-------0---0------|4-------4---4-----------4------|
  G|1-----------1-------1---1------|5-------5---5-----------5------|
  D|2-----------2-------2---2------|6-------6---6-----------6------|
  A|2-----------2-------2---2------|6-------6---6-----------6------|
  E|0-----------0-------0---0------|4-------4---4-----------4------|
    goes    to  show                that        know            that
                                        I
  e|------- ------- ------- -------|------- ------- ------- -------|
  B|-------------------------------|--------7---7------------------|
  G|-------------------------------|-------5-----------------------|
  D|----------------2--------------|------6------------------------|
  A|------------------------2------|-----6-------------------------|
  E|-------------------------------|-------------------------------|


    01:29
    C#m
  e|4------ ----4-- ----4-- 4------|4---4-4 4---4-- ----4-- 4------|
  B|5-----------5-------5---5------|5---5-5-5---5-------5---5------|
  G|6-----------6-------6---6------|6---6-6-6---6-------6---6------|
  D|6-----------6-------6---6------|6---6-6-6---6-------6---6------|
  A|4-----------4-------4---4------|4---4-4-4---4-------4---4------|
  E|-------------------------------|-------------------------------|
    I               I   I       I                           should


    Am                              F#
  e|5------ 5---5-- ----5-- 5------|2---2-- ----2-- 2------ 2---2--|
  B|5-------5---5-------5---5------|2---2-------2---2-------2---2--|
  G|5-------5---5-------5---5------|3---3-------3---3-------3---3--|
  D|7-------7---7-------7---7------|4---4-------4---4-------4---4--|
  A|7-------7---7-------7---7------|4---4-------4---4-------4---4--|
  E|5-------5---5-------5---5------|2---2-------2---2-------2---2--|
    never   never   never   be      blue.

    B
  e|2------ ------- ------- -------|
  B|4------------------------------|
  G|4------------------------------|
  D|4------------------------------|
  A|2------------------------------|
  E|-------------------------------|
                    Ask     me
  e|------- ------- ------- -------|
  B|-------------------------------|
  G|----------------4-------6------|
  D|----------------6-------7------|
  A|-------------------------------|
  E|-------------------------------|


    01:38
    G#m                             A
  e|4------ 4---4-- ------- 4------|5------ ----5-- 5---5-- 5------|
  B|4-------4---4-----------4------|5-----------5---5---5---5------|
  G|4-------4---4-----------4------|6-----------6---6---6---6------|
  D|6-------6---6-----------6------|7-----------7---7---7---7------|
  A|6-------6---6-----------6------|7-----------7---7---7---7------|
  E|4-------4---4-----------4------|5-----------5---5---5---5------|
    why                 I'll    I   love                    and I'm
                            say         you

    G#m                             A
  e|4-----4 ----4-- ----4-- 4------|5-----5 5---5-- ----5-- 5------|
  B|4-----4-----4-------4---4------|5-----5-5---5-------5---5------|
  G|4-----4-----4-------4---4------|6-----6-6---6-------6---6------|
  D|6-----6-----6-------6---6------|7-----7-7---7-------7---7------|
  A|6-----6-----6-------6---6------|7-----7-7---7-------7---7------|
  E|4-----4-----4-------4---4------|5-----5-5---5-------5---5------|
    always      thinking        of  you

    E
  e|0---0-0 0---0-- ----0-- 0------|
  B|0---0-0-0---0-------0---0------|
  G|1---1-1-1---1-------1---1------|
  D|2---2-2-2---2-------2---2------|
  A|2---2-2-2---2-------2---2------|
  E|0---0-0-0---0-------0---0------|

    01:47
    E+5                             A
  e|0---0-0 0---0-- ----0-- 0------|0------ ----0-- ----0-- 0------|
  B|1---1-1-1---1-------1---1------|2-----------2-------2---2------|
  G|1---1-1-1---1-------1---1------|2-----------2-------2---2------|
  D|2---2-2-2---2-------2---2------|2-----------2-------2---2------|
  A|2---2-2-2---2-------2---2------|0-----------0-------0---0------|
  E|0---0-0-0---0-------0---0------|-------------------------------|
                    I   can't   believe
  e|------- ------- ------- -------|------- ------- ------- -------|
  B|1-----------1---1----1----1----|2-------------------2-------2--|
  G|1-----------1---1----1----1----|2-------------------2-------2--|
  D|2-----------2---2----2----2----|2-------------------2-------2--|
  A|-------------------------------|-------------------------------|
  E|-------------------------------|-------------------------------|

    B                               E
  e|2-----2 2---2-- ----2-- 2------|0-----0 0---0-- ------- 0------|
  B|4-----4-4---4-------4---4------|0-----0-0---0-----------0------|
  G|4-----4-4---4-------4---4------|1-----1-1---1-----------1------|
  D|4-----4-4---4-------4---4------|2-----2-2---2-----------2------|
  A|2-----2-2---2-------2---2------|2-----2-2---2-----------2------|
  E|-------------------------------|0-----0-0---0-----------0------|
                It's happened       me
                            to
  e|------- ------- ------- -------|------- ------- ------- -------|
  B|0-----------0---0----0----0----|0-------------------0---0---0--|
  G|2-----------2---2----2----2----|1-------------------1---1---1--|
  D|1-----------1---1----1----1----|2-------------------2---2---2--|
  A|2-----------2---2----2----2----|2-------------------2---2---2--|
  E|-------------------------------|-------------------------------|

    E+5                             A
  e|0-----0 0---0-- ----0-- 0------|0-----0 0---0-- ----0-- 0---0--|
  B|1-----1-1---1-------1---1------|2-----2-2---2-------2---2---2--|
  G|1-----1-1---1-------1---1------|2-----2-2---2-------2---2---2--|
  D|2-----2-2---2-------2---2------|2-----2-2---2-------2---2---2--|
  A|2-----2-2---2-------2---2------|0-----0-0---0-------0---0---0--|
  E|0-----0-0---0-------0---0------|-------------------------------|
                    I can't     conceive
  e|------- ------- ------- -------|------- ------- ------- -------|
  B|1-----------1---1----1----1----|2-------------------2-------2--|
  G|1-----------1---1----1----1----|2-------------------2-------1--|
  D|2-----------2---2----2----2----|2-------------------2-------2--|
  A|-------------------------------|-------------------------------|
  E|-------------------------------|-------------------------------|

    B                               E
  e|2-----2 2---2-- ----2-- 2------|0---0-- 0------ ------- -------|
  B|4-----4-4---4-------4---4------|0---0---0----------------------|
  G|4-----4-4---4-------4---4------|1---1---1----------------------|
  D|4-----4-4---4-------4---4------|2---2---2----------------------|
  A|2-----2-2---2-------2---2------|2---2---2----------------------|
  E|-------------------------------|0---0---0----------------------|
                of  anymore                         misery
  e|------- ------- ------- -------|------- ------- ------- -------|
  B|-------------------------------|0---0---0----------------------|
  G|-------------------------------1----1---1----------------------|
  D|------------------------------2|----2---2----------------------|
  A|-----------------------------2-|----2---2----------------------|
  E|----------------------------0--|----0---0----------------------|

    B
  e|2------ ------- ------- -------|
  B|4------------------------------|
  G|4------------------------------|
  D|4------------------------------|
  A|2------------------------------|
  E|-------------------------------|
                    Ask     me
  e|------- ------- ------- -------|
  B|-------------------------------|
  G|----------------4-------6------|
  D|----------------6-------7------|
  A|-------------------------------|
  E|-------------------------------|


    02:03
    G#m                             A
  e|4------ 4---4-- ------- 4------|5-----5 5---5-- ----5-- 5------|
  B|4-------4---4-----------4------|5-----5-5---5-------5---5------|
  G|4-------4---4-----------4------|6-----6-6---6-------6---6------|
  D|6-------6---6-----------6------|7-----7-7---7-------7---7------|
  A|6-------6---6-----------6------|7-----7-7---7-------7---7------|
  E|4-------4---4-----------4------|5-----5-5---5-------5---5------|
    why                 I'll    I   love                    and I'm
                            say         you


    G#m                             A
  e|4-----4 4---4-- ----4-- 4------|5-----5 5---5-- 5---5-- 5------|
  B|4-----4-4---4-------4---4------|5-----5-5---5---5---5---5------|
  G|4-----4-4---4-------4---4------|6-----6-6---6---6---6---6------|
  D|6-----6-6---6-------6---6------|7-----7-7---7---7---7---7------|
  A|6-----6-6---6-------6---6------|7-----7-7---7---7---7---7------|
  E|4-----4-4---4-------4---4------|5-----5-5---5---5---5---5------|
      always    thinking        of  you


    02:10
    E                               A
  e|0------ 0---0-- ----0-- 0------|5-----5 5---5-- ----5-- 5------|
  B|0-------0---0-------0---0------|5-----5-5---5-------5---5------|
  G|1-------1---1-------1---1------|6-----6-6---6-------6---6------|
  D|2-------2---2-------2---2------|7-----7-7---7-------7---7------|
  A|2-------2---2-------2---2------|7-----7-7---7-------7---7------|
  E|0-------0---0-------0---0------|5-----5-5---5-------5---5------|
                                    You
  e|------- ------- ------- -------|------- ------- ------- -------|
  B|-----------12-------12---------|-------------------------------|
  G|9------------------------------|-------------------------------|
  D|------------9--------9--9------|-------------------------------|
  A|7------------------------------|-------------------------------|
  E|------------------------7------|-------------------------------|

    E                               A
  e|0------ 0---0-- ----0-- 0------|5-----5 5---5-- ----5-- 5------|
  B|0-------0---0-------0---0------|5-----5-5---5-------5---5------|
  G|1-------1---1-------1---1------|6-----6-6---6-------6---6------|
  D|2-------2---2-------2---2------|7-----7-7---7-------7---7------|
  A|2-------2---2-------2---2------|7-----7-7---7-------7---7------|
  E|0-------0---0-------0---0------|5-----5-5---5-------5---5------|
                                    You
  e|------- ------- ------- -------|------- ------- ------- -------|
  B|-----------12-------12---------|-------------------------------|
  G|9------------------------------|-------------------------------|
  D|------------9--------9--9------|-------------------------------|
  A|7------------------------------|-------------------------------|
  E|------------------------7------|-------------------------------|


    (.
    Emaj7
  e|------- ------- ------- -------|------- ------- ------- -------|
  B|0------------------------------|-------------------------------|
  G|1------------------------------|-------------------------------|
  D|1------------------------------|-------------------------------|
  A|2------------------------------|-------------------------------|
  E|0------------------------------|-------------------------------|

  e|------- ------- ------- -------|------- ------- ------- -------|
  B|----4---4---0---0--------------|-------------------------------|
  G|--------------------1---1------|-------------------------------|
  D|--------------------1---1------|-------------------------------|
  A|--------------------2---2------|-------------------------------|
  E|-------------------------------|-------------------------------|




        B  Bend
        R  Release
        /  slide up
        \  slide down
        H  hammer-on
        P  pull-off
        ~  vibrato
        +  harmonic
        x  Mute note
        . - play note like a dot in standard notation
        ^ - ties two notes together
        (. pause

  ---------------------------------------------------------------

  THE BEATLES - PLEASE PLEASE ME (McCartney & Lennon) From PLEASE
                PLEASE ME album. Released on March, 22nd 1963.

  ---------------------------------------------------------------

  Tabbed by:PJVillanueva


  The version released on the single and on PLEASE PLEASE ME
  album is an edit of different takes. Lennon's harmonica and
  the vocal parts are too high on the mix and on the verses the
  rhythm guitar part is lost. Luckily the one on the ANTHOLOGY,
  recorded at EMI on september, 11th 1962 lets us hear it and
  that's the reason why I chose to tab this one, although there
  is no harmonica here and Ringo is not playing, but Andy White,
  who had just contributed to the recording of P.S. I LOVE YOU,
  which would be issued as B side of LOVE ME DO. Everyone agrees
  that John's harmonica is essential to PLEASE PLEASE ME, as it
  was to LOVE ME DO, but I think this is a great document too.

  Last night I said these words to my girl
  I know you never even try, girl
  Come on, come on, come on, come on
  Please, please me, woah yeah, like I please you

  You don't need me to show the way, love
  Why do I always have to say, love
  Come on, come on, come on, come on
  Please, please me, woah yeah, like I please you

  I don't want to sound complaining
  But you know there's always rain in my heart
  I do all the pleasing with you,
  It's so hard to reason with you
  Woah yeah, why do you make me blue?

  Last night I said these words to my girl
  I know you never even try, girl
  Come on, come on, come on, come on
  Please, please me, woah yeah, like I please you
  Woah yeah, like I please you
  Woah yeah, like I please you

     INTRO

                                                            X
                                                            Esus4
  e|------- ------- ------- -------|------- ------- ------- -------|
  B|-------------------------------|-------------------------------|
  G|-------------------------------|------------------------2------|
  D|-------------------------------|------------------------2------|
  A|-------------------------------|-------------------------------|
  E|-------------------------------|-------------------------------|

    E
  e|0------ 0---0-- 0------ 0---0--|0------ 0------ 0------ 0------|
  B|0-------0---0---0-------0---0--|0-------0-------0-------0------|
  G|1-------1---1---1-------1---1--|1-------1-------1-------1------|
  D|2-------2---2---2-------2---2--|2-------2-------2-------2------|
  A|2-------2---2---2-------2---2--|2-------2-------2-------2------|
  E|0-------0---0---0-------0---0--|0-------0-------0-------0------|

  e|------- 12----- 11----- 9------|7------ ----9-- 7------ -------|
  B|-------------------------------|------------------------9------|
  G|---------9-------8------6------|4-----------6---4--------------|
  D|-------------------------------|------------------------6------|
  A|-------------------------------|-------------------------------|
  E|-------------------------------|-------------------------------|


                                                        x x X x x

  e|0------ 0------ 0---0-- 0---0--|0------ 0------ 0------ 0------|
  B|0-------0-------0---0---0---0--|0-------0-------0-------0------|
  G|1-------1-------1---1---1---1--|1-------1-------1-------1------|
  D|2-------2-------2---2---2---2--|2-------2-------2-------2------|
  A|2-------2-------2---2---2---2--|2-------2-------2-------2------|
  E|0-------0-------0---0---0---0--|0-------0-------0-------0------|

  e|------- 12----- 11----- 9------|7------ ----9-- 7------ -------|
  B|-------------------------------|------------------------9------|
  G|---------9-------8------6------|4-----------6---4--------------|
  D|-------------------------------|------------------------6------|
  A|-------------------------------|-------------------------------|
  E|-------------------------------|-------------------------------|

    VERSE
    00:07

  e|0------ 0------ 0------ 0---0--|0------ 0---0-- 0------ 0------|
  B|0-------0-------0-------0---0--|0-------0---0---0-------0------|
  G|1-------1-------1-------1---1--|1-------1---1---1-------1------|
  D|2-------2-------2-------2---2--|2-------2---2---2-------2------|
  A|2-------2-------2-------2---2--|2-------2---2---2-------2------|
  E|0-------0-------0-------0---0--|0-------0---0---0-------0------|
            Last    night   I       said    these   words   to
  e|------- ------- ------- -------|------- ------- ------- -------|
  B|-------------------------------|-------------------------------|
  G|9------------------------------|-------------------------------|
  D|-------------------------------|-------------------------------|
  A|7------------------------------|-------------------------------|
  E|-------------------------------|-------------------------------|

    A               E                   G       A       B
  e|0------ 0---0-- 0------ 0---0--|----3-- 3---5-- 5---7-- 7---7--|
  B|2-------2---2---0-------0---0--|----3---3---5---5---7---7---7--|
  G|2-------2---2---1-------1---1--|----4---4---6---6---8---8---8--|
  D|2-------2---2---2-------2---2--|----5---5---7---7---9---9---9--|
  A|0-------0---0---2-------2---2--|----5---5---7---7---9---9---9--|
  E|----------------0-------0---0--|----3---3---5---5---7---7---7--|
    my              girl
  e|------- ------- ------- -------|------- ------- ------- -------|
  B|-------------------------------|-------------------------------|
  G|-------------------------------|-------------------------------|
  D|-------------------------------|----5---5---7---7---9---9---9--|
  A|-------------------------------|----5---5---7---7---9---9---9--|
  E|-------------------------------|----3---3---5---5---7---7---7--|

    E
  e|0------ 0------ 0---0-- 0------|0------ 0---0-- 0------ 0------|
  B|0-------0-------0---0---0------|0-------0---0---0-------0------|
  G|1-------1-------1---1---1------|1-------1---1---1-------1------|
  D|2-------2-------2---2---2------|2-------2---2---2-------2------|
  A|2-------2-------2---2---2------|2-------2---2---2-------2------|
  E|0-------0-------0---0---0------|0-------0---0---0-------0------|
            I       know    you     never           even
  e|0------ ------- ------- -------|------- ------- ------- -------|
  B|0------------------------------|-------------------------------|
  G|1------------------------------|-------------------------------|
  D|2------------------------------|-------------------------------|
  A|2------------------------------|-------------------------------|
  E|0------------------------------|-------------------------------|


                            x x x x x
    A               E
  e|0------ 0------ 0------ 0-0-0-0|0------ ------- ------- -------|
  B|2-------2-------0-------0-0-0-0|0------------------------------|
  G|2-------2-------1-------1-1-1-1|1------------------------------|
  D|2-------2-------2-------2-2-2-2|2------------------------------|
  A|0-------0-------2-------2-2-2-2|2------------------------------|
  E|----------------0-------0-0-0-0|0------------------------------|
    try,            girl                                        Come
  e|------- ------- ------- -------|------- ------- ------- -------|
  B|-------------------------------|-------------------------------|
  G|-------------------------------|-------------------------------|
  D|-------------------------------|----------------2---2----------|
  A|-------------------------------|------------------------2---2--|
  E|-------------------------------|--------0---0------------------|

    REFRAIN
    00:21
    A                               F#m
  e|5------ ----5-- ----5-- 5------|2------ 2---2-- ----2-- 2------|
  B|5-----------5-------5---5------|2-------2---2-------2---2------|
  G|6-----------6-------6---6------|2-------2---2-------2---2------|
  D|7-----------7-------7---7------|4-------4---4-------4---4------|
  A|7-----------7-------7---7------|4-------4---4-------4---4------|
  E|5-----------5-------5---5------|2-------2---2-------2---2------|
    on                         come on                          come
            Come on                         come on
  e|------- ------- ------- -------|------- ------- ------- -------|
  B|-------------------------------|-------------------------------|
  G|-------------------------------|-------------------------------|
  D|-------------------------------|-------------------------------|
  A|4-----------4-----------4---3--|4-------4---4---------------3--|
  E|-------------------------------|-------------------------------|

    Dbm                             A
  e|4------ 4---4-- ----4-- 4------|5------ 5---5-- ----5-- 5------|
  B|5-------5---5-------5---5------|5-------5---5-------5---5------|
  G|6-------6---6-------6---6------|6-------6---6-------6---6------|
  D|6-------6---6-------6---6------|7-------7---7-------7---7------|
  A|4-------4---4-------4---4------|7-------7---7-------7---7------|
  E|-------------------------------|5-------5---5-------5---5------|
    on                         come on                      Please,
            come on                         come on
  e|------- ------- ------- -------|------- ------- ------- -------|
  B|-------------------------------|-------------------------------|
  G|-------------------------------|-------------------------------|
  D|-------------------------------|-------------------------------|
  A|4-----------4-----------4---3--|4-----------4------------------|
  E|-------------------------------|-------------------------------|

    E                               A               B
  e|0------ 0---0-- 0---0-- 0------|5------ 5------ 7------ 7------|
  B|0-------0---0---0---0---0------|5-------5-------7-------7------|
  G|1-------1---1---1---1---1------|6-------6-------8-------8------|
  D|2-------2---2---2---2---2------|7-------7-------9-------9------|
  A|2-------2---2---2---2---2------|7-------7-------9-------9------|
  E|0-------0---0---0---0---0------|5-------5-------7-------7------|
    please          me      woah    yeah       like I       please


    E                               A               B
  e|0---0-- 0---0-- 0---0-- 0------|5------ 5------ 7------ 7------|
  B|0---0---0---0---0---0---0------|5-------5-------7-------7------|
  G|1---1---1---1---1---1---1------|6-------6-------8-------8------|
  D|2---2---2---2---2---2---2------|7-------7-------9-------9------|
  A|2---2---2---2---2---2---2------|7-------7-------9-------9------|
  E|0---0---0---0---0---0---0------|5-------5-------7-------7------|
    you
  e|------- 12----- 11----- 9------|7------ ----9-- 7------ -------|
  B|-------------------------------|------------------------9------|
  G|---------9-------8------6------|4-----------6---4--------------|
  D|-------------------------------|------------------------6------|
  A|-------------------------------|-------------------------------|
  E|0------------------------------|-------------------------------|

    VERSE
    00:34

  e|0------ 0------ 0------ 0------|0------ 0---0-- 0------ 0---0--|
  B|0-------0-------0-------0------|0-------0---0---0-------0---0--|
  G|1-------1-------1-------1------|1-------1---1---1-------1---1--|
  D|2-------2-------2-------2------|2-------2---2---2-------2---2--|
  A|2-------2-------2-------2------|2-------2---2---2-------2---2--|
  E|0-------0-------0-------0------|0-------0---0---0-------0---0--|
            You     don't   need    me      to      show    the
  e|------- ------- ------- -------|------- ------- ------- -------|
  B|-------------------------------|-------------------------------|
  G|9------------------------------|-------------------------------|
  D|-------------------------------|-------------------------------|
  A|7------------------------------|-------------------------------|
  E|-------------------------------|-------------------------------|


  e|0------ 0------ 0------ 0---0--|----3-- 3---5-- 5---7-- 7---7--|
  B|2-------2-------0-------0---0--|----3---3---5---5---7---7---7--|
  G|2-------2-------1-------1---1--|----4---4---6---6---8---8---8--|
  D|2-------2-------2-------2---2--|----5---5---7---7---9---9---9--|
  A|0-------0-------2-------2---2--|----5---5---7---7---9---9---9--|
  E|----------------0-------0---0--|----3---3---5---5---7---7---7--|
    way,            love
  e|------- ------- ------- -------|------- ------- ------- -------|
  B|-------------------------------|-------------------------------|
  G|-------------------------------|-------------------------------|
  D|-------------------------------|----5---5---7---7---9---9---9--|
  A|-------------------------------|----5---5---7---7---9---9---9--|
  E|-------------------------------|----3---3---5---5---7---7---7--|


  e|0------ 0------ 0------ 0---0--|0------ 0---0-- 0------ 0------|
  B|0-------0-------0-------0---0--|0-------0---0---0-------0------|
  G|1-------1-------1-------1---1--|1-------1---1---1-------1------|
  D|2-------2-------2-------2---2--|2-------2---2---2-------2------|
  A|2-------2-------2-------2---2--|2-------2---2---2-------2------|
  E|0-------0-------0-------0---0--|0-------0---0---0-------0------|
            Why     do      I       always          have    to
  e|7------ ------- ------- -------|------- ------- ------- -------|
  B|9------------------------------|-------------------------------|
  G|9------------------------------|-------------------------------|
  D|9------------------------------|-------------------------------|
  A|7------------------------------|-------------------------------|
  E|-------------------------------|-------------------------------|


                        x x x x x x x

  e|0------ 0------ 0------ 0-0-0-0|0------ ------- ------- -------|
  B|2-------2-------0-------0-0-0-0|0------------------------------|
  G|2-------2-------1-------1-1-1-1|1------------------------------|
  D|2-------2-------2-------2-2-2-2|2------------------------------|
  A|0-------0-------2-------2-2-2-2|2------------------------------|
  E|----------------0-------0-0-0-0|0------------------------------|
     say,           love                                        Come
  e|------- ------- ------- -------|------- ------- ------- -------|
  B|-------------------------------|-------------------------------|
  G|-------------------------------|-------------------------------|
  D|-------------------------------|----------------2---2----------|
  A|-------------------------------|------------------------2---2--|
  E|-------------------------------|--------0---0------------------|

    REFRAIN
    00:48

  e|5------ ----5-- ----5-- 5------|2------ 2---2-- ------- 2------|
  B|5-----------5-------5---5------|2-------2---2-----------2------|
  G|6-----------6-------6---6------|2-------2---2-----------2------|
  D|7-----------7-------7---7------|4-------4---4-----------4------|
  A|7-----------7-------7---7------|4-------4---4-----------4------|
  E|5-----------5-------5---5------|2-------2---2-----------2------|
    on                         come on                          come
            Come on                         come on
  e|------- ------- ------- -------|------- ------- ------- -------|
  B|-------------------------------|-------------------------------|
  G|-------------------------------|-------------------------------|
  D|-------------------------------|-------------------------------|
  A|4-----------4-----------4---3--|4-----------4-----------4---3--|
  E|-------------------------------|-------------------------------|


  e|4------ 4---4-- ----4-- 4------|5------ 5---5-- ------- -------|
  B|5-------5---5-------5---5------|5-------5---5------------------|
  G|6-------6---6-------6---6------|6-------6---6------------------|
  D|6-------6---6-------6---6------|7-------7---7------------------|
  A|4-------4---4-------4---4------|7-------7---7------------------|
  E|-------------------------------|5-------5---5------------------|
    on                         come on                      Please,
            come on                         come on
  e|------- ------- ------- -------|------- ------- ------- -------|
  B|-------------------------------|-------------------------------|
  G|-------------------------------|-------------------------------|
  D|-------------------------------|-------------------------------|
  A|4-------4---4-------4---4---3--|4-----------4------------------|
  E|-------------------------------|-------------------------------|


  e|0------ 0---0-- 0------ 0---0--|5------ 5---5-- 7------ 7---7--|
  B|0-------0---0---0-------0---0--|5-------5---5---7-------7---7--|
  G|1-------1---1---1-------1---1--|6-------6---6---8-------8---8--|
  D|2-------2---2---2-------2---2--|7-------7---7---9-------9---9--|
  A|2-------2---2---2-------2---2--|7-------7---7---9-------9---9--|
  E|0-------0---0---0-------0---0--|5-------5---5---7-------7---7--|
    please          me      woah    yeah       like I       please

                                       xxxxxx  xxxxxX  xxxxxX   X

  e|0---0-- 0------ 0---0-- 0------|5------ ------- ------- -------|
  B|0---0---0-------0---0---0------|5------------------------------|
  G|1---1---1-------1---1---1------|6------------------------------|
  D|2---2---2-------2---2---2------|7------------------------------|
  A|2---2---2-------2---2---2------|7------------------------------|
  E|0---0---0-------0---0---0------|5------------------------------|
    you
  e|------- 12----- 11----- 9------|7------ ------- ------- -------|
  B|-------------------------------|-------------------------------|
  G|---------9-------8------6------|4------------------------------|
  D|-------------------------------|-------------------------------|
  A|-------------------------------|-------------------------------|
  E|-------------------------------|-------------------------------|

    BRIDGE
    01:01
    A                               B
  e|0---0-- 0---0-- 0---0-- 0------|2------ 2---2-- 2---2-- 2------|
  B|2---2---2---2---2---2---2------|4-------4---4---4---4---4------|
  G|2---2---2---2---2---2---2------|4-------4---4---4---4---4------|
  D|2---2---2---2---2---2---2------|4-------4---4---4---4---4------|
  A|0---0---0---0---0---0---0------|2-------2---2---2---2---2------|
  E|-------------------------------|-------------------------------|
    I   don't   to  sound           but you know    always  rain
            want        complaining             there's         in
  e|5------ ------- ------- -------|7------ ------- ------- -------|
  B|5------------------------------|7------------------------------|
  G|6------------------------------|8------------------------------|
  D|7------------------------------|9------------------------------|
  A|7------------------------------|9------------------------------|
  E|5------------------------------|7------------------------------|

    E
  e|0---0-- 0---0-- 0---0-- 0------|0------ 0------ 0------ 0------|
  B|0---0---0---0---0---0---0------|0-------0-------0-------0------|
  G|1---1---1---1---1---1---1------|1-------1-------1-------1------|
  D|2---2---2---2---2---2---2------|2-------2-------2-------2------|
  A|2---2---2---2---2---2---2------|2-------2-------2-------2------|
  E|0---0---0---0---0---0---0------|0-------0-------0-------0------|
    my              heart
                                           (In      my      heart)
  e|0------ ------- ------- -------|0------ ------- ------- -------|
  B|0------------------------------|0------------------------------|
  G|1------------------------------|1------------------------------|
  D|2------------------------------|2------------------------------|
  A|2------------------------------|2------------------------------|
  E|0------------------------------|0------------------------------|

    A                               B
  e|0---0-- 0------ 0---0-- 0------|2---2-- 2---2-- 2---2-- 2------|
  B|2---2---2-------2---2---2------|4---4---4---4---4---4---4------|
  G|2---2---2-------2---2---2------|4---4---4---4---4---4---4------|
  D|2---2---2-------2---2---2------|4---4---4---4---4---4---4------|
  A|0---0---0-------0---0---0------|2---2---2---2---2---2---2------|
  E|-------------------------------|-------------------------------|
    I   do  all the pleasing    you it's    hard    reason      with
                            with        so      to
  e|5------ ------- ------- -------|7------ ------- ------- -------|
  B|5------------------------------|7------------------------------|
  G|6------------------------------|8------------------------------|
  D|7------------------------------|9------------------------------|
  A|7------------------------------|9------------------------------|
  E|5------------------------------|7------------------------------|

    E                               A               B
  e|0------ 0---0-- 0---0-- 0---0--|5------ 5------ 7------ 7---7--|
  B|0-------0---0---0---0---0---0--|5-------5-------7-------7---7--|
  G|1-------1---1---1---1---1---1--|6-------6-------8-------8---8--|
  D|2-------2---2---2---2---2---2--|7-------7-------9-------9---9--|
  A|2-------2---2---2---2---2---2--|7-------7-------9-------9---9--|
  E|0-------0---0---0---0---0---0--|5-------5-------7-------7---7--|
    you                     Woah    yeah        Why do  you make
                                                                me
  e|0------ ------- ------- -------|5------ ------- 7------ -------|
  B|0------------------------------|5---------------7--------------|
  G|1------------------------------|6---------------8--------------|
  D|2------------------------------|7---------------9--------------|
  A|2------------------------------|7---------------9--------------|
  E|0------------------------------|5---------------7--------------|

    E                               A               B
  e|0------ 0---0-- 0---0-- 0------|5------ 5------ 7------ 7------|
  B|0-------0---0---0---0---0------|5-------5-------7-------7------|
  G|1-------1---1---1---1---1------|6-------6-------8-------8------|
  D|2-------2---2---2---2---2------|7-------7-------9-------9------|
  A|2-------2---2---2---2---2------|7-------7-------9-------9------|
  E|0-------0---0---0---0---0------|5-------5-------7-------7------|
    blue
  e|------- 12----- 11----- -------|------- ------- ------- -------|
  B|------------------------12-----|14--------------12------12-----|
  G|---------9-------8-------------|------------13-----------------|
  D|-------------------------9-----|11---------------9-------9-----|
  A|-------------------------------|------------11-----------------|
  E|-------------------------------|-------------------------------|

    VERSE
    01:18

  e|0---0-- 0---0-- 0------ 0---0--|0------ 0---0-- 0------ 0---0--|
  B|0---0---0---0---0-------0---0--|0-------0---0---0-------0---0--|
  G|1---1---1---1---1-------1---1--|1-------1---1---1-------1---1--|
  D|2---2---2---2---2-------2---2--|2-------2---2---2-------2---2--|
  A|2---2---2---2---2-------2---2--|2-------2---2---2-------2---2--|
  E|0---0---0---0---0-------0---0--|0-------0---0---0-------0---0--|
            Last    night   I       said    these   words   to
  e|------- ------- ------- -------|------- ------- ------- -------|
  B|-------------------------------|-------------------------------|
  G|9------------------------------|-------------------------------|
  D|-------------------------------|-------------------------------|
  A|7------------------------------|-------------------------------|
  E|-------------------------------|-------------------------------|


  e|0------ 0---0-- 0------ 0---0--|----3-- 3---5-- 5---7-- 7---7--|
  B|2-------2---2---0-------0---0--|----3---3---5---5---7---7---7--|
  G|2-------2---2---1-------1---1--|----4---4---6---6---8---8---8--|
  D|2-------2---2---2-------2---2--|----5---5---7---7---9---9---9--|
  A|0-------0---0---2-------2---2--|----5---5---7---7---9---9---9--|
  E|----------------0-------0---0--|----3---3---5---5---7---7---7--|
    my              girl
  e|------- ------- ------- -------|------- ------- ------- -------|
  B|-------------------------------|-------------------------------|
  G|-------------------------------|-------------------------------|
  D|-------------------------------|----5---5---7---7---9---9---9--|
  A|-------------------------------|----5---5---7---7---9---9---9--|
  E|-------------------------------|----3---3---5---5---7---7---7--|


  e|0------ 0------ 0---0-- 0------|0------ 0---0-- 0------ 0---0--|
  B|0-------0-------0---0---0------|0-------0---0---0-------0---0--|
  G|1-------1-------1---1---1------|1-------1---1---1-------1---1--|
  D|2-------2-------2---2---2------|2-------2---2---2-------2---2--|
  A|2-------2-------2---2---2------|2-------2---2---2-------2---2--|
  E|0-------0-------0---0---0------|0-------0---0---0-------0---0--|
            I       know    you     never           even
  e|7------ ------- ------- -------|------- ------- ------- -------|
  B|9------------------------------|-------------------------------|
  G|9------------------------------|-------------------------------|
  D|9------------------------------|-------------------------------|
  A|7------------------------------|-------------------------------|
  E|-------------------------------|-------------------------------|


                            x x x x x

  e|0------ 0---0-- 0------ 0-0-0-0|0------ ------- ------- -------|
  B|2-------2---2---0-------0-0-0-0|0------------------------------|
  G|2-------2---2---1-------1-1-1-1|1------------------------------|
  D|2-------2---2---2-------2-2-2-2|2------------------------------|
  A|0-------0---0---2-------2-2-2-2|2------------------------------|
  E|----------------0-------0-0-0-0|0------------------------------|
    try,            girl                                        Come
  e|------- ------- ------- -------|------- ------- ------- -------|
  B|-------------------------------|-------------------------------|
  G|-------------------------------|-------------------------------|
  D|-------------------------------|----------------2---2----------|
  A|-------------------------------|------------------------2---2--|
  E|-------------------------------|--------0---0------------------|

    REFRAIN
    00:21

  e|5------ 5---5-- ----5-- 5------|2------ 2---2-- ----2-- 2------|
  B|5-------5---5-------5---5------|2-------2---2-------2---2------|
  G|6-------6---6-------6---6------|2-------2---2-------2---2------|
  D|7-------7---7-------7---7------|4-------4---4-------4---4------|
  A|7-------7---7-------7---7------|4-------4---4-------4---4------|
  E|5-------5---5-------5---5------|2-------2---2-------2---2------|
    on                         come on                          come
            Come on                         come on
  e|------- ------- ------- -------|------- ------- ------- -------|
  B|-------------------------------|-------------------------------|
  G|-------------------------------|-------------------------------|
  D|-------------------------------|-------------------------------|
  A|4-----------4-------4---4---3--|4-----------4-------4-------3--|
  E|-------------------------------|-------------------------------|


  e|4------ ----4-- ----4-- 4------|5------ 5---5-- ----5-- 5------|
  B|5-----------5-------5---5------|5-------5---5-------5---5------|
  G|6-----------6-------6---6------|6-------6---6-------6---6------|
  D|6-----------6-------6---6------|7-------7---7-------7---7------|
  A|4-----------4-------4---4------|7-------7---7-------7---7------|
  E|-------------------------------|5-------5---5-------5---5------|
    on                         come on                      Please,
            come on                         come on
  e|------- ------- ------- -------|------- ------- ------- -------|
  B|-------------------------------|-------------------------------|
  G|-------------------------------|-------------------------------|
  D|-------------------------------|-------------------------------|
  A|4-----------4-------4---4---3--|4-----------4------------------|
  E|-------------------------------|-------------------------------|

    CODA
    01:39
    E                               A               B
  e|0------ 0---0-- 0---0-- 0------|5------ 5------ 7------ 7---7--|
  B|0-------0---0---0---0---0------|5-------5-------7-------7---7--|
  G|1-------1---1---1---1---1------|6-------6-------8-------8---8--|
  D|2-------2---2---2---2---2------|7-------7-------9-------9---9--|
  A|2-------2---2---2---2---2------|7-------7-------9-------9---9--|
  E|0-------0---0---0---0---0------|5-------5-------7-------7---7--|
    please          me      woah    yeah       like I       please


    E                               A               B
  e|0------ 0---0-- 0------ 0------|5------ 5------ 7------ 7------|
  B|0-------0---0---0-------0------|5-------5-------7-------7------|
  G|1-------1---1---1-------1------|6-------6-------8-------8------|
  D|2-------2---2---2-------2------|7-------7-------9-------9------|
  A|2-------2---2---2-------2------|7-------7-------9-------9------|
  E|0-------0---0---0-------0------|5-------5-------7-------7------|
    please          me      woah    yeah       like I       please
    you
  e|------- 12----- 11----- 9------|7------ ----9-- 7------ -------|
  B|-------------------------------|------------------------9------|
  G|---------9-------8------6------|4-----------6---4--------------|
  D|-------------------------------|------------------------6------|
  A|-------------------------------|-------------------------------|
  E|0------------------------------|-------------------------------|

    E                               A               B
  e|0------ 0---0-- 0---0-- 0------|5------ 5------ 7------ 7------|
  B|0-------0---0---0---0---0------|5-------5-------7-------7------|
  G|1-------1---1---1---1---1------|6-------6-------8-------8------|
  D|2-------2---2---2---2---2------|7-------7-------9-------9------|
  A|2-------2---2---2---2---2------|7-------7-------9-------9------|
  E|0-------0---0---0---0---0------|5-------5-------7-------7------|
    please          me      woah    yeah       like I       please
    you
  e|------- 12----- 11----- 9------|7------ ----9-- 7------ -------|
  B|-------------------------------|------------------------9------|
  G|---------9-------8------6------|4-----------6---4--------------|
  D|-------------------------------|------------------------6------|
  A|-------------------------------|-------------------------------|
  E|0------------------------------|-------------------------------|


    X       x x x x X       x x x x X       x x x x X       x x x x
    E               G               C               B
  e|0------ ------- 3------ -------|8------ ------- 7------ -------|
  B|0---------------3--------------|8---------------7--------------|
  G|1---------------4--------------|9---------------8--------------|
  D|2---------------5--------------10---------------9--------------|
  A|2---------------5--------------10---------------9--------------|
  E|0---------------3--------------|8---------------7--------------|
    you
  e|0------ ------- 3------ -------|8------ ------- 7------ -------|
  B|0---------------3--------------|8---------------7--------------|
  G|1---------------4--------------|9---------------8--------------|
  D|2---------------5--------------10---------------9--------------|
  A|2---------------5--------------10---------------9--------------|
  E|0---------------3--------------|8---------------7--------------|

   (.
    X
    E
  e|0------ ------- ------- -------|------- ------- ------- -------|
  B|0------------------------------|-------------------------------|
  G|1------------------------------|-------------------------------|
  D|2------------------------------|-------------------------------|
  A|2------------------------------|-------------------------------|
  E|0------------------------------|-------------------------------|

  e|0------ ------- ------- -------|------- ------- ------- -------|
  B|0------------------------------|-------------------------------|
  G|1------------------------------|-------------------------------|
  D|2------------------------------|-------------------------------|
  A|2------------------------------|-------------------------------|
  E|0------------------------------|-------------------------------|



        B  Bend
        R  Release
        /  Slide up
        \  Slide down
        H  Hammer-on
        P  Pull-off
        ~  Vibrato
        +  Harmonic
        x  Mute note
        .  Play note like a dot in standard notation
        ^  Ties two notes together
        (. Pause

   ----------------------------------------------------------------

   THE BEATLES - LOVE ME DO (McCartney & Lennon) From PLEASE PLEASE
                 ME album. Released on March, 22nd 1963.

   ----------------------------------------------------------------

   Tabbed by:PJVillanueva

  The first official Beatles single with EMI PARLOPHONE is a very
  simple three chord song with rather bare lyrics and purposely
  repetitive (I'd say almost jokingly repetitive), but it is also
  something "different", with a very precise and contagious rhytm
  , far from the bland and stale Mitch Murray's HOW DO YOU DO IT,
  which was intended as a first single for them. There was no need
  to insist on George Martin to give it a chance and although it
  only made #17 in the U.K., in spite of Brian Epstein supposedly
  ordering 10.000 copies for his NEMS shop in Liverpool to boost
  the record on the charts, curiosity stung and he took a liking
  for them because he saw that they showed an unmistakeable value
  as composers.
  We can hear the first version of the single, with Ringo playing
  drums, on THE BEATLES PAST MASTERS ONE, although the mix is much
  more obscure. Ringo's bass drum was sunk because it didn't match
  the bass and Paul's vocal part is much less confident (he sounds
  like a bundle of nerves). But this version from PLEASE PLEASE ME
  album (the one tabbed here) sounds much better. Andy White sat
  in on drums and Ringo played tambourine (Don't you think he beat
  it too hard?. Sure It must have been a hell of a time for him,
  although he gained due recognition finishing the album. Else,
  White would only contribute to P.S. I LOVE YOU and an unreleased
  version of PLEASE PLEASE ME). In this mix, guitars and harmonica
  come to light and Paul sings much better. John and George play
  both rhytm on their Gibson J-160's and they match it almost to
  perfection in a very studied way (they had five days to rehearse
  the song from the first try on June, 6th).

  Love, love me do.
  You know I love you,
  I'll always be true
  So please, love me do.
  Whoah, love me do.

  Love, love me do.
  You know I love you,
  I'll always be true,
  So please, love me do.
  Whoah, love me do.

  Someone to love,
  Somebody new.
  Someone to love,
  Someone like you.

  Love, love me do.
  You know I love you,
  I'll always be true,
  So please, love me do.
  Whoah, love me do.

  Love, love me do.
  You know I love you,
  I'll always be true,
  So please, love me do.
  Whoah, love me do.
  Yeah, love me do.
  Whoah, love me do.


    INTRO

    12/8 time

    G                               C
  e|3------ 3------ 3------ 3------|3------ 3----3- -----3- 3------|
  B|3-------3-------3-------3------|1-------1----1-------1--1----0-|
  G|0-------0-------0-------0------|0-------0----0-------0--0----0-|
  D|0-------0-------0-------0------|2-------2----2-------2--2----0-|
  A|2-------2-------2-------2------|3-------3----3-------3--3------|
  E|3-------3-------3-------3------|-------------------------------|


    G                               C
  e|3------ 3------ 3------ 3------|3------ 3----3- -----3- -------|
  B|3-------3-------3-------3------|1-------1----1-------1-------0-|
  G|0-------0-------0-------0------|0-------0----0-------0-------0-|
  D|0-------0-------0-------0------|2-------2----2-------2-------0-|
  A|2-------2-------2-------2------|3-------3----3-------3---------|
  E|3-------3-------3-------3------|-------------------------------|


    G                               C
  e|3------ 3------ 3------ 3------|3------ 3----3- -----3- 3------|
  B|3-------3-------3-------3------|1-------1----1-------1--1------|
  G|0-------0-------0-------0------|0-------0----0-------0--0------|
  D|0-------0-------0-------0------|2-------2----2-------2--2------|
  A|2-------2-------2-------2------|3-------3----3-------3--3------|
  E|3-------3-------3-------3------|-------------------------------|


    G
  e|3------ 3------ ------- 3------|------- 3----3- -----3- 3----3-|
  B|3-------3---------------3------|--------3----3-------3--3----3-|
  G|0-------0---------------0------|--------0----0-------0--0----0-|
  D|0-------0---------------0------|--------0----0-------0--0----0-|
  A|2-------2---------------2------|--------2----2-------2--2----2-|
  E|3-------3---------------3------|--------3----3-------3--3----3-|

    VERSE 1
    00:13
    G                               C
  e|3------ 3------ 3------ 3------|3------ 3----3- -----3- 3----3-|
  B|3-------3-------3-------3------|1-------1----1-------1--1----1-|
  G|0-------0-------0-------0------|0-------0----0-------0--0----0-|
  D|0-------0-------0-------0------|2-------2----2-------2--2----2-|
  A|2-------2-------2-------2------|3-------3----3-------3--3----3-|
  E|3-------3-------3-------3------|-------------------------------|
    Love            love    me   do.                         You

    G                               C
  e|3------ 3------ ------- 3------|3------ 3----3- -----3- 3----3-|
  B|3-------3---------------3------|1-------1----1-------1--1----1-|
  G|0-------0---------------0------|0-------0----0-------0--0----0-|
  D|0-------0---------------0------|2-------2----2-------2--2----2-|
  A|2-------2---------------2------|3-------3----3-------3--3----3-|
  E|3-------3---------------3------|-------------------------------|
    know            I       love you,                       I'll

    G                               C
  e|3------ 3------ ------- 3------|3------ 3----3- -----3- 3----3-|
  B|3-------3---------------3------|1-------1----1-------1--1----1-|
  G|0-------0---------------0------|0-------0----0-------0--0----0-|
  D|0-------0---------------0------|2-------2----2-------2--2----2-|
  A|2-------2---------------2------|3-------3----3-------3--3----3-|
  E|3-------3---------------3------|-------------------------------|
    always                  be   true                       so


  e|3------ 3----3- 3----3- 3----3-|3------ 3----3- 3----3- 3----3-|
  B|1-------1----1--1----1--1----1-|1-------1----1--1----1--1----1-|
  G|0-------0----0--0----0--0----0-|0-------0----0--0----0--0----0-|
  D|2-------2----2--2----2--2----2-|2-------2----2--2----2--2----2-|
  A|3-------3----3--3----3--3----3-|3-------3----3--3----3--3----3-|
  E|-------------------------------|-------------------------------|
    please,


  e|3------ ------- ------- -------|
  B|1------------------------------|
  G|0------------------------------|
  D|2------------------------------|
  A|3------------------------------|
  E|-------------------------------|
                    Love    me


  e|3------ 3------ ------- 3------|3------ 3----3- -----3- 3----3-|
  B|3-------3---------------3------|1-------1----1-------1--1----1-|
  G|0-------0---------------0------|0-------0----0-------0--0----0-|
  D|0-------0---------------0------|2-------2----2-------2--2----2-|
  A|2-------2---------------2------|3-------3----3-------3--3----3-|
  E|3-------3---------------3------|-------------------------------|
    do.                                     Woah


  e|3------ 3------ ------- 3------|3------ 3----3- -----3- 3----3-|
  B|3-------3---------------3------|1-------1----1-------1--1----1-|
  G|0-------0---------------0------|0-------0----0-------0--0----0-|
  D|0-------0---------------0------|2-------2----2-------2--2----2-|
  A|2-------2---------------2------|3-------3----3-------3--3----3-|
  E|3-------3---------------3------|-------------------------------|
    Love me      do

    VERSE 2
    00:34

  e|3------ 3------ ------- 3------|3------ 3----3- -----3- 3----3-|
  B|3-------3---------------3------|1-------1----1-------1--1----1-|
  G|0-------0---------------0------|0-------0----0-------0--0----0-|
  D|0-------0---------------0------|2-------2----2-------2--2----2-|
  A|2-------2---------------2------|3-------3----3-------3--3----3-|
  E|3-------3---------------3------|-------------------------------|
    Love            love    me   do.                         You


  e|3------ 3------ 3------ 3------|3------ 3----3- -----3- 3----3-|
  B|3-------3-------3-------3------|1-------1----1-------1--1----1-|
  G|0-------0-------0-------0------|0-------0----0-------0--0----0-|
  D|0-------0-------0-------0------|2-------2----2-------2--2----2-|
  A|2-------2-------2-------2------|3-------3----3-------3--3----3-|
  E|3-------3-------3-------3------|-------------------------------|
    know            I       love you,                       I'll


  e|3------ 3------ 3------ 3----3-|3------ 3----3- -----3- 3------|
  B|3-------3-------3-------3----3-|1-------1----1-------1--1------|
  G|0-------0-------0-------0----0-|0-------0----0-------0--0------|
  D|0-------0-------0-------0----0-|2-------2----2-------2--2------|
  A|2-------2-------2-------2----2-|3-------3----3-------3--3------|
  E|3-------3-------3-------3----3-|-------------------------------|
    always                  be   true                       so


  e|3------ 3------ 3------ 3----3-|3------ 3----3- 3----3- 3------|
  B|1-------1-------1-------1----1-|1-------1----1--1----1--1------|
  G|0-------0-------0-------0----0-|0-------0----0--0----0--0------|
  D|2-------2-------2-------2----2-|2-------2----2--2----2--2------|
  A|3-------3-------3-------3----3-|3-------3----3--3----3--3------|
  E|-------------------------------|-------------------------------|
    please,


  e|3------ ------- ------- -------|
  B|1------------------------------|
  G|0------------------------------|
  D|2------------------------------|
  A|3------------------------------|
  E|-------------------------------|
                    Love    me


  e|3------ 3------ 3------ 3----3-|3------ 3----3- -----3- 3----3-|
  B|3-------3-------3-------3----3-|1-------1----1-------1--1----1-|
  G|0-------0-------0-------0----0-|0-------0----0-------0--0----0-|
  D|0-------0-------0-------0----0-|2-------2----2-------2--2----2-|
  A|2-------2-------2-------2----2-|3-------3----3-------3--3----3-|
  E|3-------3-------3-------3----3-|-------------------------------|
    do.                                     Woah


  e|3------ 3----3- 3------ 3----3-|3------ 3----3- 3----3- 3------|
  B|3-------3----3--3-------3----3-|3-------3----3--3----3--3------|
  G|0-------0----0--0-------0----0-|0-------0----0--0----0--0------|
  D|0-------0----0--0-------0----0-|0-------0----0--0----0--0------|
  A|2-------2----2--2-------2----2-|2-------2----2--2----2--2------|
  E|3-------3----3--3-------3----3-|3-------3----3--3----3--3------|

    MIDDLE EIGHT
    00:55
    D
  e|2------ 2------ ------- 2------|2------ 2------ 2------ 2------|
  B|3-------3---------------3------|3-------3-------3-------3------|
  G|2-------2---------------2------|2-------2-------2-------2------|
  D|0-------0---------------0------|0-------0-------0-------0------|
  A|-------------------------------|-------------------------------|
  E|-------------------------------|-------------------------------|
    Some                    to      love

    C                               G
  e|3------ 3------ ------- 3------|3------ 3----3- 3----3- 3----3-|
  B|1-------1---------------1------|3-------3----3--3----3--3----3-|
  G|0-------0---------------0------|0-------0----0--0----0--0----0-|
  D|2-------2---------------2------|0-------0----0--0----0--0----0-|
  A|3-------3---------------3------|2-------2----2--2----2--2----2-|
  E|-------------------------------|3-------3----3--3----3--3----3-|
    Somebody                        new

    D
  e|2------ 2------ 2------ 2------|2------ 2----2- 2------ 2------|
  B|3-------3-------3-------3------|3-------3----3--3-------3------|
  G|2-------2-------2-------2------|2-------2----2--2-------2------|
  D|0-------0-------0-------0------|0-------0----0--0-------0------|
  A|-------------------------------|-------------------------------|
  E|-------------------------------|-------------------------------|
    Some                    to      love

    C                                       G
  e|3------ 3------ ------- 3------|------- 3------ 3------ -------|
  B|1-------1---------------1------|--------3-------3--------------|
  G|0-------0---------------0------|--------0-------0--------------|
  D|2-------2---------------2------|--------0-------0--------------|
  A|3-------3---------------3------|--------2-------2--------------|
  E|-------------------------------|--------3-------3--------------|
    Someone                 like    you


    VERSE 3
    01:08
    Love, love me do.
    You know I love you,
    I'll always be true,
    So please, love me do.
    Whoa, love me do.


    HARMONICA SOLO (2nd MIDDLE EIGHT)
    01:30


    VERSE 4 (CODA)
    01:49
    Love, love me do.
    You know I love you,
    I'll always be true,
    So please, love me do.
    Whoa, love me do.
    Yeah, love me do.
    Whoah, love me do.


        B  Bend
        R  Release
        /  Slide up
        \  Slide down
        H  Hammer-on
        P  Pull-off
        ~  Vibrato
        +  Harmonic
        x  Mute note
        .  Play note like a dot in standard notation
        ^  Ties two notes together
        (. Pause

  --------------------------------------------------------------

  THE BEATLES - P.S. I LOVE YOU (McCartney & Lennon) From PLEASE
                PLEASE ME album. Released on March, 22nd 1963.

  --------------------------------------------------------------

  Tabbed by:PJVillanueva


  Andy White sat in on drums on this number, as in LOVE ME DO,
  Ringo just playing maracas. It sounds like a latin ballad,
  halfway between a bolero and a cha cha cha (listen to White's
  rim shots acompaniment - some people said it was woodblocks -
  and also its typical tempo and ending). This is not a pastiche
  cha, however. Paul used on it an original device extending the
  refrain with a Bb chord (bVI) half a step up A dominant chord
  (V) and then resolving to tonic through C (bVII) (bVI bVII I).
  Both things seem very interesting at this stage of the Beatles
  career:


  I                  iim                I
  D                  Em                 D
  Treasure these few words 'til we're together, keep

  V                  vim                V
  A                  Bm                 A
  all my love      forever,             P.S.,   I love

  bVI                        bVI  bVII  I
  Bb                         Bb   C     D
  You.                       you  you   you.

  Usually the dominant (V) resolves to the tonic (I).


  (For those who find this a little messy, maybe the examples
  at the bottom will help).

  As I write this letter,
  Send my love to you
  Remember that I'll always
  Be in love with you.

  Treasure these few words 'til we're together,
  Keep all my love forever,
  P.S., I love you.
  You, you, you.

  I'll be coming home again to you, love,
  And 'til the day I do, love,
  P.S., I love you.
  You, you, you.

  As I write this letter,
  Send my love to you
  Remember that I'll always
  Be in love with you.

  Treasure these few words 'til we're together,
  Keep all my love forever,
  P.S., I love you.
  You, you, you.

  As I write this letter, (Oh oh oh)
  Send my love to you, (You know I want you to)
  Remember that I'll always, (Yeah)
  Be in love with you.

  I'll be coming home again to you, love,
  And 'til the day I do, love,
  P.S., I love you.
  You, you, you.
  You, you, you.
  I love you.

        George plays the same chords than John an octave up.

    INTRO

    G               Db              D
  e|3---3-- 3------ 1---1-- 1------|2---2-- 2---2-- 2---2-- 2---0--|
  B|3---3---3-------2---2---2------|3---3---3---3---3---3---3---0--|
  G|4---4---4-------1---1---1------|2---2---2---2---2---2---2---0--|
  D|5---5---5-------3---3---3------|4---4---4---4---4---4---4---0--|
  A|5---5---5----------------------|-------------------------------|
  E|3---3---3----------------------|-------------------------------|
    As      I       write           letter,
                                this
  e|10--10- ------- ------- -------|10--10- 10--10- 10--10- 10--10-|
  B|12--12----------9-------9------|10--10--10--10--10--10--10--10-|
  G|12--12---------10------10------|11--11--11--11--11--11--11--11-|
  D|12--12---------11------11------|12--12--12--12--12--12--12--12-|
  A|10--10---------11------11------|12--12--12--12--12--12--12--12-|
  E|----------------9-------9------|10--10--10--10--10--10--10--10-|

    G               Db              D
  e|3---3-- 3------ 1---1-- 1------|2------ 2---2-- 2---2-- 2------|
  B|3---3---3-------2---2---2------|3-------3---3---3---3---3------|
  G|4---4---4-------1---1---1------|2-------2---2---2---2---2------|
  D|5---5---5-------3---3---3------|4-------4---4---4---4---4------|
  A|5---5---5----------------------|-------------------------------|
  E|3---3---3----------------------|-------------------------------|
    Send    my      love        to  you,                        Remember
  e|10--10- ------- ------- -------|10----- 10--10- 10--10- 10-----|
  B|12--12----------9-------9------|10------10--10--10--10--10-----|
  G|12--12---------10------10------|11------11--11--11--11--11-----|
  D|12--12---------11------11------|12------12--12--12--12--12-----|
  A|10--10---------11------11------|12------12--12--12--12--12-----|
  E|----------------9-------9------|10------10--10--10--10--10-----|

    G               Db              D
  e|3---3-- ------- 1------ 1------|2------ 2---2-- 2---2-- 2---2--|
  B|3---3-----------2-------2------|3-------3---3---3---3---3---3--|
  G|4---4-----------1-------1------|2-------2---2---2---2---2---2--|
  D|5---5-----------3-------3------|4-------4---4---4---4---4---4--|
  A|5---5--------------------------|-------------------------------|
  E|3---3--------------------------|-------------------------------|
                    that            always
                                I'll
  e|10--10- ------- ------- -------|10----- 10--10- 10----- 10-----|
  B|12--12----------9--------------|10------10--10--10------10-----|
  G|12--12---------10--------------|11------11--11--11------11-----|
  D|12--12---------11--------------|12------12--12--12------12-----|
  A|10--10---------11--------------|12------12--12--12------12-----|
  E|----------------9--------------|10------10--10--10------10-----|

                    A               D
  e|2------ 2------ 0------ 0------|----2-- 2---2-- 2---2-- 2------|
  B|3-------3-------2-------2------|3---3---3---3---3---3---3------|
  G|2-------2-------2-------2------|2---2---2---2---2---2---2------|
  D|4-------4-------2-------2------|0---0---0---0---0---0---0------|
  A|----------------0-------0------|-------------------------------|
  E|-------------------------------|-------------------------------|
    be      in      love     with   you
  e|10----- 10----- ------- -------|10--10- 10--10- 10--10- 10-----|
  B|10------10-----10------10------|10--10--10--10--10--10--10-----|
  G|11------11------9-------9------|11--11--11--11--11--11--11-----|
  D|12------12-----11------11------|12--12--12--12--12--12--12-----|
  A|12------12-----12------12------|12--12--12--12--12--12--12-----|
  E|10------10---------------------|10--10--10--10--10--10--10-----|


    VERSE
    00:14
                                    Em
  e|2---2-- 2---2-- 2---2-- 2---0--|0------ 0---0-- 0---0-- 0---0--|
  B|3---3---3---3---3---3---3---0--|0-------0---0---0---0---0---0--|
  G|2---2---2---2---2---2---2---0--|0-------0---0---0---0---0---0--|
  D|0---0---0---0---0---0---0------|2-------2---2---2---2---2------|
  A|-------------------------------|2-------2---2---2---2---2------|
  E|-------------------------------|0-------0---0---0---0---0------|
    Treasure        these   few     words       till    we're   together
  e|10--10- 10----- 10----- 10--7--|7------ 7------ 7------ 7------|
  B|10--10--10------10------10--8--|8-------8-------8-------8------|
  G|11--11--11------11------11--9--|9-------9-------9-------9------|
  D|12--12--12------12------12-----|9-------9-------9-------9------|
  A|12--12--12------12------12-----|7-------7-------7-------7------|
  E|10--10--10------10------10-----|-------------------------------|

    D                               A
  e|2---2-- 2---2-- ----2-- 2------|0---0-- 0---0-- ----0-- 0------|
  B|3---3---3---3-------3---3------|2---2---2---2-------2---2---0--|
  G|2---2---2---2-------2---2------|2---2---2---2-------2---2---0--|
  D|0---0---0---0-------0---0------|2---2---2---2-------2---2---0--|
  A|-------------------------------|0---0---0---0-------0---0------|
  E|-------------------------------|-------------------------------|
                                    all         my      love    forever
                                Keep
  e|10----- 10--10- 10--10- 10-----|5------ 5---5-- ----5-- 5---5--|
  B|10------10--10--10--10--10-----|5-------5---5-------5---5---5--|
  G|11------11--11--11--11--11-----|6-------6---6-------6---6---6--|
  D|12------12--12--12--12--12-----|7-------7---7-------7---7---7--|
  A|12------12--12--12--12--12-----|7-------7---7-------7---7---7--|
  E|10------10--10--10--10--10-----|5-------5---5-------5---5---5--|

    Bm                              A
  e|2---2-- 2---2-- 2---2-- 2------|0------ 0---0-- 0---0-- 0------|
  B|3---3---3---3---3---3---3---0--|2-------2---2---2---2---2------|
  G|4---4---4---4---4---4---4---0--|2-------2---2---2---2---2------|
  D|4---4---4---4---4---4---4---0--|2-------2---2---2---2---2------|
  A|2---2---2---2---2---2---2------|0-------0---0---0---0---0------|
  E|-------------------------------|-------------------------------|
                                    P.      S.          I       love
  e|7------ 7------ 7------ 7---7--|5------ 5---5-- 5---5-- 5------|
  B|7-------7-------7-------7---7--|5-------5---5---5---5---5------|
  G|7-------7-------7-------7---7--|6-------6---6---6---6---6------|
  D|9-------9-------9-------9---9--|7-------7---7---7---7---7------|
  A|9-------9-------9-------9---9--|7-------7---7---7---7---7------|
  E|7-------7-------7-------7---7--|5-------5---5---5---5---5------|

    Bb                                                      C
  e|1------ 1---1-- 1---1-- 1------|1-----1 1---1-- 1------ 0------|
  B|3-------3---3---3---3---3------|3-----3-3---3---3-------1------|
  G|3-------3---3---3---3---3------|3-----3-3---3---3-------0------|
  D|3-------3---3---3---3---3------|3-----3-3---3---3-------2------|
  A|1-------1---1---1---1---1------|1-----1-1---1---1-------3------|
  E|-------------------------------|-------------------------------|
    you                                             you     you
  e|6------ 6---6-- 6------ 6------|6------ 6---6-- 6------ 8------|
  B|6-------6---6---6-------6------|6-------6---6---6-------8------|
  G|7-------7---7---7-------7------|7-------7---7---7-------9------|
  D|8-------8---8---8-------8------|8-------8---8---8------10------|
  A|8-------8---8---8-------8------|8-------8---8---8------10------|
  E|6-------6---6---6-------6------|6-------6---6---6-------8------|

    D
  e|2-----2 2---2-- 2---2-- 2---2--|2-----2 2---2-- 2---2-- 2---2--|
  B|3-----3-3---3---3---3---3---3--|3-----3-3---3---3---3---3---3--|
  G|2-----2-2---2---2---2---2---2--|2-----2-2---2---2---2---2---2--|
  D|0-----0-0---0---0---0---0---0--|0-----0-0---0---0---0---0---0--|
  A|-------------------------------|-------------------------------|
  E|-------------------------------|-------------------------------|
    you
  e|10----- 10--10- 10----- 10--10-|10----- 10--10- 10----- -------|
  B|10------10--10--10------10--10-|10------10--10--10------10-----|
  G|11------11--11--11------11--11-|11------11--11--11------11-----|
  D|12------12--12--12------12--12-|12------12--12--12------12-----|
  A|12------12--12--12------12--12-|12------12--12--12------12-----|
  E|10------10--10--10------10--10-|10------10--10--10------10-----|


    VERSE
    00:32

  e|2------ 2---2-- 2---2-- 2---0--|0---0-- 0---0-- 0---0-- 0---0--|
  B|3-------3---3---3---3---3---0--|0---0---0---0---0---0---0---0--|
  G|2-------2---2---2---2---2---0--|0---0---0---0---0---0---0---0--|
  D|0-------0---0---0---0---0------|2---2---2---2---2---2---2---2--|
  A|-------------------------------|2---2---2---2---2---2---2---2--|
  E|-------------------------------|0---0---0---0---0---0---0---0--|
    I'll    be      coming          home        again           to
  e|10----- 10--10- 10----- 10--7--|7------ 7---7-- 7------ 7------|
  B|10------10--10--10------10--8--|8-------8---8---8-------8------|
  G|11------11--11--11------11--9--|9-------9---9---9-------9------|
  D|12------12--12--12------12-----|9-------9---9---9-------9------|
  A|12------12--12--12------12-----|7-------7---7---7-------7------|
  E|10------10--10--10------10-----|-------------------------------|


  e|2------ 2---2-- 2---2-- 2---0--|0---0-- 0---0-- ----0-- 0------|
  B|3-------3---3---3---3---3---0--|2---2---2---2-------2---2---0--|
  G|2-------2---2---2---2---2---0--|2---2---2---2-------2---2---0--|
  D|0-------0---0---0---0---0------|2---2---2---2-------2---2---0--|
  A|-------------------------------|0---0---0---0-------0---0------|
  E|-------------------------------|-------------------------------|
    you,    love                and 'til        the day     I
  e|10----- ------- ------- -------|5------ 5------ ------- 5------|
  B|10------10------10------10-----|5-------5---------------5------|
  G|11------11------11------11-----|6-------6---------------6------|
  D|12------12------12------12-----|7-------7---------------7------|
  A|12------12------12------12-----|7-------7---------------7------|
  E|10------10------10------10-----|5-------5---------------5------|

  e|2------ 2---2-- 2---2-- 2------|0---0-- ----0-- ----0-- 0------|
  B|3-------3---3---3---3---3---0--|2---2-------2-------2---2---0--|
  G|4-------4---4---4---4---4---0--|2---2-------2-------2---2---0--|
  D|4-------4---4---4---4---4---0--|2---2-------2-------2---2---0--|
  A|2-------2---2---2---2---2------|0---0-------0-------0---0------|
  E|-------------------------------|-------------------------------|
    do,     love                    P.      S.          I       love
  e|7------ 7------ 7------ 7------|5------ 5------ 5---5-- 5------|
  B|7-------7-------7-------7------|5-------5-------5---5---5------|
  G|7-------7-------7-------7------|6-------6-------6---6---6------|
  D|9-------9-------9-------9------|7-------7-------7---7---7------|
  A|9-------9-------9-------9------|7-------7-------7---7---7------|
  E|7-------7-------7-------7------|5-------5-------5---5---5------|


  e|1------ 1---1-- 1---1-- 1------|1-----1 1---1-- 1------ 0------|
  B|3-------3---3---3---3---3------|3-----3-3---3---3-------1------|
  G|3-------3---3---3---3---3------|3-----3-3---3---3-------0------|
  D|3-------3---3---3---3---3------|3-----3-3---3---3-------2------|
  A|1-------1---1---1---1---1------|1-----1-1---1---1-------3------|
  E|-------------------------------|-------------------------------|
    you                                             you     you
  e|6------ 6------ 6------ 6---6--|6------ 6------ 6------ 8------|
  B|6-------6-------6-------6---6--|6-------6-------6-------8------|
  G|7-------7-------7-------7---7--|7-------7-------7-------9------|
  D|8-------8-------8-------8---8--|8-------8-------8------10------|
  A|8-------8-------8-------8---8--|8-------8-------8------10------|
  E|6-------6-------6-------6---6--|6-------6-------6-------8------|


  e|2---2-- ----2-- ----2-- ----2--|2-----2 2---2-- 2---2-- 2------|
  B|3---3-------3-------3-------3--|3-----3-3---3---3---3---3---0--|
  G|2---2-------2-------2-------2--|2-----2-2---2---2---2---2---0--|
  D|0---0-------0-------0-------0--|0-----0-0---0---0---0---0---0--|
  A|-------------------------------|-------------------------------|
  E|-------------------------------|-------------------------------|

  e|10--10- ---10-- ------- -------|------- ------- ------- -------|
  B|10--10-----10---10------10--10-|10------10------10------10-----|
  G|11--11-----11---11------11--11-|11------11------11------11-----|
  D|12--12-----12---12------12--12-|12------12------12------12-----|
  A|12--12-----12---12------12--12-|12------12------12------12-----|
  E|10--10-----10---10------10--10-|10------10------10------10-----|


    MIDDLE EIGHT
    00:50
    G                               D
  e|3------ 3---3-- 3---3-- 3------|2------ 2---2-- 2---2-- 2---0--|
  B|3-------3---3---3---3---3------|3-------3---3---3---3---3---0--|
  G|4-------4---4---4---4---4------|2-------2---2---2---2---2---0--|
  D|5-------5---5---5---5---5------|0-------0---0---0---0---0------|
  A|5-------5---5---5---5---5------|-------------------------------|
  E|3-------3---3---3---3---3------|-------------------------------|
    As      I       write           letter,
                                this
  e|10----- 10----- 10----- 10-----|10----- 10----- 10----- 10-----|
  B|12------12------12------12-----|10------10------10------10-----|
  G|12------12------12------12-----|11------11------11------11-----|
  D|12------12------12------12-----|12------12------12------12-----|
  A|10------10------10------10-----|12------12------12------12-----|
  E|-------------------------------|10------10------10------10-----|


    G                               D
  e|3------ 3---3-- 3---3-- 3------|2---2-- ----2-- ----2-- 2------|
  B|3-------3---3---3---3---3------|3---3-------3-------3---3------|
  G|4-------4---4---4---4---4------|2---2-------2-------2---2------|
  D|5-------5---5---5---5---5------|0---0-------0-------0---0------|
  A|5-------5---5---5---5---5------|-------------------------------|
  E|3-------3---3---3---3---3------|-------------------------------|
    Send    my      love        to  you                         Remember
  e|10----- 10----- 10----- 10-----|10----- 10----- 10--10- 10-----|
  B|12------12------12------12-----|10------10------10--10--10-----|
  G|12------12------12------12-----|11------11------11--11--11-----|
  D|12------12------12------12-----|12------12------12--12--12-----|
  A|10------10------10------10-----|12------12------12--12--12-----|
  E|-------------------------------|10------10------10--10--10-----|

    G                               D
  e|3------ 3---3-- 3---3-- 3------|2---2-- ----2-- ----2-- ----2--|
  B|3-------3---3---3---3---3------|3---3-------3-------3-------3--|
  G|4-------4---4---4---4---4------|2---2-------2-------2-------2--|
  D|5-------5---5---5---5---5------|0---0-------0-------0-------0--|
  A|5-------5---5---5---5---5------|-------------------------------|
  E|3-------3---3---3---3---3------|-------------------------------|
                    that            always
                                I'll
  e|10----- 10----- 10----- 10-----|10----- 10----- 10--10- 10-----|
  B|12------12------12------12-----|10------10------10--10--10-----|
  G|12------12------12------12-----|11------11------11--11--11-----|
  D|12------12------12------12-----|12------12------12--12--12-----|
  A|10------10------10------10-----|12------12------12--12--12-----|
  E|-------------------------------|10------10------10--10--10-----|

                    A               D
  e|2---2-- 2------ 0------ 0------|2-----2 2---2-- ----2-- ----2--|
  B|3---3---3-------2-------2------|3-----3-3---3-------3-------3--|
  G|2---2---2-------2-------2------|2-----2-2---2-------2-------2--|
  D|0---0---0-------2-------2------|0-----0-0---0-------0-------0--|
  A|----------------0-------0------|-------------------------------|
  E|-------------------------------|-------------------------------|
    be      in      love    with    you
  e|10----- 10----- ------- -------|10----- 10----- 10----- 10--10-|
  B|10------10-----10------10------|10------10------10------10--10-|
  G|11------11------9-------9------|11------11------11------11--11-|
  D|12------12-----11------11------|12------12------12------12--12-|
  A|12------12-----12------12------|12------12------12------12--12-|
  E|10------10---------------------|10------10------10------10--10-|


    VERSE
    01:04

  e|2---2-- 2------ 2------ 2---2--|0------ 0---0-- 0------ 0---0--|
  B|3---3---3-------3-------3---3--|0-------0---0---0-------0---0--|
  G|2---2---2-------2-------2---2--|0-------0---0---0-------0---0--|
  D|0---0---0-------0-------0---0--|2-------2---2---2-------2---2--|
  A|-------------------------------|2-------2---2---2-------2---2--|
  E|-------------------------------|0-------0---0---0-------0---0--|
    Treasure        these   few     words       till    we're   together
  e|10----- 10----- 10----- 10-----|7------ 7------ 7------ 7---7--|
  B|10------10------10------10-----|8-------8-------8-------8---8--|
  G|11------11------11------11-----|9-------9-------9-------9---9--|
  D|12------12------12------12-----|9-------9-------9-------9---9--|
  A|12------12------12------12-----|7-------7-------7-------7---7--|
  E|10------10------10------10-----|-------------------------------|


  e|2------ 2---2-- 2---2-- 2---0--|0------ 0---0-- 0---0-- 0------|
  B|3-------3---3---3---3---3---0--|2-------2---2---2---2---2---0--|
  G|2-------2---2---2---2---2---0--|2-------2---2---2---2---2---0--|
  D|0-------0---0---0---0---0------|2-------2---2---2---2---2---0--|
  A|-------------------------------|0-------0---0---0---0---0------|
  E|-------------------------------|-------------------------------|
                                    all         my      love    forever
                                Keep
  e|10----- 10----- 10----- 10-----|5------ 5------ 5------ 5------|
  B|10------10------10------10-----|5-------5-------5-------5------|
  G|11------11------11------11-----|6-------6-------6-------6------|
  D|12------12------12------12-----|7-------7-------7-------7------|
  A|12------12------12------12-----|7-------7-------7-------7------|
  E|10------10------10------10-----|5-------5-------5-------5------|


  e|2---2-- 2---2-- 2---2-- 2------|0------ 0---0-- 0---0-- 0------|
  B|3---3---3---3---3---3---3---0--|2-------2---2---2---2---2---0--|
  G|4---4---4---4---4---4---4---0--|2-------2---2---2---2---2---0--|
  D|4---4---4---4---4---4---4---0--|2-------2---2---2---2---2---0--|
  A|2---2---2---2---2---2---2------|0-------0---0---0---0---0------|
  E|-------------------------------|-------------------------------|
                                    P.      S.          I       love
  e|7------ 7------ 7------ 7---7--|5------ 5------ 5---5-- 5------|
  B|7-------7-------7-------7---7--|5-------5-------5---5---5------|
  G|7-------7-------7-------7---7--|6-------6-------6---6---6------|
  D|9-------9-------9-------9---9--|7-------7-------7---7---7------|
  A|9-------9-------9-------9---9--|7-------7-------7---7---7------|
  E|7-------7-------7-------7---7--|5-------5-------5---5---5------|


  e|1------ 1---1-- 1---1-- 1---1--|1-----1 1---1-- 1------ 0------|
  B|3-------3---3---3---3---3---3--|3-----3-3---3---3-------1------|
  G|3-------3---3---3---3---3---3--|3-----3-3---3---3-------0------|
  D|3-------3---3---3---3---3---3--|3-----3-3---3---3-------2------|
  A|1-------1---1---1---1---1---1--|1-----1-1---1---1-------3------|
  E|-------------------------------|-------------------------------|
    you                                             you     you
  e|6------ 6------ 6------ 6------|6------ 6---6-- 6------ 8------|
  B|6-------6-------6-------6------|6-------6---6---6-------8------|
  G|7-------7-------7-------7------|7-------7---7---7-------9------|
  D|8-------8-------8-------8------|8-------8---8---8------10------|
  A|8-------8-------8-------8------|8-------8---8---8------10------|
  E|6-------6-------6-------6------|6-------6---6---6-------8------|


  e|2---2-- ----2-- ----2-- 2------|2-----2 2---2-- ----2-- 2---0--|
  B|3---3-------3-------3---3------|3-----3-3---3-------3---3---0--|
  G|2---2-------2-------2---2------|2-----2-2---2-------2---2---0--|
  D|0---0-------0-------0---0------|0-----0-0---0-------0---0------|
  A|-------------------------------|-------------------------------|
  E|-------------------------------|-------------------------------|
    you
  e|------- ------- ------- -------|------- ------- ------- -------|
  B|10------10------10--10--10-----|10------10------10--10--10-----|
  G|11------11------11--11--11-----|11------11------11--11--11-----|
  D|12------12------12--12--12-----|12------12------12--12--12-----|
  A|12------12------12--12--12-----|12------12------12--12--12-----|
  E|10------10------10--10--10-----|10------10------10--10--10-----|


    MIDDLE EIGHT
    01:22

  e|3---3-- 3---3-- ----3-- 3------|2---2-- 2------ 2---2-- 2---0--|
  B|3---3---3---3-------3---3------|3---3---3-------3---3---3---0--|
  G|4---4---4---4-------4---4------|2---2---2-------2---2---2---0--|
  D|5---5---5---5-------5---5------|0---0---0-------0---0---0------|
  A|5---5---5---5-------5---5------|-------------------------------|
  E|3---3---3---3-------3---3------|-------------------------------|
    As      I       write           letter,
                                this      (Oh)
  e|10----- 10----- 10----- 10-----|10----- 10----- 10----- 10-----|
  B|12------12------12------12-----|10------10------10------10-----|
  G|12------12------12------12-----|11------11------11------11-----|
  D|12------12------12------12-----|12------12------12------12-----|
  A|10------10------10------10-----|12------12------12------12-----|
  E|-------------------------------|10------10------10------10-----|


  e|3------ 3---3-- 3---3-- 3------|2---2-- 2---2-- 2---2-- 2---2--|
  B|3-------3---3---3---3---3------|3---3---3---3---3---3---3---3--|
  G|4-------4---4---4---4---4------|2---2---2---2---2---2---2---2--|
  D|5-------5---5---5---5---5------|0---0---0---0---0---0---0---0--|
  A|5-------5---5---5---5---5------|-------------------------------|
  E|3-------3---3---3---3---3------|-------------------------------|
    Send    my      love        to  you                         Remember
                                       (You know I  want you to)
  e|10----- 10----- 10--10- 10-----|10----- 10----- 10--10- 10-----|
  B|12------12------12--12--12-----|10------10------10--10--10-----|
  G|12------12------12--12--12-----|11------11------11--11--11-----|
  D|12------12------12--12--12-----|12------12------12--12--12-----|
  A|10------10------10--10--10-----|12------12------12--12--12-----|
  E|-------------------------------|10------10------10--10--10-----|


  e|3------ 3------ 3------ 3------|2---2-- 2---2-- ----2-- ----2--|
  B|3-------3-------3-------3------|3---3---3---3-------3---3---3--|
  G|4-------4-------4-------4------|2---2---2---2-------2---2---2--|
  D|5-------5-------5-------5------|0---0---0---0-------0---0---0--|
  A|5-------5-------5-------5------|-------------------------------|
  E|3-------3-------3-------3------|-------------------------------|
                    that            always
                                I'll
  e|10----- 10----- 10----- 10-----|10----- 10----- 10--10- 10-----|
  B|12------12------12------12-----|10------10------10--10--10-----|
  G|12------12------12------12-----|11------11------11--11--11-----|
  D|12------12------12------12-----|12------12------12--12--12-----|
  A|10------10------10------10-----|12------12------12--12--12-----|
  E|-------------------------------|10------10------10--10--10-----|


  e|2------ 2------ 0------ 0------|2-----2 2---2-- ----2-- 2---2--|
  B|3-------3-------2-------2------|3-----3-3---3-------3---3---3--|
  G|2-------2-------2-------2------|2-----2-2---2-------2---2---2--|
  D|0-------0-------2-------2------|0-----0-0---0-------0---0---0--|
  A|----------------0-------0------|-------------------------------|
  E|-------------------------------|-------------------------------|
    be      in      love    with    you
  e|10----- 10----- ------- -------|10----- 10----- 10--10- 10--10-|
  B|10------10-----10------10------|10------10------10--10--10--10-|
  G|11------11------9-------9------|11------11------11--11--11--11-|
  D|12------12-----11------11------|12------12------12--12--12--12-|
  A|12------12-----12------12------|12------12------12--12--12--12-|
  E|10------10---------------------|10------10------10--10--10--10-|


    CODA
    01:36
    D                               Em
  e|2---2-- 2---2-- 2---2-- 2---0--|0---0-- 0---0-- 0------ 0------|
  B|3---3---3---3---3---3---3---0--|0---0---0---0---0-------0------|
  G|2---2---2---2---2---2---2---0--|0---0---0---0---0-------0------|
  D|0---0---0---0---0---0---0------|2---2---2---2---2-------2------|
  A|-------------------------------|2---2---2---2---2-------2------|
  E|-------------------------------|0---0---0---0---0-------0------|
    I'll    be      coming          home        again           to
  e|10----- 10----- 10----- 10-----|7------ 7------ 7------ 7------|
  B|10------10------10------10-----|8-------8-------8-------8------|
  G|11------11------11------11-----|9-------9-------9-------9------|
  D|12------12------12------12-----|9-------9-------9-------9------|
  A|12------12------12------12-----|7-------7-------7-------7------|
  E|10------10------10------10-----|-------------------------------|

    D                               A
  e|2-----2 ----2-- ----2-- -------|0------ 0---0-- ----0-- 0------|
  B|3-----3-----3-------3----------|2-------2---2-------2---2------|
  G|2-----2-----2-------2----------|2-------2---2-------2---2------|
  D|0-----0-----0-------0----------|2-------2---2-------2---2------|
  A|-------------------------------|0-------0---0-------0---0------|
  E|-------------------------------|-------------------------------|
    you,    love                and 'til        the day     I
  e|------- ------- ------- -------|5------ 5------ 5------ 5------|
  B|10------10------10-------------|5-------5-------5-------5------|
  G|11------11--11--11--11---------|6-------6-------6-------6------|
  D|12------12------12-------------|7-------7-------7-------7------|
  A|12------12------12-------------|7-------7-------7-------7------|
  E|10------10------10-------------|5-------5-------5-------5------|

    Bm                              A
  e|2---2-- ----2-- ----2-- -------|0------ 0---0-- 0---0-- 0------|
  B|3---3-------3-------3-------0--|2-------2---2---2---2---2---0--|
  G|4---4-------4-------4-------0--|2-------2---2---2---2---2---0--|
  D|4---4-------4-------4-------0--|2-------2---2---2---2---2---0--|
  A|2---2-------2-------2----------|0-------0---0---0---0---0------|
  E|-------------------------------|-------------------------------|
    do,     love                    P.      S.          I       love
  e|7------ 7------ 7------ 7------|5------ 5------ 5---5-- 5------|
  B|7-------7---7---7---7---7---7--|5-------5-------5---5---5------|
  G|7-------7-------7-------7------|6-------6-------6---6---6------|
  D|9-------9-------9-------9------|7-------7-------7---7---7------|
  A|9-------9-------9-------9------|7-------7-------7---7---7------|
  E|7-------7-------7-------7------|5-------5-------5---5---5------|

    Bb                                                      C
  e|1---1-- 1---1-- ----1-- 1------|1-----1 1---1-- 1------ 0------|
  B|3---3---3---3-------3---3------|3-----3-3---3---3-------1------|
  G|3---3---3---3-------3---3------|3-----3-3---3---3-------0------|
  D|3---3---3---3-------3---3------|3-----3-3---3---3-------2------|
  A|1---1---1---1-------1---1------|1-----1-1---1---1-------3------|
  E|-------------------------------|-------------------------------|
    you                                             you     you
  e|6------ 6------ 6------ 6------|6------ 6---6-- 6------ 8------|
  B|6-------6-------6-------6------|6-------6---6---6-------8------|
  G|7-------7-------7-------7------|7-------7---7---7-------9------|
  D|8-------8-------8-------8------|8-------8---8---8------10------|
  A|8-------8-------8-------8------|8-------8---8---8------10------|
  E|6-------6-------6-------6------|6-------6---6---6-------8------|

    D                                               Bb      C
  e|2-----2 ----2-- ----2-- 2---2--|2-----2 2------ 1------ 0------|
  B|3-----3-----3-------3---3---3--|3-----3-3---0---3-------1------|
  G|2-----2-----2-------2---2---2--|2-----2-2---0---3-------0------|
  D|0-----0-----0-------0---0---0--|0-----0-0---0---3-------2------|
  A|-------------------------------|----------------1-------3------|
  E|-------------------------------|-------------------------------|
    you                                             you     you
  e|10----- 10----- 10----- 10--10-|10----- 10----- 6------ 8------|
  B|10------10------10------10--10-|10------10------6-------8------|
  G|11------11------11------11--11-|11------11------7-------9------|
  D|12------12------12------12--12-|12------12------8------10------|
  A|12------12------12------12--12-|12------12------8------10------|
  E|10------10------10------10--10-|10------10------6-------8------|

    D                                               Bb      C
  e|2-----2 ----2-- ----2-- 2---2--|2-----2 2------ 1------ 0------|
  B|3-----3-----3-------3---3---3--|3-----3-3-------3-------1------|
  G|2-----2-----2-------2---2---2--|2-----2-2-------3-------0------|
  D|0-----0-----0-------0---0---0--|0-----0-0-------3-------2------|
  A|-------------------------------|----------------1-------3------|
  E|-------------------------------|-------------------------------|
                                                    I       love
  e|10----- 10----- 10--10- 10-----|10----- 10----- 6------ 8------|
  B|10------10------10--10--10-----|10------10------6-------8------|
  G|11------11------11--11--11-----|11------11------7-------9------|
  D|12------12------12--12--12-----|12------12------8------10------|
  A|12------12------12--12--12-----|12------12------8------10------|
  E|10------10------10--10--10-----|10------10------6-------8------|

    D
  e|2------ ----2-- ----2-- 2---2--|2------ ------- ------- -------|
  B|3-----------3-------3---3---3--|3------------------------------|
  G|2-----------2-------2---2---2--|2------------------------------|
  D|0-----------0-------0---0---0--|0------------------------------|
  A|-------------------------------|-------------------------------|
  E|-------------------------------|-------------------------------|
    you
  e|10----- ----10- ----10- 10-----|10----- ------- ------- -------|
  B|10----------10------10--10-----|10-----------------------------|
  G|11----------11------11--11-----|11-----------------------------|
  D|12----------12------12--12-----|12-----------------------------|
  A|12----------12------12--12-----|12-----------------------------|
  E|10----------10------10--10-----|10-----------------------------|


   Since the song is in the key of D Major we may take a look at the
   following D scale and a couple of inversions:


                     D DIATONIC TRIAD SCALE


                         Scale degrees     (Capital letters - Major
                                            Small letters   - Minor)

    I      iim     iiim    IV       V      vim     VII      VIII (I)

  e|------- ------- ------- ------- ------- ------- ------- -------|
  B|--------0-------2-------3-------5-------7-------8-------10-----|
  G|2-------0-------2-------4-------6-------7-------9-------11-----|
  D|4-------2-------4-------5-------7-------9------11-------12-----|
  A|5--------------------------------------------------------------|
  E|---------------------------------------------------------------|
    D       Em      Fm      G       A       Bm     Cdim      D


                       (First Inversion)

    I      IIm     IIIm    IV       V      vim     VII      I

  e|------- ------- ------- ------- 5------ 7------ 9------ 10-----|
  B|3-------5-------7-------8-------5-------7-------8-------10-----|
  G|2-------4-------6-------7-------6-------7-------9-------11-----|
  D|4-------5-------7-------9--------------------------------------|
  A|---------------------------------------------------------------|
  E|---------------------------------------------------------------|


                        (Second Inversion)

    I      iim     iiim    IV       V      vim      VII     I

  e|2------ 3------ 5------ 7------ 9------ 10----- 12----- 14-----|
  B|3-------5-------7-------8------10-------12------14------15-----|
  G|2-------4-------6-------7-------9-------11------12------14-----|
  D|---------------------------------------------------------------|
  A|---------------------------------------------------------------|
  E|---------------------------------------------------------------|


   bVI        bVII        I            bVI       bVII       I

  e|1----------0----------2-------------10--------12--------14-----|
  B|3----------1----------3-------------11--------13--------15-----|
  G|3----------0----------2-------------10--------12--------14-----|
  D|3----------2----------0----------------------------------------|
  A|1----------3---------------------------------------------------|
  E|---------------------------------------------------------------|
    Bb         C          D             Bb         C         D

   (you       you       you)


        B  Bend
        R  Release
        /  Slide up
        \  Slide down
        H  Hammer-on
        P  Pull-off
        ~  Vibrato
        +  Harmonic
        x  Mute note
        .  Play note like a dot in standard notation
        ^  Ties two notes together
        (. Pause

  -------------------------------------------------------------

  THE BEATLES - BABY IT'S YOU  (David/Bacharach/Williams)  From
                PLEASE PLEASE ME album. Released on March, 22nd
                1963.

  -------------------------------------------------------------

  Tabbed by:PJVillanueva

  The Beatles had a liking for some american early sixties
  girl-groups. This was a top ten hit in the summer of 1962
  by The Shirelles. It is the second Shirelles cover on the
  album, the other one being the 5th track, BOYS. In this,
  the 10th track, George Martin recorded at the last moment
  a celesta part on the solo in order to fill the dry sound
  of George's Jumbo guitar. This version ends with a fading,
  while the one released on LIVE AT THE BBC album, recorded
  on June, 1st 1963 features a worked ending.

  Sha la la la la la la
  Sha la la la la la la
  Sha la la la la

  It's not the way you smile that touched my heart.
  (sha la la la la)
  It's not the way you kiss that tears me apart.

  Uh, oh, many, many, many nights go by,
  I sit alone at home and I cry over you.
  What can I do.
  Can't help myself 'cause, baby, it's you.
  Baby, it's you.

  You should hear what they say about you
  shit, cheat.
  They say, they say you never never never ever been true.
  (cheat, cheat)

  Uh oh, It doesn't matter what they say,
  I know I'm gonna love you any old way.
  What can I do and it's true.
  Don't want nobody, nobody 'cause, baby, it's you.
  (sha la la la la la la)
  Baby, it's you.
  (sha la la la la la la)

  Uh oh,
  It doesn't matter what they say,
  I know I'm gonna love you any old way.
  What can I do, when it's true.
  Don't want nobody, nobody 'cause, baby, it's you.
  (sha la la la la la la)
  Baby, it's you.
  (sha la la la la la la)
  Don't leave me all alone
  Come on home ...

      INTRO
    X
            G                       Em
  e|------- 3---3-- ----3-- 3------|0---0-- ----0-- ----0-- 0---0--|
  B|--------3---3-------3---3------|0---0-------0-------0---0---0--|
  G|--------0---0-------0---0------|0---0-------0-------0---0---0--|
  D|--------0---0-------0---0------|2---2-------2-------2---2---2--|
  A|--------2---2-------2---2------|2---2-------2-------2---2---2--|
  E|--------3---3-------3---3------|0---0-------0-------0---0---0--|
            Sha la  la  la  la  la  la
  e|------- ------- ------- -------|------- ------- ------- 3------|
  B|-------------------------------|------------------------3------|
  G|-------------------------------|------------------------0------|
  D|-------------------------------|------------------------0------|
  A|-------------------------------|------------------------2------|
  E|-------------------------------|------------------------3------|

    G                               Em
  e|3---3-- 3---3-- ----3-- 3------|0---0-- ----0-- ----0-- 0---0--|
  B|3---3---3---3-------3---3------|0---0-------0-------0---0---0--|
  G|0---0---0---0-------0---0------|0---0-------0-------0---0---0--|
  D|0---0---0---0-------0---0------|2---2-------2-------2---2---2--|
  A|2---2---2---2-------2---2------|2---2-------2-------2---2---2--|
  E|3---3---3---3-------3---3------|0---0-------0-------0---0---0--|
            Sha la  la  la  la  la  la
  e|----3-- ----3-- ----3-- 3------|0------ ----0-- ----0-- 0------|
  B|----3-------3-------3---3------|0-----------0-------0---0------|
  G|----0-------0-------0---0------|0-----------0-------0---0------|
  D|----0-------0-------0---0------|2-----------2-------2---2------|
  A|----2-------2-------2---2------|2-----------2-------2---2------|
  E|----3-------3-------3---3------|0-----------0-------0---0------|

        G                           Em
  e|----3-- ----3-- 3---3-- 3------|0------ ------- ------- -------|
  B|----3-------3---3---3---3------|0------------------------------|
  G|----0-------0---0---0---0------|0------------------------------|
  D|----0-------0---0---0---0------|2------------------------------|
  A|----2-------2---2---2---2------|2------------------------------|
  E|----3-------3---3---3---3------|0------------------------------|
            Sha la  la  la  la  la  la              Sha la  la  la
  e|------- 3---3-- ------- -------|0------ ------- ------- -------|
  B|--------3---3------------------|0------------------------------|
  G|--------0---0------------------|0------------------------------|
  D|--------0----------------------|2------------------------------|
  A|--------2---2------------------|2------------------------------|
  E|--------3---3------------------|0------------------------------|

    VERSE
    00:13
    C
  e|0---0-- 0---0-- 0---0-- 0---0--|0---0-- ----0-- ----0-- 0------|
  B|1---1---1---1---1---1---1---1--|1---1-------1-------1---1---0--|
  G|0---0---0---0---0---0---0---0--|0---0-------0-------0---0---0--|
  D|2---2---2---2---2---2---2---2--|2---2-------2-------2---2---0--|
  A|3---3---3---3---3---3---3---3--|3---3-------3-------3---3------|
  E|-------------------------------|-------------------------------|
    la      It's    the you smile               that        my
                not   way                           touched
  e|------- ------- ------- -------|------- ------- ------- -------|
  B|-------------------------------|-------------------------------|
  G|-------------------------------|-------------------------------|
  D|-------------------------------|-------------------------------|
  A|3------------------------------|3-------------------3---4---5--|
  E|------------3-----------3------|------------3------------------|

        G
  e|----3-- ----3-- 3---3-- 3---3--|3-----3 ----3-- ----3-- 3------|
  B|----3-------3---3---3---3---3--|3-----3-----3-------3---3---0--|
  G|----0-------0---0---0---0---0--|0-----0-----0-------0---0---0--|
  D|----0-------0---0---0---0---0--|0-----0-----0-------0---0---0--|
  A|----2-------2---2---2---2---2--|2-----2-----2-------2---2------|
  E|----3-------3---3---3---3---3--|3-----3-----3-------3---3------|
    heart.
  e|------- ------- ------- -------|------- ------- ------- -------|
  B|-------------------------------|-------------------------------|
  G|-------------------------------|-------------------------------|
  D|-------------------------------|-------------------------------|
  A|------------------------5------|-------------------------------|
  E|3-----------3------------------|3-----------3-----------3------|


    00:21
    C
  e|0------ 0---0-- 0---0-- 0---0--|0---0-- ----0-- 0---0-- 0------|
  B|1-------1---1---1---1---1---1--|1---1-------1---1---1---1---0--|
  G|0-------0---0---0---0---0---0--|0---0-------0---0---0---0---0--|
  D|2-------2---2---2---2---2---2--|2---2-------2---2---2---2---0--|
  A|3-------3---3---3---3---3---3--|3---3-------3---3---3---3------|
  E|-------------------------------|-------------------------------|
            It's    the you kiss                that        me  apart.
                not   way                           tears
  e|------- ------- ------- -------|------- ------- ------- -------|
  B|-------------------------------|-------------------------------|
  G|-------------------------------|-------------------------------|
  D|-------------------------------|-------------------------------|
  A|3------------------------------|-------------------------------|
  E|------------3-----------3---/--|8---8-------3-----------3------|

        G
  e|----3-- ----3-- ----3-- 3---3--|------3 3---3-- ----3-- -------|
  B|----3-------3-------3---3---3--|------3-3---3-------3----------|
  G|----0-------0-------0---0---0--|------0-0---0-------0----------|
  D|----0-------0-------0---0---0--|------0-0---0-------0----------|
  A|----2-------2-------2---2---2--|------2-2---2-------2----------|
  E|----3-------3-------3---3---3--|------3-3---3-------3----------|
                                                    Uh, oh,
  e|------- ------- ------- -------|------- ------- ------- -------|
  B|-------------------------------|-------------------------------|
  G|-------------------------------|-------------------------------|
  D|-------------------------------|-------------------------------|
  A|------------5-----------5------|-------------------------------|
  E|3------------------------------|3-----------3-----------3------|

    BRIDGE
    00:30
    Em
  e|0------ 0---0-- ----0-- 0---0--|0------ 0---0-- ----0-- 0---0--|
  B|0-------0---0-------0---0---0--|0-------0---0-------0---0---0--|
  G|0-------0---0-------0---0---0--|0-------0---0-------0---0---0--|
  D|2-------2---2-------2---2---2--|2-------2---2-------2---2---2--|
  A|2-------2---2-------2---2---2--|2-------2---2-------2---2---2--|
  E|0-------0---0-------0---0---0--|0-------0---0-------0---0---0--|
            many,               many    go      by,
                many,               nights
  e|------- ----0-- ------- 0------|------- 0------ ------- 0------|
  B|------------0-----------0------|--------0---0-------0---0---0--|
  G|------------0-----------0------|--------0---0-------0---0---0--|
  D|------------2-----------2------|--------2---2-------2---2---2--|
  A|------------2-----------2------|-------------------------------|
  E|------------0-----------0------|-------------------------------|

    Am
  e|0------ 0---0-- 0---0-- 0---0--|0---0-- 0---0-- ----0-- 0------|
  B|1-------1---1---1---1---1---1--|1---1---1---1-------1---1------|
  G|2-------2---2---2---2---2---2--|2---2---2---2-------2---2------|
  D|2-------2---2---2---2---2---2--|2---2---2---2-------2---2------|
  A|0-------0---0---0---0---0---0--|0---0---0---0-------0---0------|
  E|-------------------------------|-------------------------------|
        I   sit alone         at  home    I   cry         over
                                        and
  e|------- x---x-- x---x-- x---x--|x---x-- x---x-- ----x-- 0------|
  B|--------1---1---1---1---1---1--|1---1---1---1-------1---1------|
  G|--------2---2---2---2---2---2--|2---2---2---2-------2---2------|
  D|--------2---2---2---2---2---2--|2---2---2---2-------2---2------|
  A|--------0---0---0---0---0---0--|0---0---0---0-------0---0------|
  E|-------------------------------|-------------------------------|

    G                               Em
  e|3---3-- ----3-- ----3-- 3---0--|0---0-- ----0-- ----0-- 0---0--|
  B|0---0-------0-------0---0---0--|0---0-------0-------0---0---0--|
  G|0---0-------0-------0---0---0--|0---0-------0-------0---0---0--|
  D|0---0-------0-------0---0------|2---2-------2-------2---2---2--|
  A|2---2-------2-------2---2------|2---2-------2-------2---2---2--|
  E|3---3-------3-------3---3------|0---0-------0-------0---0---0--|
    you.                What   I    do
                            can
  e|------- ----3-- ----3-- 3------|------- ----0-- ----0-- ----0--|
  B|------------3-------3---3------|------------0-------0-------0--|
  G|------------0-------0---0------|------------0-------0-------0--|
  D|------------0-------0---0------|------------2-------2-------2--|
  A|------------2-------2---2------|------------2-------2-------2--|
  E|------------3-------3---3------|------------0-------0-------0--|

    C                               D
  e|0------ 0---0-- 0---0-- 0------|2------ 2---2-- 2---2-- 2------|
  B|1-------1---1---1---1---1------|3-------3---3---3---3---3------|
  G|0-------0---0---0---0---0------|2-------2---2---2---2---2------|
  D|2-------2---2---2---2---2------|0-------0---0---0---0---0------|
  A|3-------3---3---3---3---3------|-------------------------------|
  E|-------------------------------|-------------------------------|
            Can't   help    myself
  e|------- ------- ------- -------|------- ------- ------- -------|
  B|-------------------------------|-------------------------------|
  G|-------------------------------|-------------------------------|
  D|------------2-----------2------|4-----------4-------4---4------|
  A|------------3-----------3------|5-----------5-------5---5------|
  E|-------------------------------|-------------------------------|


  e|2------ ------- ------- -------|
  B|3------------------------------|
  G|2------------------------------|
  D|0------------------------------|
  A|-------------------------------|
  E|-------------------------------|
                'cause,         it's
                    baby,
  e|------- ------- ------- -------|
  B|-------------------------------|
  G|-------------------------------|
  D|4------------------------------|
  A|5------------------------------|
  E|-------------------------------|

    REFRAIN
    00:49

  e|3------ 3---3-- 3---3-- 3------|0---0-- 0---0-- ----0-- 0---0--|
  B|3-------3---3---3---3---3------|0---0---0---0-------0---0---0--|
  G|0-------0---0---0---0---0------|0---0---0---0-------0---0---0--|
  D|0-------0---0---0---0---0------|2---2---2---2-------2---2---2--|
  A|2-------2---2---2---2---2------|2---2---2---2-------2---2---2--|
  E|3-------3---3---3---3---3------|0---0---0---0-------0---0---0--|
    you                                             Baby,       it's
           (Sha la  la  la  la  la  la)
  e|------- ----3-- ------- 3------|------- ----0-- ------- 0------|
  B|------------3-----------3------|------------0-----------0------|
  G|------------0-----------0------|------------0-----------0------|
  D|------------0-----------0------|------------2-----------2------|
  A|------------2-----------2------|------------2-----------2------|
  E|------------3-----------3------|------------0-----------0------|

    G                               Em
  e|3---3-- 3---3-- 3---3-- 3------|0---0-- 0---0-- ----0-- 0---0--|
  B|3---3---3---3---3---3---3------|0---0---0---0-------0---0---0--|
  G|0---0---0---0---0---0---0------|0---0---0---0-------0---0---0--|
  D|0---0---0---0---0---0---0------|2---2---2---2-------2---2---2--|
  A|2---2---2---2---2---2---2------|2---2---2---2-------2---2---2--|
  E|3---3---3---3---3---3---3------|0---0---0---0-------0---0---0--|
    you
           (Sha la  la  la  la  la  la              Sha la  la  la
  e|------- ----3-- ----3-- 3------|0------ ----0-- ------- 0------|
  B|------------3-------3---3------|0-----------0-----------0------|
  G|------------0-------0---0------|0-----------0-----------0------|
  D|------------0-------0---0------|2-----------2-----------2------|
  A|------------2-------2---2------|2-----------2-----------2------|
  E|------------3-------3---3------|0-----------0-----------0------|

    VERSE
    00:57
    C
  e|0------ 0---0-- 0---0-- 0---0--|0---0-- 0---0-- 0---0-- 0------|
  B|1-------1---1---1---1---1---1--|1---1---1---1---1---1---1---0--|
  G|0-------0---0---0---0---0---0--|0---0---0---0---0---0---0---0--|
  D|2-------2---2---2---2---2---2--|2---2---2---2---2---2---2---0--|
  A|3-------3---3---3---3---3---3--|3---3---3---3---3---3---3------|
  E|-------------------------------|-------------------------------|
            You should  what    say                     about
    la)             hear    they
  e|------- ------- ------- -------|------- ------- ------- -------|
  B|-------------------------------|-------------------------------|
  G|-------------------------------|-------------------------------|
  D|-------------------------------|-------------------------------|
  A|3---------------------------2--|3---------------3-----4-----5--|
  E|------------3-----------3------|------------3------------------|

    G
  e|3---3-- 3---3-- ----3-- 3---3--|3---3-- ----3-- ----3-- -------|
  B|3---3---3---3-------3---3---3--|3---3-------3-------3-------0--|
  G|0---0---0---0-------0---0---0--|0---0-------0-------0-------0--|
  D|0---0---0---0-------0---0---0--|0---0-------0-------0-------0--|
  A|2---2---2---2-------2---2---2--|2---2-------2-------2----------|
  E|3---3---3---3-------3---3---3--|3---3-------3-------3----------|
    you             shit            cheat
                                                   (Sha la  la  la
  e|------- ------- ------- -------|------- ------- ------- -------|
  B|-------------------------------|-------------------------------|
  G|-------------------------------|-------------------------------|
  D|-------------------------------|-------------------------------|
  A|-------------------------------|------------5------------------|
  E|3-----------3---------------2--|3-----------------------3------|

    C
  e|0------ 0---0-- 0---0-- 0---0--|0---0-- 0---0-- 0---0-- 0------|
  B|1-------1---1---1---1---1---1--|1---1---1---1---1---1---1---0--|
  G|0-------0---0---0---0---0---0--|0---0---0---0---0---0---0---0--|
  D|2-------2---2---2---2---2---2--|2---2---2---2---2---2---2---0--|
  A|3-------3---3---3---3---3---3--|3---3---3---3---3---3---3------|
  E|-------------------------------|-------------------------------|
            They    they    say  never    never ever        been
    la)         say,          you     never
  e|------- ------- ------- -------|------- ------- ------- -------|
  B|-------------------------------|-------------------------------|
  G|-------------------------------|-------------------------------|
  D|-------------------------------|-------------------------------|
  A|3---------------------------3--|3-------------------3---4---5--|
  E|------------3-----------3------|------------3------------------|

    G
  e|3---3-- ----3-- ----3-- 3---3--|3---3-- ----3-- ----3-- 3------|
  B|3---3-------3-------3---3---3--|3---3-------3-------3---3------|
  G|0---0-------0-------0---0---0--|0---0-------0-------0---0------|
  D|0---0-------0-------0---0---0--|0---0-------0-------0---0------|
  A|2---2-------2-------2---2---2--|2---2-------2-------2---2------|
  E|3---3-------3-------3---3---3--|3---3-------3-------3---3------|
    true.                                           Uh  oh,
                   (Cheat,          shit)
  e|------- ------- ------- -------|------- ------- ------- -------|
  B|-------------------------------|-------------------------------|
  G|-------------------------------|-------------------------------|
  D|-------------------------------|-------------------------------|
  A|------------5-----------5------|-------------------------------|
  E|3------------------------------|3-----------3-----------3---2--|

    BRIDGE
    01:14

  e|0---0-- 0---0-- ----0-- 0---0--|0------ 0---0-- 0---0-- 0---0--|
  B|0---0---0---0-------0---0---0--|0-------0---0---0---0---0---0--|
  G|0---0---0---0-------0---0---0--|0-------0---0---0---0---0---0--|
  D|2---2---2---2-------2---2---2--|2-------2---2---2---2---2---2--|
  A|2---2---2---2-------2---2---2--|2-------2---2---2---2---2---2--|
  E|0---0---0---0-------0---0---0--|0-------0---0---0---0---0---0--|
        It  doesn't matter          what        say,
                                        they
  e|------- ------- ------- 7---0--|------- ------- ----0-- 7---0--|
  B|------------------------0---0--|--------------------0---0---0--|
  G|------------------------0---0--|--------------------0---0---0--|
  D|-------------------------------|-------------------------------|
  A|2-----------2------------------|2-----------2------------------|
  E|0-----------0------------------|0-----------0------------------|


  e|0------ 0---0-- 0---0-- 0---0--|0------ 0---0-- 0---0-- 0------|
  B|1-------1---1---1---1---1---1--|1-------1---1---1---1---1---0--|
  G|2-------2---2---2---2---2---2--|2-------2---2---2---2---2---0--|
  D|2-------2---2---2---2---2---2--|2-------2---2---2---2---2---0--|
  A|0-------0---0---0---0---0---0--|0-------0---0---0---0---0------|
  E|-------------------------------|-------------------------------|
        I   know    gonna   love    any     old     way.    can I do
                I'm             you                     What
  e|------- ----0-- ----0-- 0------|------- ----0-- ------- 0------|
  B|------------1-------1---1------|------------1-----------1------|
  G|------------2-------2---2------|------------2-----------2------|
  D|------------2-------2---2------|------------2-----------2------|
  A|------------0-------0---0------|------------0-----------0------|
  E|-------------------------------|-------------------------------|


  e|3---3-- ----3-- 3---3-- 3---0--|0---0-- 0---0-- ----0-- 0---0--|
  B|3---3-------3---3---3---3---0--|0---0---0---0-------0---0---0--|
  G|0---0-------0---0---0---0---0--|0---0---0---0-------0---0---0--|
  D|0---0-------0---0---0---0------|2---2---2---2-------2---2---2--|
  A|2---2-------2---2---2---2------|2---2---2---2-------2---2---2--|
  E|3---3-------3---3---3---3------|0---0---0---0-------0---0---0--|
                        and     true
                          it's
  e|----3-- ----3-- ----3-- 3------|----0-- ----0-- ----0-- 0---0--|
  B|----3-------3-------3---3------|----0-------0-------0---0---0--|
  G|----0-------0-------0---0------|----0-------0-------0---0---0--|
  D|----0-------0-------0---0------|----2-------2-------2---2---2--|
  A|----2-------2-------2---2------|----2-------2-------2---2---2--|
  E|----3-------3-------3---3------|----0-------0-------0---0---0--|


  e|0------ 0---0-- 0------ 0------|2------ 2---2-- ----2-- 2---2--|
  B|1-------1---1---1-------1------|3-------3---3-------3---3---3--|
  G|0-------0---0---0-------0------|2-------2---2-------2---2---2--|
  D|2-------2---2---2-------2------|0-------0---0-------0---0---0--|
  A|3-------3---3---3-------3------|-------------------------------|
  E|-------------------------------|-------------------------------|
            Don't   want    nobody,             nobody
  e|------- ------- ------- -------|------- ------- ------- -------|
  B|-------------------------------|-------------------------------|
  G|-------------------------------|-------------------------------|
  D|2-----------2-----------2------|4-----------4-----------4---4--|
  A|3-----------3-----------3------|5-----------5-----------5---5--|
  E|-------------------------------|-------------------------------|


  e|2------ ------- ------- -------|
  B|3------------------------------|
  G|2------------------------------|
  D|0------------------------------|
  A|-------------------------------|
  E|-------------------------------|
                'cause,         it's
                    baby,
  e|------- ------- ------- -------|
  B|-------------------------------|
  G|-------------------------------|
  D|4------------------------------|
  A|5------------------------------|
  E|-------------------------------|

   REFRAIN
   01:34

  e|3---3-- 3---3-- 3---3-- 3------|0------ 0---0-- 0---0-- 0---0--|
  B|3---3---3---3---3---3---3------|0-------0---0---0---0---0---0--|
  G|0---0---0---0---0---0---0------|0-------0---0---0---0---0---0--|
  D|0---0---0---0---0---0---0------|2-------2---2---2---2---2---2--|
  A|2---2---2---2---2---2---2------|2-------2---2---2---2---2---2--|
  E|3---3---3---3---3---3---3------|0-------0---0---0---0---0---0--|
    you                                             Baby,       it's
           (Sha la  la  la  la  la  la)
  e|------- 3------ ------- 3------|0------ ----0-- ------- -------|
  B|--------3---------------3------|0-----------0------------------|
  G|--------0---------------0------|0-----------0------------------|
  D|--------0---------------0------|2-----------2------------------|
  A|--------2---------------2------|2-----------2------------------|
  E|--------3---------------3------|0-----------0------------------|

    G                               Em
  e|3---3-- ----3-- ----3-- -------|0-----0 0---0-- ----0-- -------|
  B|3---3-------3-------3----------|0-----0-0---0-------0----------|
  G|0---0-------0-------0----------|0-----0-0---0-------0----------|
  D|0---0-------0-------0----------|2-----2-2---2-------2----------|
  A|2---2-------2-------2----------|2-----2-2---2-------2----------|
  E|3---3-------3-------3----------|0-----0-0---0-------0----------|
    you
           (Sha la  la  la  la  la  la
  e|------- ------- ------- -------|------- ------- ------- -------|
  B|-------------------------------|-------------------------------|
  G|-------------------------------|-------------------------------|
  D|-------------------------------|-------------------------------|
  A|-------------------------------|--------------------0----------|
  E|-------------------------------|----------------3-------3---2--|

    SOLO
    01:42

  e|------- 0---0-- 0---0-- 0------|2------ ----2-- 2---2-- 2------|
  B|--------1---1---1---1---1------|3-----------3---3---3---3------|
  G|--------0---0---0---0---0------|2-----------2---2---2---2------|
  D|--------2---2---2---2---2------|0-----------0---0---0---0------|
  A|--------3---3---3---3---3------|-------------------------------|
  E|-------------------------------|-------------------------------|

  e|------- ------- ------- -------|------- ------- ------- -------|
  B|-------------------------------|-------------------------------|
  G|-------------------------------|-------------------------------|
  D|-------------------------------|-------------------------------|
  A|----------------------------3--|2-------0-------------------0--|
  E|0-------------------3----------|--------------------3----------|


  e|------3 3---3-- ----3-- ----3--|------3 3---3-- ------- 3------|
  B|------3-3---3-------3-------3--|------3-3---3-----------3------|
  G|------0-0---0-------0-------0--|------0-0---0-----------0------|
  D|------0-0---0-------0-------0--|------0-0---0-----------0------|
  A|------2-2---2-------2-------2--|------2-2---2-----------2------|
  E|------3-3---3-------3-------3--|------3-3---3-----------3------|

  e|------- ------- ------- -------|------- ------- ------- -------|
  B|-------------------------------|-------------------------------|
  G|-------------------------------|-------------------------------|
  D|-------------------------------|-------------------------------|
  A|2------------------------------|--------------------0----------|
  E|-------------------------------|----------------3-------3---2--|


  e|0------ ----0-- 0------ 0------|2---2-- ----2-- ------- -------|
  B|1-----------1---1-------1------|3---3-------3------------------|
  G|0-----------0---0-------0------|2---2-------2------------------|
  D|2-----------2---2-------2------|0---0-------0------------------|
  A|3-----------3---3-------3------|-------------------------------|
  E|-------------------------------|-------------------------------|

  e|------- ------- ------- -------|------- ------- ------- -------|
  B|-------------------------------|-------------------------------|
  G|-------------------------------|-------------------------------|
  D|-------------------------------|-------------------------------|
  A|----------------------------3--|2---0-------------------0------|
  E|0-----------0---3--------------|----------------3--------------|


  e|3------ ------- 3------ 3---3--|3-----3 3---3-- 3------ 3------|
  B|3---------------3-------3---3--|3-----3-3---3---3-------3------|
  G|0---------------0-------0---0--|0-----0-0---0---0-------0------|
  D|0---------------0-------0---0--|0-----0-0---0---0-------0------|
  A|2---------------2-------2---2--|2-----2-2---2---2-------2------|
  E|3---------------3-------3---3--|3-----3-3---3---3-------3------|
                                                    Uh  oh,
  e|------- ------- ------- -------|------- ------- ------- -------|
  B|-------------------------------|-------------------------------|
  G|-------------------------------|-------------------------------|
  D|-------------------------------|-------------------------------|
  A|2---3---2---0---2--------------|-------------------------------|
  E|-------------------------------|-------------------------------|

    BRIDGE
    01:59

  e|0------ 0---0-- 0---0-- 0---0--|0------ 0---0-- ----0-- 0---0--|
  B|0-------0---0---0---0---0---0--|0-------0---0-------0---0---0--|
  G|0-------0---0---0---0---0---0--|0-------0---0-------0---0---0--|
  D|2-------2---2---2---2---2---2--|2-------2---2-------2---2---2--|
  A|2-------2---2---2---2---2---2--|2-------2---2-------2---2---2--|
  E|0-------0---0---0---0---0---0--|0-------0---0-------0---0---0--|
        It  doesn't matter          what        say,
                                        they
  e|------- ----0-- ------- 0---0--|0------ ------- ----0-- ----0--|
  B|------------0-----------0---0--|0-------------------0-------0--|
  G|------------0-----------0---0--|0-------------------0-------0--|
  D|------------2-----------2---2--|2-------------------2-------2--|
  A|------------2-----------2---2--|2-------------------2-------2--|
  E|------------0-----------0---0--|0-------------------0-------0--|


  e|0------ 0---0-- 0------ 0---0--|0---0-- ----0-- ----0-- 0------|
  B|1-------1---1---1-------1---1--|1---1-------1-------1---1---0--|
  G|2-------2---2---2-------2---2--|2---2-------2-------2---2---0--|
  D|2-------2---2---2-------2---2--|2---2-------2-------2---2---0--|
  A|0-------0---0---0-------0---0--|0---0-------0-------0---0------|
  E|-------------------------------|-------------------------------|
        I   know    gonna   love    any     old     way.    can I do
                I'm             you                     What
  e|------- 0---0-- ------- 0------|------- ----0-- ------- -------|
  B|--------1---1-----------1------|------------1------------------|
  G|--------2---2-----------2------|------------2------------------|
  D|--------2---2-----------2------|------------2------------------|
  A|--------0---0-----------0------|------------0------------------|
  E|-------------------------------|-------------------------------|


  e|3---3-- ----3-- ----3-- 3------|0---0-- 0---0-- ----0-- 0---0--|
  B|3---3-------3-------3---3------|0---0---0---0-------0---0---0--|
  G|0---0-------0-------0---0------|0---0---0---0-------0---0---0--|
  D|0---0-------0-------0---0------|2---2---2---2-------2---2---2--|
  A|2---2-------2-------2---2------|2---2---2---2-------2---2---2--|
  E|3---3-------3-------3---3------|0---0---0---0-------0---0---0--|
                        and     true
                          it's
  e|------- ----3-- ----3-- -------|------- ----0-- ----0-- 0------|
  B|------------3-------3----------|------------0-------0---0------|
  G|------------0-------0----------|------------0-------0---0------|
  D|------------0-------0----------|------------2-------2---2------|
  A|------------2-------2----------|------------2-------2---2------|
  E|------------3-------3----------|------------0-------0---0------|


  e|0------ 0---0-- ----0-- 0------|2------ 2---2-- ----2-- ----2--|
  B|1-------1---1-------1---1------|3-------3---3-------3-------3--|
  G|0-------0---0-------0---0------|2-------2---2-------2-------2--|
  D|2-------2---2-------2---2------|0-------0---0-------0-------0--|
  A|3-------3---3-------3---3------|-------------------------------|
  E|-------------------------------|-------------------------------|
            Don't   want    nobody,             nobody
  e|------- ------- ------- -------|------- ------- ------- -------|
  B|-------------------------------|-------------------------------|
  G|-------------------------------|-------------------------------|
  D|2-----------2-----------2------|4-----------4-------4-------4--|
  A|3-----------3-----------3------|5-----------5-------5-------5--|
  E|-------------------------------|-------------------------------|


  e|2------ ------- ------- -------|
  B|3------------------------------|
  G|2------------------------------|
  D|0------------------------------|
  A|-------------------------------|
  E|-------------------------------|
                'cause,         it's
                    baby,
  e|------- ------- ------- -------|
  B|-------------------------------|
  G|-------------------------------|
  D|4------------------------------|
  A|5------------------------------|
  E|-------------------------------|

   CODA
   02:18

  e|3------ 3---3-- 3---3-- 3------|0---0-- ----0-- ----0-- 0---0--|
  B|3-------3---3---3---3---3------|0---0-------0-------0---0---0--|
  G|0-------0---0---0---0---0------|0---0-------0-------0---0---0--|
  D|0-------0---0---0---0---0------|2---2-------2-------2---2---2--|
  A|2-------2---2---2---2---2------|2---2-------2-------2---2---2--|
  E|3-------3---3---3---3---3------|0---0-------0-------0---0---0--|
    you                                             Baby,       it's
           (Sha la  la  la  la  la  la)
  e|------- ----3-- ----3-- 3------|------- ----0-- ----0-- 0------|
  B|------------3-------3---3------|------------0-------0---0------|
  G|------------0-------0---0------|------------0-------0---0------|
  D|------------0-------0---0------|------------2-------2---2------|
  A|------------2-------2---2------|------------2-------2---2------|
  E|------------3-------3---3------|------------0-------0---0------|

    G                               Em
  e|3---3-- ----3-- ----3-- 3---3--|0------ 0------ 0------ 0---0--|
  B|3---3-------3-------3---3---3--|0-------0-------0-------0---0--|
  G|0---0-------0-------0---0---0--|0-------0-------0-------0---0--|
  D|0---0-------0-------0---0---0--|2-------2-------2-------2---2--|
  A|2---2-------2-------2---2---2--|2-------2-------2-------2---2--|
  E|3---3-------3-------3---3---3--|0-------0-------0-------0---0--|
    you                                     Don't   leave   alone
           (Sha la  la  la  la  la  la)                 me
  e|----3-- ----3-- ----3-- 3------|------- 0------ 0------ 0------|
  B|----3-------3-------3---3------|--------0-------0-------0------|
  G|----0-------0-------0---0------|--------0-------0-------0------|
  D|----0-------0-------0---0------|--------2-------2-------2------|
  A|----2-------2-------2---2------|--------2-------2-------2------|
  E|----3-------3-------3---3------|--------0-------0-------0------|
    ........................... Fade out ..........................

  e|3---3-- ----3-- ----3-- 3------|0------ 0---0-- ----0-- -------|
  B|3---3-------3-------3---3------|0-------0---0-------0----------|
  G|0---0-------0-------0---0------|0-------0---0-------0----------|
  D|0---0-------0-------0---0------|2-------2---2-------2----------|
  A|2---2-------2-------2---2------|2-------2---2-------2----------|
  E|3---3-------3-------3---3------|0-------0---0-------0----------|
                                                        Come    home
           (Sha la  la  la  la  la  la)                     on
  e|------- 3---3-- ----3-- 3------|------- ----0-- ----0-- -------|
  B|--------3---3-------3---3------|------------0-------0----------|
  G|--------0---0-------0---0------|------------0-------0----------|
  D|--------0---0-------0---0------|------------2-------2----------|
  A|--------2---2-------2---2------|------------2-------2----------|
  E|--------3---3-------3---3------|------------0-------0----------|
    ...............................................................




        B  Bend
        R  Release
        /  Slide up
        \  Slide down
        H  Hammer-on
        P  Pull-off
        ~  Vibrato
        +  Harmonic
        x  Mute note
        .  Play note like a dot in standard notation
        ^  Ties two notes together
        (. Pause

  --------------------------------------------------------------------

  THE BEATLES - DO YOU WANT TO KNOW A SECRET (McCartney & Lennon) From
                PLEASE, PLEASE ME album. Released on 22nd March 1963.

  --------------------------------------------------------------------

  Tabbed by:PJVillanueva

  You'll never know how much I really love you.
  You'll never know how much I really care.

  Listen,
  Do you want to know a secret,
  Do you promise not to tell, whoa oh, oh.

  Closer,
  Let me whisper in your ear,
  Say the words you long to hear,
  I'm in love with you.

  Listen,
  Do you want to know a secret,
  Do you promise not to tell, whoa oh, oh.

  Closer,
  Let me whisper in your ear,
  Say the words you long to hear,
  I'm in love with you.

  I've known the secret for a week or two,
  Nobody knows, just we two.

  Listen,
  Do you want to know a secret,
  Do you promise not to tell, whoa oh, oh.

  Closer,
  Let me whisper in your ear,
  Say the words you long to hear,
  I'm in love with you.


  Em                                                  Am
e|0---------------------------------------------------0----------|
B|0---------------------------------------------------1----------|
G|0---------------------------------------------------2----------|
D|2---------------------------------------------------2----------|
A|2---------------------------------------------------0----------|
E|0--------------------------------------------------------------|
                     You'll never know  how  much  I  really  love


  Em
e|0------------------------------------------|
B|0------------------------------------------|
G|0------------------------------------------|
D|2------------------------------------------|
A|2------------------------------------------|
E|0------------------------------------------|
      you
e|-------------------------------------------|
B|0-0-0-0-0-0-0-0-0-0-0-0-0------------------|
G|-------------------------------------------|
D|-------------------------------------------|
A|-------------------------------------------|
E|-------------------------------------------|


  G                                               F
e|3-----------------------------------------------1--------------|
B|3-----------------------------------------------1--------------|
G|4-----------------------------------------------2--------------|
D|5-----------------------------------------------3--------------|
A|5-----------------------------------------------3--------------|
E|3-----------------------------------------------1--------------|
                  You'll never know  how  much I  really      care
e|------- ------- ------- --------------- ------- 1------ -------|
B|3-3-3-3-3-3-3-3-3-3-3-3-3-3-3-3-3-3-3-3-3-3-3-3-1--------------|
G|------------------------------------------------2--------------|
D|------------------------------------------------3--------------|
A|------------------------------------------------3--------------|
E|------------------------------------------------1--------------|


  B
e|2------ ------- ------- -------|------- ------- ------- -------|
B|4------------------------------|-------------------------------|
G|4------------------------------|-------------------------------|
D|4------------------------------|-------------------------------|
A|2------------------------------|-------------------------------|
E|-------------------------------|-------------------------------|

e|------- -----4- ------- -------|------- ------- ------- -------|
B|----------4--------------------|-------------------------------|
G|--------4----------------------|-------------------------------|
D|-------------------------------|----------------0-------1------|
A|-------------------------------|----2---2-B-4-2-----2-------2--|
E|-------------------------------|-------------------------------|


  E                   G#m     Gm  F#m             B7
e|0------ 0------ ----4-- ----3--|2------ 2------ ------- -------|
B|0-------0-----------4-------3--|2-------2-------0-------0------|
G|1-------1-----------4-------3--|2-------2-------2-------2------|
D|2-------2-----------6-------5--|4-------4-------1-------1------|
A|2-------2-----------6-------5--|4-------4-------2-------2------|
E|0-------0-----------4-------3--|2-------2----------------------|
  Listen                                  Do you  want to know a
e|------- ------- ------- -------|------- ------- ------- -------|
B|-------------------------------|-------------------------------|
G|-------------------------------|-------------------------------|
D|2-------2-----------4-------3--|2-------2-------4-------4------|
A|----------------6-------5------|4-------4-------6-------6------|
E|-------------------------------|-------------------------------|


  E                   G#m     Gm  F#m             B7
e|0------ 0------ ----4-- ----3--|2------ 2------ ------- -------|
B|0-------0-----------4-------3--|2-------2-------0-------0------|
G|1-------1-----------4-------3--|2-------2-------2-------2------|
D|2-------2-----------6-------5--|4-------4-------1-------1------|
A|2-------2-----------6-------5--|4-------4-------2-------2------|
E|0-------0-----------4-------3--|2-------2----------------------|
  secret                                  Do you  promise  not to
e|------- ------- ------- -------|------- ------- ------- -------|
B|-------------------------------|-------------------------------|
G|-------------------------------|-------------------------------|
D|2-------2-----------4-------3--|2-------2-------4-------4------|
A|----------------6-------5------|4-------4-------6-------6------|
E|-------------------------------|-------------------------------|


  E                   G#m     Gm  F#m             Am
e|0------ 0------ ----4-- ----3--|2------ 2------ 5---5-- 5------|
B|0-------0-----------4-------3--|2-------2-------5---5---5------|
G|1-------1-----------4-------3--|2-------2-------5---5---5------|
D|2-------2-----------6-------5--|4-------4-------7---7---7------|
A|2-------2-----------6-------5--|4-------4-------7---7---7------|
E|0-------0-----------4-------3--|2-------2-------5---5---5------|
  tell,                   whoa    oh,             oh
e|------- ------- ------- -------|------- ------- ------- -------|
B|-------------------------------|-------------------------------|
G|-------------------------------|-------------------------------|
D|2-------2-----------4-------3--|2---------------2--------------|
A|----------------6-------5------|4---------------3--------------|
E|-------------------------------|-------------------------------|


  E                   G#m     Gm  F#m             B7
e|0------ 0------ ----4-- ----3--|2------ ------- ------- -------|
B|0-------0-----------4-------3--|2---------------0--------------|
G|1-------1-----------4-------3--|2---------------2--------------|
D|2-------2-----------6-------5--|4---------------1--------------|
A|2-------2-----------6-------5--|4---------------2--------------|
E|0-------0-----------4-------3--|2------------------------------|
  Closer                                  Let me  whisper in your
e|------- ------- ------- -------|------- ------- ------- -------|
B|-------------------------------|-------------------------------|
G|-------------------------------|-------------------------------|
D|--------------------4-------3--|2-------2-------4-------4------|
A|----------------6-------5------|4-------4-------6-------6------|
E|-------------------------------|-------------------------------|


  E                   G#m     Gm  F#m             B7
e|0------ 0---0-- ----4-- ----3--|2------ 2------ ------- -------|
B|0-------0---0-------4-------3--|2-------2-------0-------0------|
G|1-------1---1-------4-------3--|2-------2-------2-------2------|
D|2-------2---2-------6-------5--|4-------4-------1-------1------|
A|2-------2---2-------6-------5--|4-------4-------2-------2------|
E|0-------0---0-------4-------3--|2-------2----------------------|
  ear                                     Say the words you long to
e|------- ------- ------- -------|------- ------- ------- -------|
B|-------------------------------|-------------------------------|
G|-------------------------------|-------------------------------|
D|2-------2-----------4-------3--|2-------2-------4-------4------|
A|----------------6-------5------|4-------4-------6-------6------|
E|-------------------------------|-------------------------------|


  A                               B
e|0------ ----0-- ------- 0------|2------ ----2-- ------- 2------|
B|2-----------2-----------2------|4-----------4-----------4------|
G|2-----------2-----------2------|4-----------4-----------4------|
D|2-----------2-----------2------|4-----------4-----------4------|
A|0-----------0-----------0------|2-----------2-----------2------|
E|-------------------------------|-------------------------------|
  hear                                        I'm     in  love with
e|------- ------- ------- -------|------- ------- ------- -------|
B|2-----------2-----------2------|0-----------0-----------0------|
G|2-----------2-----------2------|2-----------2-----------2------|
D|2-----------2-----------2------|1-----------1-----------1------|
A|0-----------0-----------0------|2-----------2-----------2------|
E|-------------------------------|-------------------------------|


  C#m                             F#m             B
e|4------ ------- ------- -------|2------ ------- 2------ -------|
B|5------------------------------|2---------------4--------------|
G|6------------------------------|2---------------4--------------|
D|6------------------------------|4---------------4--------------|
A|4------------------------------|4---------------2--------------|
E|-------------------------------|2------------------------------|
  you                     Oooooooooooooooooooooooooooooooooooh
e|------- ------- ------- -------|------- ------- ------- -------|
B|----------------5--------------|-------------------------------|
G|------------6-------6----------|-------------------------------|
D|--------6----------------------|-------------------------------|
A|----4--------------------------|-------------------------------|
E|-------------------------------|-------------------------------|


  E                   G#m     Gm  F#m             B
e|0------ 0---0-- ----4-- ----3--|2------ ------- 2------ 2------|
B|0-------0---0-------4-------3--|2---------------4-------4------|
G|1-------1---1-------4-------3--|2---------------4-------4------|
D|2-------2---2-------6-------5--|4---------------4-------4------|
A|2-------2---2-------6-------5--|4---------------2-------2------|
E|0-------0---0-------4-------3--|2------------------------------|
  Listen                                  Do you  want to know a
e|------- ------- ------- -------|------- ------- ------- -------|
B|-------------------------------|-------------------------------|
G|-------------------------------|-------------------------------|
D|2-------2-----------4-------3--|2-------2-------4-------4------|
A|----------------6-------5------|4-------4-------6-------6------|
E|-------------------------------|-------------------------------|


  E                   G#m     Gm  F#m             B7
e|0------ 0------ ----4-- ----3--|2------ ------- ------- -------|
B|0-------0-----------4-------3--|2---------------0--------------|
G|1-------1-----------4-------3--|2---------------2--------------|
D|2-------2-----------6-------5--|4---------------1--------------|
A|2-------2-----------6-------5--|4---------------2--------------|
E|0-------0-----------4-------3--|2------------------------------|
  secret                                  Do you  promise  not to
e|------- ------- ------- -------|------- ------- ------- -------|
B|-------------------------------|-------------------------------|
G|-------------------------------|-------------------------------|
D|2-------2-----------4-------3--|2---------------1--------------|
A|----------------6-------5------|4---------------2--------------|
E|-------------------------------|-------------------------------|


  E                   G#m     Gm  F#m             Am
e|0------ 0------ ----4-- ----3--|2------ 2------ 5---5-- 5------|
B|0-------0-----------4-------3--|2-------2-------5---5---5------|
G|1-------1-----------4-------3--|2-------2-------5---5---5------|
D|2-------2-----------6-------5--|4-------4-------7---7---7------|
A|2-------2-----------6-------5--|4-------4-------7---7---7------|
E|0-------0-----------4-------3--|2-------2-------5---5---5------|
  tell,                   whoa    oh,             oh
e|------- ------- ------- -------|------- ------- ------- -------|
B|-------------------------------|-------------------------------|
G|-------------------------------|-------------------------------|
D|2-------2-----------4-------3--|2---------------2--------------|
A|----------------6-------5------|4---------------3--------------|
E|-------------------------------|-------------------------------|


  E                   G#m     Gm  F#m             B7
e|0------ ------- ----4-- ----3--|2------ ------- ------- -------|
B|0-------------------4-------3--|2---------------0--------------|
G|1-------------------4-------3--|2---------------2--------------|
D|2-------------------6-------5--|4---------------1--------------|
A|2-------------------6-------5--|4---------------2--------------|
E|0-------------------4-------3--|2------------------------------|
  Closer                                  Let me  whisper in your
e|------- ------- ------- -------|------- ------- ------- -------|
B|-------------------------------|-------------------------------|
G|-------------------------------|-------------------------------|
D|2-------2-----------4-------3--|2-------2-------4-------4------|
A|----------------6-------5------|4-------4-------6-------6------|
E|-------------------------------|-------------------------------|


  E                   G#m     Gm  F#m             B7
e|0------ 0------ ----4-- ----3--|2------ 2------ ------- -------|
B|0-------0-----------4-------3--|2-------2-------0-------0------|
G|1-------1-----------4-------3--|2-------2-------2-------2------|
D|2-------2-----------6-------5--|4-------4-------1-------1------|
A|2-------2-----------6-------5--|4-------4-------2-------2------|
E|0-------0-----------4-------3--|2-------2----------------------|
  ear                                     Say the words you long to
e|------- ------- ------- -------|------- ------- ------- -------|
B|-------------------------------|-------------------------------|
G|-------------------------------|-------------------------------|
D|2-------2-----------4-------3--|2-------2-------4-------4------|
A|----------------6-------5------|4-------4-------6-------6------|
E|-------------------------------|-------------------------------|


  A                               B
e|0------ ----0-- ------- 0------|2------ ----2-- ------- 2------|
B|2-----------2-----------2------|4-----------4-----------4------|
G|2-----------2-----------2------|4-----------4-----------4------|
D|2-----------2-----------2------|4-----------4-----------4------|
A|0-----------0-----------0------|2-----------2-----------2------|
E|-------------------------------|-------------------------------|
  hear                                        I'm     in  love with
e|------- ------- ------- -------|------- ------- ------- -------|
B|2-----------2-----------2------|0-----------0-----------0------|
G|2-----------2-----------2------|2-----------2-----------2------|
D|2-----------2-----------2------|1-----------1-----------1------|
A|0-----------0-----------0------|2-----------2-----------2------|
E|-------------------------------|-------------------------------|


  C#m                             F#m             B
e|4------ ------- ------- -------|2---2-- 2------ 2------ -------|
B|5------------------------------|2---2---2-------4--------------|
G|6------------------------------|2---2---2-------4--------------|
D|6------------------------------|4---4---4-------4--------------|
A|4------------------------------|4---4---4-------2--------------|
E|-------------------------------|2---2---2----------------------|
  you                     Oooooooooooooooooooooooooooooooooooh
e|------- ------- ------- -------|------- ------- ------- -------|
B|----------------5--------------|-------------------------------|
G|------------6-------6----------|-------------------------------|
D|--------6----------------------|-------------------------------|
A|----4--------------------------|-------------------------------|
E|-------------------------------|-------------------------------|

  A               F#m             C#m         Bm
e|0------ 0------ 2------ 2------|4------ 4---2-- ----2-- 2------|
B|2-------2-------2-------2------|5-------5---3-------3---3------|
G|2-------2-------2-------2------|6-------6---4-------4---4------|
D|2-------2-------4-------4------|6-------6---4-------4---4------|
A|0-------0-------4-------4------|4-------4---2-------2---2------|
E|----------------2-------2------|-------------------------------|
  I've    known the secret for a  week or two


  A               F#m             C#m             Bm
e|0------ 0------ 2------ 2------|4------ 4------ 2------ -------|
B|2-------2-------2-------2------|5-------5-------3--------------|
G|2-------2-------2-------2------|6-------6-------4--------------|
D|2-------2-------4-------4------|6-------6-------4--------------|
A|0-------0-------4-------4------|4-------4-------2--------------|
E|----------------2-------2------|-------------------------------|
  Nobody          knows,          just    we      two

  F#m                             B
e|2------ ----2-- ------- 2------|2------ ----2-- ------- 2------|
B|2-----------2-----------2------|4-----------4-----------4------|
G|2-----------2-----------2------|4-----------4-----------4------|
D|4-----------4-----------4------|4-----------4-----------4------|
A|4-----------4-----------4------|2-----------2-----------2------|
E|2-----------2-----------2------|-------------------------------|


  E                   G#m     Gm  F#m             B
e|0-----0 0------ ----4-- ----3--|2------ 2------ 2------ 2------|
B|0-----0-0-----------4-------3--|2-------2-------4-------4------|
G|1-----1-1-----------4-------3--|2-------2-------4-------4------|
D|2-----2-2-----------6-------5--|4-------4-------4-------4------|
A|2-----2-2-----------6-------5--|4-------4-------2-------2------|
E|0-----0-0-----------4-------3--|2-------2----------------------|
  Listen                                  Do you  want to know a
e|------- ------- ------- -------|------- ------- ------- -------|
B|-------------------------------|-------------------------------|
G|-------------------------------|-------------------------------|
D|2-------2-----------4-------3--|2-------2-------4-------4------|
A|----------------6-------5------|4-------4-------6-------6------|
E|-------------------------------|-------------------------------|


  E                   G#m     Gm  F#m             B7
e|0------ 0------ ----4-- ----3--|2------ ------- ------- -------|
B|0-------0-----------4-------3--|2---------------0--------------|
G|1-------1-----------4-------3--|2---------------2--------------|
D|2-------2-----------6-------5--|4---------------1--------------|
A|2-------2-----------6-------5--|4---------------2--------------|
E|0-------0-----------4-------3--|2------------------------------|
  secret                                  Do you  promise  not to
e|------- ------- ------- -------|------- ------- ------- -------|
B|-------------------------------|-------------------------------|
G|-------------------------------|-------------------------------|
D|2-------2-----------4-------3--|2-------2-------4-------4------|
A|----------------6-------5------|4-------4-------6-------6------|
E|-------------------------------|-------------------------------|


  E               G#m     Gm      F#m             Am
e|0------ 0------ 4------ 3------|2------ 2------ 5-----5 5------|
B|0-------0-------4-------3------|2-------2-------5-----5-5------|
G|1-------1-------4-------3------|2-------2-------5-----5-5------|
D|2-------2-------6-------5------|4-------4-------7-----7-7------|
A|2-------2-------6-------5------|4-------4-------7-----7-7------|
E|0-------0-------4-------3------|2-------2-------5-----5-5------|
  tell,                   whoa    oh,             oh
e|------- ------- ------- -------|------- ------- ------- -------|
B|-------------------------------|-------------------------------|
G|-------------------------------|-------------------------------|
D|2-------2-----------4-------3--|2---------------2--------------|
A|----------------6-------5------|4---------------3--------------|
E|-------------------------------|-------------------------------|


  E                   G#m     Gm  F#m             B
e|0------ 0------ ----4-- ----3--|2------ 2------ 2------ 2------|
B|0-------0-----------4-------3--|2-------2-------4-------4------|
G|1-------1-----------4-------3--|2-------2-------2-------2------|
D|2-------2-----------6-------5--|4-------4-------4-------4------|
A|2-------2-----------6-------5--|4-------4-------2-------2------|
E|0-------0-----------4-------3--|2-------2----------------------|
  Closer                                  Let me  whisper in your
e|------- ------- ------- -------|------- ------- ------- -------|
B|-------------------------------|-------------------------------|
G|-------------------------------|-------------------------------|
D|2-------2-----------4-------3--|2-------2-------4-------4------|
A|----------------6-------5------|4-------4-------6-------6------|
E|-------------------------------|-------------------------------|


  E                   G#m     Gm  F#m             B7
e|0------ 0------ ----4-- ----3--|2------ 2------ 2------ 2------|
B|0-------0-----------4-------3--|2-------2-------4-------4------|
G|1-------1-----------4-------3--|2-------2-------2-------2------|
D|2-------2-----------6-------5--|4-------4-------4-------4------|
A|2-------2-----------6-------5--|4-------4-------2-------2------|
E|0-------0-----------4-------3--|2-------2----------------------|
  ear                                     Say the words you long to
e|------- ------- ------- -------|------- ------- ------- -------|
B|-------------------------------|-------------------------------|
G|-------------------------------|-------------------------------|
D|2-------2-----------4-------3--|2-------2-------4-------4------|
A|----------------6-------5------|4-------4-------6-------6------|
E|-------------------------------|-------------------------------|


  A                               B
e|0------ ----0-- ------- 0------|2------ ----2-- ------- 2------|
B|2-----------2-----------2------|4-----------4-----------4------|
G|2-----------2-----------2------|4-----------4-----------4------|
D|2-----------2-----------2------|4-----------4-----------4------|
A|0-----------0-----------0------|2-----------2-----------2------|
E|-------------------------------|-------------------------------|
  hear                                        I'm     in  love with
e|------- ------- ------- -------|------- ------- ------- -------|
B|2-----------2-----------2------|0-----------0-----------0------|
G|2-----------2-----------2------|2-----------2-----------2------|
D|2-----------2-----------2------|1-----------1-----------1------|
A|0-----------0-----------0------|2-----------2-----------2------|
E|-------------------------------|-------------------------------|


  C#m                             F#m             B7
e|4------ ------- ------- -------|2------ ------- 2------ -------|
B|5------------------------------|2---------------0--------------|
G|6------------------------------|2---------------2--------------|
D|6------------------------------|4---------------1--------------|
A|4------------------------------|4---------------2--------------|
E|-------------------------------|2------------------------------|
  you                     Oooooooooooooooooooooooooooooooooooh
e|------- ------- ------- -------|------- ------- ------- -------|
B|----------------5--------------|-------------------------------|
G|------------6-------6----------|-------------------------------|
D|--------6----------------------|-------------------------------|
A|----4--------------------------|-------------------------------|
E|-------------------------------|-------------------------------|


  C#m                             F#m             B
e|4------ ------- ------- -------|2------ ------- 2------ -------|
B|5------------------------------|2---------------4--------------|
G|6------------------------------|2---------------4--------------|
D|6------------------------------|4---------------4--------------|
A|4------------------------------|4---------------2--------------|
E|-------------------------------|2------------------------------|
                          Oooooooooooooooooooooooooooooooooooh
e|------- ------- ------- -------|------- ------- ------- -------|
B|----------------5--------------|-------------------------------|
G|------------6-------6----------|-------------------------------|
D|--------6----------------------|-------------------------------|
A|----4--------------------------|-------------------------------|
E|-------------------------------|-------------------------------|
                          ..........................Fade.........


  C#m                             F#m
e|4------ ------- ------- -------|2------ ------- 2------ -------|
B|5------------------------------|2---------------4--------------|
G|6------------------------------|2---------------4--------------|
D|6------------------------------|4---------------4--------------|
A|4------------------------------|4---------------2--------------|
E|-------------------------------|2------------------------------|
                          Oooooooooooooooooooooooooooooooooooh
e|------- ------- ------- -------|------- ------- ------- -------|
B|----------------5--------------|-------------------------------|
G|------------6-------6----------|-------------------------------|
D|--------6---------------6------|-------------------------------|
A|----4--------------------------|-------------------------------|
E|-------------------------------|-------------------------------|
  ...............................................................



        B  Bend
        R  Release
        /  slide up
        \  slide down
        H  hammer-on
        P  pull-off
        ~  vibrato
        +  harmonic
        x  Mute note
        . - play note like a dot in standard notation
        ^ - ties two notes together
        (.

  ------------------------------------------------------------

  THE BEATLES - A TASTE OF HONEY (Scott & Marlow) From PLEASE,
                PLEASE ME album. Released on March 22nd 1963.

  ------------------------------------------------------------

  Tabbed by:PJVillanueva

  A taste of honey
  Tasting much sweeter than wine.

  I dream of your first kiss, and then,
  I feel upon my lips again,
  A taste of honey
  tasting much sweeter than wine.

  I will return, yes I will return,
  I'll come back for the honey and you.

  Yours was the kiss that awoke my heart,
  There lingers still, 'though we're far apart,
  That taste of honey
  Tasting much sweeter than wine.

  I will return, yes I will return,
  I'll come back (he'll come back)
  For the honey (for the honey)
  And you.

   9/8 Time


                         (.
                         F#m
  e|------ ------ ------|2----- ------ ------|------ ------ ------|
  B|--------------------|2-------------------|--------------------|
  G|--------------------|2-------------------|--------------------|
  D|--------------------|4-------------------|--------------------|
  A|--------------------|4-------------------|--------------------|
  E|------------------2-|--------------------|--------------------|
                                    A  taste  honey
                                           of
                                   (A  taste  honey)
                                           of

    A                    E                    F#m
  e|------ ------ ------|------ ------ ------|2----- 2----- 2-----|
  B|2-------------------|0-------------------|2------2------2-----|
  G|2-------------------|1-------------------|2------2------2-----|
  D|2-------------------|2-------------------|4------4------4-----|
  A|0-------------------|2-------------------|4------4------4-----|
  E|--------------------|0-------------------|2------2------2-----|
    Tasting       much                 than   wine
                      sweeter
                                                        (Do do  mm


  e|------ 2----- 2-----|2----- 2----- 2-----|2----- 2----- 2-----|
  B|-------2------2-----|2------2------2-----|2------2------2-----|
  G|-------2------2-----|2------2------2-----|2------2------2-----|
  D|-------4------4-----|4------4------4-----|4------4------4-----|
  A|-------4------4-----|4------4------4-----|4------4------4-----|
  E|-------2------2-----|2------2------2-----|2------2------2-----|
                                                            I
    do                              Do do  mm do)
  e|------ ------ ------|------ ------ ------|------ ------ ------|
  B|--------------------|--------------------|--------------------|
  G|--------------------|--------------------|--------------6-----|
  D|--------------------|--------------------|------------------7-|
  A|--------------------|--------------------|--------------------|
  E|--------------------|--------------------|--------------------|

    00:14
    F#m                  F+5                  A
  e|------ 2----- ------|------ 1----- ------|------ 0----- ------|
  B|----2---------------|----2---------------|----2---------------|
  G|--2-----------------|--2-----------------|--2-----------------|
  D|4-------------------|3-------------------|2-------------------|
  A|--------------------|--------------------|--------------------|
  E|--------------------|--------------------|--------------------|
    dream         of     your          first  kiss          and
  e|------ ------ ------|------ ------ ------|------ ------ ------|
  B|--------------------|--------------------|--------------------|
  G|--------------6-----|--------------6-----|--------------8-----|
  D|------------------7-|------------------7-|------------------9-|
  A|9-------------------|8-------------------|7-------------------|
  E|--------------------|--------------------|--------------------|


    B                    F#m                  F+5
  e|------ ------ ------|------ 2----- ------|------ 1----- ------|
  B|-------4------------|----2---------------|----2---------------|
  G|----4---------------|--2-----------------|--2-----------------|
  D|--4-----------------|4-------------------|3-------------------|
  A|2-------------------|--------------------|--------------------|
  E|--------------------|--------------------|--------------------|
    then          I      feel          upon                 my
  e|------ ------ ------|------ ------ ------|------ ------ ------|
  B|--------------------|--------------------|--------------------|
  G|--------------6-----|--------------6-----|--------------6-----|
  D|------------------7-|------------------7-|------------------7-|
  A|9-------------------|9-------------------|8-------------------|
  E|--------------------|--------------------|--------------------|

    A                    B                    F#m
  e|------ 0----- ------|------ ------ ------|2----- 2----- 2-----|
  B|----2---------------|-------4------------|2------2------2-----|
  G|--2-----------------|----4---------------|2------2------2-----|
  D|2-------------------|--4-----------------|4------4------4-----|
  A|--------------------|2-------------------|4------4------4-----|
  E|--------------------|--------------------|2------2------2-----|
    lips          again             a  taste  honey
                                           of                   of
                                                        (A  taste
  e|------ ------ ------|------ ------ ------|------ ------ ------|
  B|--------------------|--------------------|--------------------|
  G|--------------8-----|--------------------|--------------------|
  D|------------------9-|--------------------|--------------------|
  A|7-------------------|9-------------------|--------------------|
  E|--------------------|--------------------|--------------------|


                         A                    E
  e|------ 2----- 2-----|------ ------ ------|------ ------ ------|
  B|-------2------2-----|2-------------------|0-------------------|
  G|-------2------2-----|2-------------------|1-------------------|
  D|-------4------4-----|2-------------------|2-------------------|
  A|-------4------4-----|0-------------------|2-------------------|
  E|-------2------2-----|--------------------|0-------------------|
                         Tasting       much                 than
                                           sweeter
    honey)


           F#m Bm        F#m                             Bm
  e|------ 2---2- 2---2-|2----- 2---2- 2---2-|2----- 2---2- 2---2-|
  B|-------2---3--3---3-|2------2---2--2---2-|2------2---3--3---3-|
  G|-------2---4--4---4-|2------2---2--2---2-|2------2---4--4---4-|
  D|-------4---4--4---4-|4------4---4--4---4-|4------4---4--4---4-|
  A|-------4---2--2---2-|4------4---4--4---4-|4------4---2--2---2-|
  E|-------2------------|2------2---2--2---2-|2------2------------|
    wine

    F#m
  e|2----- ------ ------|
  B|2-------------------|
  G|2-------------------|
  D|4-------------------|
  A|4-------------------|
  E|2-------------------|
               Oh I   will

    12/8 Time
    00:43
        A                           B
  e|----0- ----0- ----0- ----0-|----2- ----2- ----2- ----2-|
  B|----2------2------2------2-|----4------4------4------4-|
  G|----2------2------2------2-|----4------4------4------4-|
  D|----2------2------2------2-|----4------4------4------4-|
  A|----0------0------0------0-|----2------2------2------2-|
  E|---------------------------|---------------------------|
                         return,                  Yes  I
  e|----5- ------ ------ ------|------ 7----- ----7- ------|
  B|--------------5------------|---------------------------|
  G|---------------------------|---------------------------|
  D|---------------------------|---------------------------|
  A|---------------------------|---------------------------|
  E|---------------------------|---------------------------|


        F#m                         B
  e|----2- ----2- ----2- ----2-|----2- ----2- ----2- ----2-|
  B|----2------2------2------2-|----4------4------4------4-|
  G|----2------2------2------2-|----4------4------4------4-|
  D|----4------4------4------4-|----4------4------4------4-|
  A|----4------4------4------4-|----2------2------2------2-|
  E|----2------2------2------2-|---------------------------|
        will             return                   I'll   come
  e|------ 5----- ------ 5---7-|------ ------ ------ ------|
  B|-----------7---------------|---------------------------|
  G|---------------------------|---------------------------|
  D|---------------------------|---------------------------|
  A|---------------------------|---------------------------|
  E|---------------------------|---------------------------|


        A                           E
  e|----0- ----0- ----0- ----0-|----0- ----0- ----0- ------|
  B|----2------2------2------2-|----0------0------0--------|
  G|----2------2------2------2-|----1------1------1--------|
  D|----2------2------2------2-|----2------2------2--------|
  A|----0------0------0------0-|----2------2------2--------|
  E|---------------------------|----0------0------0--------|
    back              for       honey                and
                             the


    9/8 Time

           F#m
  e|------ 2----- 2-----|------ 2----- 2-----|------ 2----- 2-----|
  B|-------2------2-----|-------2------2-----|-------2------2-----|
  G|-------2------2-----|-------2------2-----|-------2------2-----|
  D|-------4------4-----|-------4------4-----|-------4------4-----|
  A|-------4------4-----|-------4------4-----|-------4------4-----|
  E|-------2------2-----|-------2------2-----|-------2------2-----|
    you
              (Do do  mm do                              Do do  mm


    01:01
                                              F+5
  e|------ 2----- 2-----|------ 2----- ------|------ 1----- ------|
  B|-------2------2-----|----2---------------|----2---------------|
  G|-------2------2-----|--2-----------------|--2-----------------|
  D|-------4------4-----|4-------------------|3-------------------|
  A|-------4------4-----|--------------------|--------------------|
  E|-------2------2-----|--------------------|--------------------|
                  Yours  was           the    kiss          that
    do)                                                       awoke
  e|------ ------ ------|------ ------ ------|------ ------ ------|
  B|--------------------|--------------------|--------------------|
  G|--------------6-----|--------------6-----|--------------6-----|
  D|------------------7-|------------------7-|------------------7-|
  A|--------------------|9-------------------|8-------------------|
  E|--------------------|--------------------|--------------------|


    A                    B                    F#m
  e|------ 0----- ------|------ ------ ------|------ 2----- ------|
  B|----2---------------|-------4------------|----2---------------|
  G|--2-----------------|----4---------------|--2-----------------|
  D|2-------------------|--4-----------------|4-------------------|
  A|--------------------|2-------------------|--------------------|
  E|--------------------|--------------------|--------------------|
               my     heart            there  lingers
  e|------ ------ ------|------ ------ ------|------ ------ ------|
  B|--------------------|--------------------|--------------------|
  G|--------------8-----|--------------6-----|--------------6-----|
  D|------------------9-|------------------7-|------------------7-|
  A|7-------------------|9-------------------|9-------------------|
  E|--------------------|--------------------|--------------------|


    F+5                  A                    B
  e|------ 1----- ------|------ 0----- ------|------ ------ ------|
  B|----2---------------|----2---------------|-------4------------|
  G|--2-----------------|--2-----------------|----4---------------|
  D|3-------------------|2-------------------|--4-----------------|
  A|--------------------|--------------------|2-------------------|
  E|--------------------|--------------------|--------------------|
    still,       'though far           apart             That   of
                      we're                                 taste
  e|------ ------ ------|------ ------ ------|------ ------ ------|
  B|--------------------|--------------------|--------------------|
  G|--------------6-----|--------------8-----|--------------------|
  D|------------------7-|------------------9-|--------------------|
  A|8-------------------|7-------------------|9-------------------|
  E|--------------------|--------------------|--------------------|


           F#m                                A
  e|------ 2----- 2-----|------ 2----- 2-----|------ ------ ------|
  B|-------2------2-----|-------2------2-----|2-------------------|
  G|-------2------2-----|-------2------2-----|2-------------------|
  D|-------4------4-----|-------4------4-----|2-------------------|
  A|-------4------4-----|-------4------4-----|0-------------------|
  E|-------2------2-----|-------2------2-----|--------------------|
    honey                                     Tasting       much
              (A  taste  honey)                                 sweeter
                      of


    E                    F#m        Bm        F#m
  e|------ ------ ------|2----- 2---2- 2---2-|2----- ----2- ----2-|
  B|0-------------0-----|2------2---3--3---3-|2----------2------2-|
  G|1-------------1-----|2------2---4--4---4-|2----------2------2-|
  D|2-------------2-----|4------4---4--4---4-|4----------4------4-|
  A|2-------------2-----|4------4---2--2---2-|4----------4------4-|
  E|0-------------0-----|2------2------------|2----------2------2-|
                  than   wine


               Bm        F#m
  e|2----- 2---2- 2---2-|2----- 2----- ------|
  B|2------2---3--3---3-|2------2------------|
  G|2------2---4--4---4-|2------2------------|
  D|4------4---4--4---4-|4------4------------|
  A|4------4---2--2---2-|4------4------------|
  E|2------2------------|2------2------------|
                                    Oh I   will


    12/8 time
    01:31
        A                           B
  e|----0- ----0- ----0- ----0-|----2- ----2- ----2- ----2-|
  B|----2------2------2------2-|----4------4------4------4-|
  G|----2------2------2------2-|----4------4------4------4-|
  D|----2------2------2------2-|----4------4------4------4-|
  A|----0------0------0------0-|----2------2------2------2-|
  E|---------------------------|---------------------------|
                         return,                     Yes I
  e|----5- ------ ----5- ------|------ 7----- ----7- ------|
  B|--------------5------------|--------------7------------|
  G|---------------------------|---------------------------|
  D|---------------------------|---------------------------|
  A|---------------------------|---------------------------|
  E|---------------------------|---------------------------|


        F#m                         B
  e|----2- ----2- ----2- ----2-|----2- ----2- ----2- ----2-|
  B|----2------2------2------2-|----4------4------4------4-|
  G|----2------2------2------2-|----4------4------4------4-|
  D|----4------4------4------4-|----4------4------4------4-|
  A|----4------4------4------4-|----2------2------2------2-|
  E|----2------2------2------2-|---------------------------|
                  will   return                   I'll   come
  e|------ 5----- ------ ------|----7- ------ ------ ------|
  B|-----------7---------------|-----------7---------------|
  G|---------------------------|---------------------------|
  D|---------------------------|---------------------------|
  A|---------------------------|---------------------------|
  E|---------------------------|---------------------------|

   (.                                        (.
    A                                         E
  e|0----- ------ ------|------ ------ ------|0----- ------ ------|
  B|2-------------------|--------------------|0-------------------|
  G|2-------------------|--------------------|1-------------------|
  D|2-------------------|--------------------|2-------------------|
  A|0-------------------|--------------------|2-------------------|
  E|--------------------|--------------------|0-------------------|
    back                               for    honey
                                           the
                 (He'll  back                               For the
                      come


  e|------ ------ ------|
  B|--------------------|
  G|--------------------|
  D|--------------------|
  A|--------------------|
  E|--------------------|
                  and
    honey)


    01:50
    F#m        Bm        F#m        Bm        F#m        Bm
  e|2----- 2---2- 2---2-|2----- 2---2- 2---2-|2----- 2---2- 2---2-|
  B|2------2---3--3---3-|2------2---3--3---3-|2------2---3--3---3-|
  G|2------2---4--4---4-|2------2---4--4---4-|2------2---4--4---4-|
  D|4------4---4--4---4-|4------4---4--4---4-|4------4---4--4---4-|
  A|4------4---2--2---2-|4------4---2--2---2-|4------4---2--2---2-|
  E|2------2------------|2------2------------|2------2------------|
    You

   (.
    F#
  e|2----- ------ ------|
  B|2-------------------|
  G|3-------------------|
  D|4-------------------|
  A|4-------------------|
  E|2-------------------|



        B  Bend
        R  Release
        /  slide up
        \  slide down
        H  hammer-on
        P  pull-off
        ~  vibrato
        +  harmonic
        x  Mute note
        . - play note like a dot in standard notation
        ^ - ties two notes together
        (.


  ---------------------------------------------------------------

  THE BEATLES - THERE'S A PLACE (McCartney & Lennon) From PLEASE,
                PLEASE ME album.Released 22nd March 1963.

  ---------------------------------------------------------------

  Tabbed by:PJVillanueva

  There, there's a place
  where I can go
  when I feel low
  when I feel blue
  And it's my mind
  and there's no time
  When I'm alone
  I think of you
  the things you do
  Go round my head
  the things you've said
  Like I love only you
  In my mind there's no sorrow
  Don't you know that it's so
  There'll be no sad tomorrow
  Don't you know that it's so
  There, there's a place
  where I can go
  when I feel low
  when I feel blue
  And it's my mind
  and there's time. When I'm alone
  There's a place
  There's a place


                          B       E
e|------- ------- ------- -------|------- ------- ------- -------|
B|-------------------------------|-------------------------------|
G|-------------------------------|-------------------------------|
D|-------------------------------|2-------2---2-------2---2------|
A|-------------------------------|2-------2---2-------2---2------|
E|------------------------7------|0-------0---0-------0---0------|


          A                       E
e|------- ------- ------- -------|------- ------- ------- -------|
B|-------------------------------|-------------------------------|
G|-------------------------------|-------------------------------|
D|--------7-----------7---7------|2-------2---2-------2---2------|
A|--------7-----------7---7------|2-------2---2-------2---2------|
E|--------5-----------5---5------|0-------0---0-------0---0------|


  A
e|------- ------- ------- -------|------- ------- ------- -------|
B|-------------------------------|-------------------------------|
G|-------------------------------|-------------------------------|
D|7------------------------------|-------------------------------|
A|7------------------------------|------------4---2-------0------|
E|5------------------------------|-------------------------------|
                  There                           there's a


  E                               A
e|0------ 0------ 0------ 0------|--0---- 0------ 0------ 0------|
B|0-------0-------0-------0------|-2------2-------2-------2------|
G|1-------1-------1-------1------|2-------2-------2-------2------|
D|2-------2-------2-------2------2--------2-------2-------2------|
A|2-------2-------2-------2-----0|--------0-------0-------0------|
E|0-------0-------0-------0------|-------------------------------|
  place                                       where I     can
e|------- ------- ------- -------|------- ------- ------- -------|
B|-------------------------------|-------------------------------|
G|-------------------------------|-------------------------------|
D|2-----------2---2--------------|7-----------7---7--------------|
A|2-----------2---2--------------|7-----------7---7--------------|
E|4-----------0---0--------------|5-----------5---5--------------|


  E                               A
e|0------ 0------ 0------ 0------|--0---- 0------ 0------ 0------|
B|0-------0-------0-------0------|-2------2-------2-------2------|
G|1-------1-------1-------1------|2-------2-------2-------2------|
D|2-------2-------2-------2------2--------2-------2-------2------|
A|2-------2-------2-------2-----0|--------0-------0-------0------|
E|0-------0-------0-------0------|-------------------------------|
  go                                          when I      feel
e|------- ------- ------- -------|------- ------- ------- -------|
B|-------------------------------|-------------------------------|
G|-------------------------------|-------------------------------|
D|2-----------2---2--------------|7-----------7---7--------------|
A|2-----------2---2--------------|7-----------7---7--------------|
E|0-----------0---0--------------|5-----------5---5--------------|

  E                               Dbm
e|0------ 0------ 0------ 0---0--|4------ 4------ 4------ 4------|
B|0-------0-------0-------0---0--|5-------5-------5-------5------|
G|1-------1-------1-------1---1--|6-------6-------6-------6------|
D|2-------2-------2-------2---2--|6-------6-------6-------6------|
A|2-------2-------2-------2---2--|4-------4-------4-------4------|
E|0-------0-------0-------0---0--|-------------------------------|
  low                                         when I      feel
e|------- ------- ------- -------|------- ------- ------- -------|
B|-------------------------------|-------------------------------|
G|-------------------------------|6-----------6---6--------------|
D|2-----------2---2--------------|6-----------6---6--------------|
A|2-----------2---2--------------|4-----------4---4--------------|
E|0-----------0---0--------------|-------------------------------|


  B
e|2------ 2---2-- 2------ 2---2--|----2-- 2---2-- 2------ 2---2--|
B|4-------4---4---4-------4---4--|----4---4---4---4-------4---4--|
G|4-------4---4---4-------4---4--|----4---4---4---4-------4---4--|
D|4-------4---4---4-------4---4--|----4---4---4---4-------4---4--|
A|2-------2---2---2-------2---2--|----2---2---2---2-------2---2--|
E|-------------------------------|-------------------------------|
  blue                                            And it's    my
e|------- ------- ------- -------|------- ------- ------- -------|
B|-------------------------------|-------------------------------|
G|-------------------------------|-------------------------------|
D|9-----------9---9--------------|9-----------9---9-----9-----9--|
A|9-----------9---9--------------|9-----------9---9-----9-----9--|
E|7-----------7---7--------------|7-----------7---7-----7-----7--|

  Abm                             A
e|4------ 4---4-- 4------ 4------|0------ 0---0-- 0------ 0------|
B|4-------4---4---4-------4------|2-------2---2---2-------2------|
G|4-------4---4---4-------4------|2-------2---2---2-------2------|
D|6-------6---6---6-------6------|2-------2---2---2-------2------|
A|6-------6---6---6-------6------|0-------0---0---0-------0------|
E|4-------4---4---4-------4------|-------------------------------|
  mind                                            And there's no
e|------- ------- ------- -------|------- ------- ------- -------|
B|-------------------------------|-------------------------------|
G|-------------------------------|-------------------------------|
D|6-----------6---6--------------|7-----------7---7--------------|
A|6-----------6---6--------------|7-----------7---7--------------|
E|4-----------4---4--------------|5-----------5---5--------------|

  E                               A               F#m
e|0------ 0---0-- 0------ 0------|0------ 0------ 2------ ----2--|
B|0-------0---0---0-------0------|2-------2-------2-----------2--|
G|1-------1---1---1-------1------|2-------2-------2-----------2--|
D|2-------2---2---2-------2------|2-------2-------4-----------4--|
A|2-------2---2---2-------2------|0-------0-------4-----------4--|
E|0-------0---0---0-------0------|----------------2-----------2--|
  time                                        when I'm    a.....
e|------- ------- ------- -------|------- ------- ------- -------|
B|-------------------------------|-------------------------------|
G|-------------------------------|-------------------------------|
D|2-----------2---2--------------|7-----------7---4-----------4--|
A|2-----------2---2--------------|7-----------7---4-----------4--|
E|0-----------0---0--------------|5-----------5---2-----------2--|

  Dbm
e|4------ 4---4-- ----4-- 4------|
B|5-------5---5-------5---5------|
G|6-------6---6-------6---6------|
D|6-------6---6-------6---6------|
A|4-------4---4-------4---4------|
E|-------------------------------|
  lone
e|------- ------- ------- -------|
B|-------------------------------|
G|6-----------6-----------6------|
D|6-----------6-----------6------|
A|4-----------4-----------4------|
E|-------------------------------|


e|4------ ------- ------- -------|------- ------- ------- -------|
B|5------------------------------|-------------------------------|
G|6------------------------------|-------------------------------|
D|6------------------------------|-------------------------------|
A|4------------------------------|-------------------------------|
E|-------------------------------|-------------------------------|
                  I                               think   of
e|------- ------- ------- -------|------- ------- ------- -------|
B|-------------------------------|-------------------------------|
G|6------------------------------|-------------------------------|
D|6------------------------------|-------------------------------|
A|4------------------------------|------------4---2-------0------|
E|-------------------------------|-------------------------------|

  E                               A
e|0------ 0------ 0------ 0------|--0---- 0------ 0------ 0------|
B|0-------0-------0-------0------|-2------2-------2-------2------|
G|1-------1-------1-------1------|2-------2-------2-------2------|
D|2-------2-------2-------2------2--------2-------2-------2------|
A|2-------2-------2-------2-----0|--------0-------0-------0------|
E|0-------0-------0-------0------|-------------------------------|
  you                                         the things  you
e|------- ------- ------- -------|------- ------- ------- -------|
B|-------------------------------|-------------------------------|
G|-------------------------------|-------------------------------|
D|2-----------2---2--------------|7------------------------------|
A|2-----------2---2--------------|7-----------4---2-------0------|
E|4-----------0---0--------------|5------------------------------|

  E                               A
e|0------ 0------ 0------ 0------|--0---- 0------ 0------ 0------|
B|0-------0-------0-------0------|-2------2-------2-------2------|
G|1-------1-------1-------1------|2-------2-------2-------2------|
D|2-------2-------2-------2------2--------2-------2-------2------|
A|2-------2-------2-------2-----0|--------0-------0-------0------|
E|0-------0-------0-------0------|-------------------------------|
  do                                          go  round   my
e|------- ------- ------- -------|------- ------- ------- -------|
B|-------------------------------|-------------------------------|
G|-------------------------------|-------------------------------|
D|2-----------2---2--------------|7------------------------------|
A|2-----------2---2--------------|7-----------4---2-------0------|
E|4-----------0---0--------------|5------------------------------|

  E                               Dbm
e|0------ ----0-- 0------ 0---0--|4------ ----4-- 4-----4 ----4--|
B|0-----------0---0-------0---0--|5-----------5---5-----5-----5--|
G|1-----------1---1-------1---1--|6-----------6---6-----6-----6--|
D|2-----------2---2-------2---2--|6-----------6---6-----6-----6--|
A|2-----------2---2-------2---2--|4-----------4---4-----4-----6--|
E|0-----------0---0-------0---0--|-------------------------------|
  head                                         the things you've
e|------- ------- ------- -------|------- ------- ------- -------|
B|-------------------------------|-------------------------------|
G|-------------------------------|6-----------6---6--------------|
D|2-----------2---2--------------|6-----------6---6--------------|
A|2-----------2---2--------------|4-----------4---4--------------|
E|4-----------0---0--------------|-------------------------------|

  B
e|2------ ----2-- 2------ 2---2--|------- 2---2-- ------- 2------|
B|4-----------4---4-------4---4--|--------4---4-----------4------|
G|4-----------4---4-------4---4--|--------4---4-----------4------|
D|4-----------4---4-------4---4--|--------4---4-----------4------|
A|2-----------2---2-------2---2--|--------2---2-----------2------|
E|-------------------------------|-------------------------------|
  said                                            Like    I
e|------- ------- ------- -------|------- ------- ------- -------|
B|-------------------------------|-------------------------------|
G|-------------------------------|-------------------------------|
D|9-----------9---9--------------|9-----------9---9--------------|
A|9-----------9---9--------------|9-----------9---9--------------|
E|7-----------7---7--------------|7-----------7---7--------------|

  A
e|0------ 0---0-- 0------ 0------|0------ 0---0-- 0------ 0------|
B|2-------2---2---2-------2------|2-------2---2---2-------2------|
G|2-------2---2---2-------2------|2-------2---2---2-------2------|
D|2-------2---2---2-------2------|2-------2---2---2-------2------|
A|0-------0---0---0-------0------|0-------0---0---0-------0------|
E|-------------------------------|-------------------------------|
  love                                            only
e|------- ------- ------- -------|------- ------- ------- -------|
B|-------------------------------|-------------------------------|
G|-------------------------------|-------------------------------|
D|7-----------7---7--------------|7-----------7---7--------------|
A|7-----------7---7--------------|7-----------7---7--------------|
E|5-----------5---5--------------|5-----------5---5--------------|

  B
e|2------ 2---2-- 2------ 2------|2-----2 2---2-- ----2-- 2------|
B|4-------4---4---4-------4------|4-----4-4---4-------4---4------|
G|4-------4---4---4-------4------|4-----4-4---4-------4---4------|
D|4-------4---4---4-------4------|4-----4-4---4-------4---4------|
A|2-------2---2---2-------2------|2-----2-2---2-------2---2------|
E|-------------------------------|-------------------------------|
  you
e|------- ------- ------- -------|------- ------- ------- -------|
B|-------------------------------|-------------------------------|
G|-------------------------------|-------------------------------|
D|9-----------9---9--------------|9-------9-------9-------9------|
A|9-----------9---9--------------|9-------9-------9-------9------|
E|7-----------7---7--------------|7-------7-------7-------7------|

  Dbm                             F#
e|4---4-- ----4-- 4------ -------|2------ 2---2-- ----2-- 2---2--|
B|5---5-------5---5--------------|2-------2---2-------2---2---2--|
G|6---6-------6---6--------------|3-------3---3-------3---3---3--|
D|6---6-------6---6--------------|4-------4---4-------4---4---4--|
A|4---4-------4---4--------------|4-------4---4-------4---4---4--|
E|-------------------------------|2-------2---2-------2---2---2--|
          In  my  mind    there's no sorrow
e|4------ ------- ------- -------|------- ------- ------- -------|
B|5------------------------------|-------------------------------|
G|6------------------------------|--------3---3-------3---3------|
D|6------------------------------|--------4---4-------4---4------|
A|4------------------------------|--------4---4-------4---4------|
E|-------------------------------|--------2---2-------2---2------|

  E                               Ab
e|0------ ----0-- 0------ ----0--|4------ 4---4-- 4------ 4------|
B|0-----------0---0-----------0--|4-------4---4---4-------4------|
G|1-----------1---1-----------1--|5-------5---5---5-------5------|
D|2-----------2---2-----------2--|6-------6---6---6-------6------|
A|2-----------2---2-----------2--|6-------6---6---6-------6------|
E|0-----------0---0-----------0--|4-------4---4---4-------4------|
          Don't you know  that it's so
e|------- ------- ------- -------|------- ------- ------- -------|
B|-------------------------------|-------------------------------|
G|1------------------------------|------------5---5-------5------|
D|2------------------------------|------------6---6-------6------|
A|2------------------------------|------------6---6-------6------|
E|0------------------------------|------------4---4-------4------|

  Dbm                             F#
e|4------ 4------ 4------ 4------|2------ 2---2-- ------- 2---2--|
B|5-------5-------5-------5------|2-------2---2-----------2---2--|
G|6-------6-------6-------6------|3-------3---3-----------3---3--|
D|6-------6-------6-------6------|4-------4---4-----------4---4--|
A|4-------4-------4-------4------|4-------4---4-----------4---4--|
E|-------------------------------|2-------2---2-----------2---2--|
          There'll be no sad  tomorrow
e|4------ ------- ------- -------|------- ------- ------- -------|
B|5------------------------------|-------------------------------|
G|6------------------------------|--------3---3-----------3------|
D|6------------------------------|--------4---4-----------4------|
A|4------------------------------|--------4---4-----------4------|
E|-------------------------------|--------2---2-----------2------|

  E                               Ab
e|0------ ----0-- 0------ 0------|4------ ----4-- 4------ 4------|
B|0-----------0---0-------0------|4-----------4---4-------4------|
G|1-----------1---1-------1------|5-----------5---5-------5------|
D|2-----------2---2-------2------|6-----------6---6-------6------|
A|2-----------2---2-------2------|6-----------6---6-------6------|
E|0-----------0---0-------0------|4-----------4---4-------4------|
          Don't you know  that it's so
e|0------ ------- ------- -------|------- ------- ------- -------|
B|0------------------------------|-------------------------------|
G|1------------------------------|--------5---5-----------5------|
D|2------------------------------|--------6---6-----------6------|
A|2------------------------------|--------6---6-----------6------|
E|0------------------------------|--------4---4-----------4------|

  Dbm
e|4------ ------- ------- -------|------- ------- ------- -------|
B|5------------------------------|-------------------------------|
G|6------------------------------|-------------------------------|
D|6------------------------------|-------------------------------|
A|4------------------------------|-------------------------------|
E|-------------------------------|-------------------------------|
                  There                           there's a
e|------- ------- ------- -------|------- ------- ------- -------|
B|-------------------------------|-------------------------------|
G|6------------------------------|-------------------------------|
D|6------------------------------|-------------------------------|
A|4------------------------------|------------4---2-------0------|
E|-------------------------------|-------------------------------|


  E                               A
e|0------ 0------ 0------ 0------|0------ 0------ 0------ 0------|
B|0-------0-------0-------0------|2-------2-------2-------2------|
G|1-------1-------1-------1------|2-------2-------2-------2------|
D|2-------2-------2-------2------|2-------2-------2-------2------|
A|2-------2-------2-------2------|0-------0-------0-------0------|
E|0-------0-------0-------0------|-------------------------------|
  place                                       where I     can
e|------- ------- ------- -------|------- ------- ------- -------|
B|-------------------------------|-------------------------------|
G|-------------------------------|-------------------------------|
D|2-----------2---2--------------|7-----------7---7--------------|
A|2-----------2---2--------------|7-----------7---7--------------|
E|4-----------0---0--------------|5-----------5---5--------------|

  E                               A
e|0------ 0------ 0------ 0------|0------ 0------ 0------ 0------|
B|0-------0-------0-------0------|2-------2-------2-------2------|
G|1-------1-------1-------1------|2-------2-------2-------2------|
D|2-------2-------2-------2------|2-------2-------2-------2------|
A|2-------2-------2-------2------|0-------0-------0-------0------|
E|0-------0-------0-------0------|-------------------------------|
  go                                          when I      feel
e|------- ------- ------- -------|------- ------- ------- -------|
B|-------------------------------|-------------------------------|
G|-------------------------------|-------------------------------|
D|2-----------2---2-----------2--|7-----------7---7--------------|
A|2-----------2---2-----------2--|7-----------7---7--------------|
E|0-----------0---0-----------0--|5-----------5---5--------------|

  E                               Dbm
e|0------ 0------ 0------ 0---0--|4------ 4------ 4------ 4------|
B|0-------0-------0-------0---0--|5-------5-------5-------5------|
G|1-------1-------1-------1---1--|6-------6-------6-------6------|
D|2-------2-------2-------2---2--|6-------6-------6-------6------|
A|2-------2-------2-------2---2--|4-------4-------4-------4------|
E|0-------0-------0-------0---0--|-------------------------------|
  low                                         when I      feel
e|------- ------- ------- -------|------- ------- ------- -------|
B|-------------------------------|-------------------------------|
G|-------------------------------|6-----------6---6--------------|
D|2-----------2---2-----------2--|6-----------6---6--------------|
A|2-----------2---2-----------2--|4-----------4---4--------------|
E|0-----------0---0-----------0--|-------------------------------|


  B
e|2------ 2---2-- 2------ 2---2--|----2-- 2---2-- 2-----2 ----2--|
B|4-------4---4---4-------4---4--|----4---4---4---4-----4-----4--|
G|4-------4---4---4-------4---4--|----4---4---4---4-----4-----4--|
D|4-------4---4---4-------4---4--|----4---4---4---4-----4-----4--|
A|2-------2---2---2-------2---2--|----2---2---2---2-----2-----2--|
E|-------------------------------|-------------------------------|
  blue                                            And it's    my
e|------- ------- ------- -------|------- ------- ------- -------|
B|-------------------------------|-------------------------------|
G|-------------------------------|-------------------------------|
D|9-----------9---9--------------|9-----------9---9-----9-----9--|
A|9-----------9---9--------------|9-----------9---9-----9-----9--|
E|7-----------7---7--------------|7-----------7---7-----7-----7--|


  Abm                             A
e|4------ 4---4-- 4------ 4------|0------ 0---0-- 0------ 0------|
B|4-------4---4---4-------4------|2-------2---2---2-------2------|
G|4-------4---4---4-------4------|2-------2---2---2-------2------|
D|6-------6---6---6-------6------|2-------2---2---2-------2------|
A|6-------6---6---6-------6------|0-------0---0---0-------0------|
E|4-------4---4---4-------4------|-------------------------------|
  mind                                            And there's no
e|------- ------- ------- -------|------- ------- ------- -------|
B|-------------------------------|-------------------------------|
G|-------------------------------|-------------------------------|
D|6-----------6---6--------------|7-------7---7---7--------------|
A|6-----------6---6--------------|7-------7---7---7--------------|
E|4-----------4---4--------------|5-------5---5---5--------------|


  E                               A               F#m
e|0------ 0---0-- 0------ 0------|0------ 0------ 2------ ----2--|
B|0-------0---0---0-------0------|2-------2-------2-----------2--|
G|1-------1---1---1-------1------|2-------2-------2-----------2--|
D|2-------2---2---2-------2------|2-------2-------4-----------4--|
A|2-------2---2---2-------2------|0-------0-------4-----------4--|
E|0-------0---0---0-------0------|----------------2-----------2--|
  time                                        when I'm    a.....
e|------- ------- ------- -------|------- ------- ------- -------|
B|-------------------------------|-------------------------------|
G|-------------------------------|-------------------------------|
D|2-----------2---2--------------|7-----------7---4--------------|
A|2-----------2---2--------------|7-----------7---4--------------|
E|0-----------0---0--------------|5-----------5---2--------------|

  Dbm
e|4------ 4---4-- ----4-- 4------|4------ ------- ------- -------|
B|5-------5---5-------5---5------|5------------------------------|
G|6-------6---6-------6---6------|6------------------------------|
D|6-------6---6-------6---6------|6------------------------------|
A|4-------4---4-------4---4------|4------------------------------|
E|-------------------------------|-------------------------------|                       
    lone                                            There's a
e|------- ------- ------- -------|------- ------- ------- -------|
B|-------------------------------|-------------------------------|
G|6-----------6-----------6------|6------------------------------|
D|6-----------6-----------6------|4------------------------------|
A|4-----------4-----------4------|4------------------------------|
E|-------------------------------|-------------------------------|

  E                               A
e|0------ 0------ 0------ 0------|0------ 0------ 0------ 0------|
B|0-------0-------0-------0------|2-------2-------2-------2------|
G|1-------1-------1-------1------|2-------2-------2-------2------|
D|2-------2-------2-------2------|2-------2-------2-------2------|
A|2-------2-------2-------2------|0-------0-------0-------0------|
E|0-------0-------0-------0------|-------------------------------|
  place                                           There's a
e|------- ------- ------- -------|------- ------- ------- -------|
B|-------------------------------|-------------------------------|
G|-------------------------------|-------------------------------|
D|2-----------2---2--------------|7-----------7---7--------------|
A|2-----------2---2--------------|7-----------7---7--------------|
E|0-----------0---0--------------|5-----------5---5--------------|

  E                               A
e|0------ 0------ 0------ 0------|0------ 0------ 0------ 0------|
B|0-------0-------0-------0------|2-------2-------2-------2------|
G|1-------1-------1-------1------|2-------2-------2-------2------|
D|2-------2-------2-------2------|2-------2-------2-------2------|
A|2-------2-------2-------2------|0-------0-------0-------0------|
E|0-------0-------0-------0------|-------------------------------|
  place                                           There's a
e|------- ------- ------- -------|------- ------- ------- -------|
B|-------------------------------|-------------------------------|
G|-------------------------------|-------------------------------|
D|2-----------2---2--------------|7-----------7---7--------------|
A|2-----------2---2--------------|7-----------7---7--------------|
E|0-----------0---0--------------|5-----------5---5--------------|
  .............................Fade..............................

  E                               A
e|0------ 0------ 0------ 0------|0------ 0------ 0------ 0------|
B|0-------0-------0-------0------|2-------2-------2-------2------|
G|1-------1-------1-------1------|2-------2-------2-------2------|
D|2-------2-------2-------2------|2-------2-------2-------2------|
A|2-------2-------2-------2------|0-------0-------0-------0------|
E|0-------0-------0-------0------|-------------------------------|
  place                                           There's a
e|------- ------- ------- -------|------- ------- ------- -------|
B|-------------------------------|-------------------------------|
G|-------------------------------|-------------------------------|
D|2-----------2---2-----2-----2--|7-----------7---7--------------|
A|2-----------2---2-----2-----2--|7-----------7---7--------------|
E|0-----------0---0-----0-----0--|5-----------5---5--------------|
  ...............................................................


  E                               A
e|0------ 0------ 0------ 0------|0------ 0------ 0------ 0------|
B|0-------0-------0-------0------|2-------2-------2-------2------|
G|1-------1-------1-------1------|2-------2-------2-------2------|
D|2-------2-------2-------2------|2-------2-------2-------2------|
A|2-------2-------2-------2------|0-------0-------0-------0------|
E|0-------0-------0-------0------|-------------------------------|
  place                                           There's a
e|------- ------- ------- -------|------- ------- ------- -------|
B|-------------------------------|-------------------------------|
G|-------------------------------|-------------------------------|
D|2-----------2---2--------------|7-----------7---7--------------|
A|2-----------2---2--------------|7-----------7---7--------------|
E|0-----------0---0--------------|5-----------5---5--------------|
  ................



        B  Bend
        R  Release
        /  slide up
        \  slide down
        H  hammer-on
        P  pull-off
        ~  vibrato
        +  harmonic
        x  Mute note
        . - play note like a dot in standard notation
        ^ - ties two notes together
       (.  Pause

  ------------------------------------------------------------

  THE BEATLES - TWIST AND SHOUT  (Medley/Russell) From PLEASE
                PLEASE ME album. Released on March, 22nd 1963.

  ------------------------------------------------------------

  Tabbed by:PJVillanueva

  At 10 pm, on February, 11th 1963, The Beatles had been working
  for twelve hours (They had done 13 takes of HOLD ME TIGHT, but
  it was finally discarded until some months later and then they
  hastily recorded four covers (ANNA, BOYS, CHAINS and BABY IT'S
  YOU). To complete their first album they needed five songs, so
  there was one left and although they were already out of their
  scheduled time at the studio, George Martin took them to the
  canteen and asked them for a number which could be done in one
  or two takes (John was already on the very verge of loosing his
  voice). They decided on The Isley Brothers hit TWIST AND SHOUT,
  which they were doing on their act for some months. With the
  studio staff as their audience, they delivered the most raving
  performance those studio men had seen in all their lives. They
  wanted to try for a second time, but John just could not sing
  any more. (I think that second take was not at all needed).

  Well, shake it up, baby, now,
 (Shake it up, baby)
  Twist and shout.
 (twist and shout)
  C'mon c'mon, c'mon, c'mon, baby, now,
 (Come on baby)
  Come on and work it on out.
 (Work it on out, Wooooooooooooooohhh)

  Well, work it on out, honey.
 (Work it on out)
  You know you look so good.
 (Look so good)
  You know you got me goin', now,
 (Got me goin')
  Just like I knew you would.
 (Like I knew you would, Woooooooooooooooooohhh)

  Well, shake it up, baby, now,
 (Shake it up, baby)
  Twist and shout.
 (Twist and shout)
  C'mon, c'mon, c'mon, c'mon, baby, now,
 (Come on baby)
  Come on and work it on out.
 (Work it on out, Wooooooooooooooooooohhh)

  You know you twist your little girl,
 (Twist, little girl)
  You know you twist so fine.
 (Twist so fine)
  Come on and twist a little closer, now,
 (Twist a little closer)
  And let me know that you're mine.
 (Let me know you're mine, Woooooooooooooooooooohhh)

  INSTRUMENTAL BREAK

  Aaaaaaaaaaaaaaaaahhh ....Wow!

  Well, shake it up, baby, now,
 (Shake it up, baby)
  Twist and shout.
 (Twist and shout)
  C'mon, c'mon, c'mon, c'mon, baby, now,
 (Come on baby)
  Come on and work it on out.
 (Work it on out, Woooooooooooooooooooohhh)

  You know you twist your little girl,
 (Twist, little girl)
  You know you twist so fine.
 (Twist so fine)
  Come on and twist a little closer, now,
 (Twist a little closer)
  And let me know that you're mine.
 (Let me know you're mine, Wooooooooooooooooooooohhh)

  Well, shake it, shake it, shake it, baby, now.
 (shake it up baby)
  Well, shake it, shake it, shake it, baby, now.
 (shake it up baby)
  Well, shake it, shake it, shake it, baby, now.
 (shake it up baby)
  Aaaaaaaaaaaaaahhh ....

    In the verses, John used to play G, A and A7 chords with his
    thumb for the bass note and an index half barre for the first
    and second strings. He muted the fourth string with his ring
    finger on the fifth string. For those who find it hard for a
    start, it is easier playing those chords barred (six string
    barre) The muting is done the same way.


    INTRO

  e|------- ------- ------- -------|------- ------- ------- -------|
  B|-------------------------------|-------------------------------|
  G|-------------------------------|-------------------------------|
  D|-------------------------------|-------------------------------|
  A|-------------------------------|-------------------------------|
  E|-------------------------------|--------------------5---7---9--|

    D               G           A       A7
  e|2------ 2------ 3---3-- ----5--|----5-- 5---5-- 5---5-- 5---5--|
  B|3-------3-------3---3-------5--|----8---8---8---8---8---8---8--|
  G|2-------2-------4---4-------6--|----6---6---6---6---6---6---6--|
  D|4-------4-------x---x-------x--|----x---x---x---x---x---x---x--|
  A|----------------5---5-------7--|----7---7---7---7---7---7---7--|
  E|----------------3---3-------5--|----5---5---5---5---5---5---5--|
                   (T) ....
  e|------- ------- ------- -------|------- ------- ------- -------|
  B|-------------------------------|-------------------------------|
  G|-------------------------------|-------------------------------|
  D|--------7----------------------|-------------------------------|
  A|5-------5-------5---5-------7--|----7---7---7---7---7----------|
  E|----------------3---3-------5--|----5---5---5---5---5---7---9--|

    D               G           A       A7
  e|2------ 2------ 3---3-- ----5--|----5-- 5---5-- 5---5-- 5------|
  B|3-------3-------3---3-------5--|----8---8---8---8---8---8------|
  G|2-------2-------4---4-------6--|----6---6---6---6---6---6------|
  D|4-------4-------x---x-------x--|----x---x---x---x---x---x------|
  A|----------------5---5-------7--|----7---7---7---7---7---7------|
  E|----------------3---3-------5--|----5---5---5---5---5---5------|
                                                Well,   it  up, baby,
                                                    shake
  e|------- ------- ------- -------|------- ------- ------- -------|
  B|-------------------------------|-------------------------------|
  G|-------------------------------|-------------------------------|
  D|--------7----------------------|-------------------------------|
  A|5-------5-------5---5-------7--|----7---7---7-------7----------|
  E|----------------3---3-------5--|----5---5---5-------5---7---9--|


    00:08
    D               G                   A7
  e|2------ 2------ 3------ 3---3--|----5-- 5---5-- ----5-- 5------|
  B|3-------3-------3-------3---3--|----8---8---8-------8---8------|
  G|2-------2-------4-------4---4--|----6---6---6-------6---6------|
  D|4-------4-------x-------x---x--|----x---x---x-------x---x------|
  A|----------------5-------5---5--|----7---7---7-------7---7------|
  E|----------------3-------3---3--|----5---5---5-------5---5------|
            now,                                    Twist   and
                   (Shake   up, baby)
                        it

  e|------- ------- ------- -------|------- ------- ------- -------|
  B|-------------------------------|-------------------------------|
  G|-------------------------------|-------------------------------|
  D|--------7----------------------|-------------------------------|
  A|5-------5-------5-------5---5--|----7---7---7---7---7----------|
  E|----------------3-------3---3--|----5---5---5---5---5---7---9--|

  e|2------ 2------ 3------ 3---3--|----5-- 5---5-- 5---5-- 5------|
  B|3-------3-------3-------3---3--|----8---8---8---8---8---8------|
  G|2-------2-------4-------4---4--|----6---6---6---6---6---6------|
  D|4-------4-------x-------x---x--|----x---x---x---x---x---x------|
  A|----------------5-------5---5--|----7---7---7---7---7---7------|
  E|----------------3-------3---3--|----5---5---5---5---5---5------|
    shout                               C'mon  c'mon,  c'mon,  c'mon,
                   (twist       shout)
                        and

  e|------- ------- ------- -------|------- ------- ------- -------|
  B|-------------------------------|-------------------------------|
  G|-------------------------------|-------------------------------|
  D|--------7----------------------|-------------------------------|
  A|5-------5-------5-------5---5--|----7-------7---7---7----------|
  E|----------------3-------3---3--|----5-------5---5---5---7---9--|


  e|2------ 2------ 3---3-- 3------|5---5-- ----5-- 5---5-- 5------|
  B|3-------3-------3---3---3------|8---8-------8---8---8---8------|
  G|2-------2-------4---4---4------|6---6-------6---6---6---6------|
  D|4-------4-------x---x---x------|x---x-------x---x---x---x------|
  A|----------------5---5---5------|7---7-------7---7---7---7------|
  E|----------------3---3---3------|5---5-------5---5---5---5------|
    baby,       now,                    Come    and work    on  out.
                   (Come on     baby)       on          it
  e|------- ------- ------- -------|------- ------- ------- -------|
  B|-------------------------------|-------------------------------|
  G|-------------------------------|-------------------------------|
  D|--------7----------------------|-------------------------------|
  A|5-------5-------5-------5---5--|----7-------7-------7----------|
  E|----------------3-------3---3--|----5-------5-------5---7---9--|


  e|2------ 2------ 3---3-- 3------|----5-- 5---5-- 5---5-- 5------|
  B|3-------3-------3---3---3------|----8---8---8---8---8---8------|
  G|2-------2-------4---4---4------|----6---6---6---6---6---6------|
  D|4-------4-------x---x---x------|----x---x---x---x---x---x------|
  A|----------------5---5---5------|----7---7---7---7---7---7------|
  E|----------------3---3---3------|----5---5---5---5---5---5------|
                                        Well,       work    on  out,
                                                        it
                   (Work    on  out     Woooooooooooooooooooohhhh)
                        it
  e|------- ------- ------- -------|------- ------- ------- -------|
  B|-------------------------------|-------------------------------|
  G|-------------------------------|-------------------------------|
  D|--------7----------------------|-------------------------------|
  A|5-------5-------5-------5---5--|----7-------7-------7----------|
  E|----------------3-------3---3--|----5-------5-------5---7---9--|


  e|2---2-- 2------ 3---3-- 3---5--|----5-- 5---5-- 5---5-- 5------|
  B|3---3---3-------3---3---3---5--|----8---8---8---8---8---8------|
  G|2---2---2-------4---4---4---6--|----6---6---6---6---6---6------|
  D|4---4---4-------x---x---x---x--|----x---x---x---x---x---x------|
  A|----------------5---5---5---7--|----7---7---7---7---7---7------|
  E|----------------3---3---3---5--|----5---5---5---5---5---5------|
                honey                   You know    look    so
                   (Work    on  out)            you
                        it
  e|------- ------- ------- -------|------- ------- ------- -------|
  B|-------------------------------|-------------------------------|
  G|-------------------------------|-------------------------------|
  D|--------7----------------------|-------------------------------|
  A|5---5---5-------5-------5---5--|----7-------7---7---7----------|
  E|----------------3-------3---3--|----5-------5---5---5---7---9--|


  e|2---2-- 2------ 3---3-- 3------|5---5-- 5---5-- 5---5-- 5------|
  B|3---3---3-------3---3---3------|5---8---8---8---8---8---8------|
  G|2---2---2-------4---4---4------|6---6---6---6---6---6---6------|
  D|4---4---4-------x---x---x------|x---x---x---x---x---x---x------|
  A|----------------5---5---5------|7---7---7---7---7---7---7------|
  E|----------------3---3---3------|5---5---5---5---5---5---5------|
    good                                You know    got     me
                   (Look        good)           you
                        so
  e|------- ------- ------- -------|------- ------- ------- -------|
  B|-------------------------------|-------------------------------|
  G|-------------------------------|-------------------------------|
  D|--------7----------------------|-------------------------------|
  A|5---5---5-------5-------5---5--|----7---7---7---7---7----------|
  E|----------------3-------3---3--|----5---5---5---5---5---7---9--|


  e|2------ 2------ 3---3-- ----5--|5---5-- 5---5-- 5---5-- 5------|
  B|3-------3-------3---3-------5--|5---8---8---8---8---8---8------|
  G|2-------2-------4---4-------6--|6---6---6---6---6---6---6------|
  D|4-------4-------x---x-------x--|x---x---x---x---x---x---x------|
  A|----------------5---5-------7--|7---7---7---7---7---7---7------|
  E|----------------3---3-------5--|5---5---5---5---5---5---5------|
    goin',      now,                    Just    I   knew    you would.
                   (Got me      goin')      like
  e|------- ------- ------- -------|------- ------- ------- -------|
  B|-------------------------------|-------------------------------|
  G|-------------------------------|-------------------------------|
  D|--------7----------------------|-------------------------------|
  A|5-------5-------5-------5---5--|----7---7---7-------7----------|
  E|----------------3-------3---3--|----5---5---5-------5---7---9--|


                                        x x x x x x x x x x x   x

  e|2------ 2------ 3---3-- ----5--|5---5-- 5---5-- 5---5-- 5------|
  B|3-------3-------3---3-------5--|5---8---8---8---8---8---8------|
  G|2-------2-------4---4-------6--|6---6---6---6---6---6---6------|
  D|4-------4-------x---x-------x--|x---x---x---x---x---x---x------|
  A|----------------5---5-------7--|7---7---7---7---7---7---7------|
  E|----------------3---3-------5--|5---5---5---5---5---5---5------|
                                                Well,   it  up, baby,
                                                    shake
           (Like    knew        would   Woooooooooooooooooooooohhhh)
                I       you
  e|------- ------- ------- -------|------- ------- ------- -------|
  B|-------------------------------|-------------------------------|
  G|-------------------------------|-------------------------------|
  D|--------7----------------------|-------------------------------|
  A|5-------5-------5-------5---5--|----7---7---7-------7----------|
  E|----------------3-------3---3--|----5---5---5-------5---7---9--|

    00:38
         now,
   (Shake it up, baby)
    Twist and shout.
   (Twist and shout)
    C'mon, c'mon, c'mon, c'mon, baby, now,
   (Come on baby)
    Come on and work it on out.
   (Work it on out, Woooooooooooooohhh)


                                   00:53
    You know you twist little girl,
   (Twist, little girl)
    You know you twist so fine.
   (Twist so fine)
    Come on and twist a little closer, now,
   (Twist a little closer)
    And let me know that you're mine.
   (Let me know you're mine, Wooooooooooooooooohhh)

    INSTRUMENTAL BREAK
    01:08

  e|------- ------- ------- -------|------- ------- ------- -------|
  B|--------------------3-------2--|-------------------------------|
  G|----------------4--------------|------------2---4-------2------|
  D|4-----------4------------------|-------------------------------|
  A|-------------------------------|-------------------------------|
  E|-------------------------------|-------------------------------|

  e|------- ------- ------- -------|------- ------- ------- -------|
  B|-------------------------------|-------------------------------|
  G|--------------------4-------2--|----------------0--------------|
  D|----------------5--------------|------------2-----------4------|
  A|5-----------5------------------|-------------------------------|
  E|-------------------------------|-------------------------------|

  e|------- ------- ------- -------|------- ------- ------- -------|
  B|--------------------3-------2--|-------------------------------|
  G|----------------4--------------|------------2---4-------2------|
  D|4-----------4------------------|-------------------------------|
  A|-------------------------------|-------------------------------|
  E|-------------------------------|-------------------------------|

  e|------- ------- ------- -------|------- ------- ------- -------|
  B|-------------------------------|-------------------------------|
  G|--------------------4-------2--|----------------0--------------|
  D|----------------5--------------|------------2-----------4------|
  A|5-----------5------------------|-------------------------------|
  E|-------------------------------|-------------------------------|

  e|------- ------- ------- ----2--|------- ------- ------- -------|
  B|--------------------3-------2--|-------------------------------|
  G|----------------4--------------|------------2---4-------2------|
  D|4-----------4------------------|-------------------------------|
  A|-------------------------------|-------------------------------|
  E|-------------------------------|-------------------------------|

  e|------- ------- ------- -------|------- ------- ------- -------|
  B|-------------------------------|-------------------------------|
  G|--------------------4-------2--|----------------0--------------|
  D|----------------5--------------|------------2-----------4------|
  A|5-----------5------------------|-------------------------------|
  E|-------------------------------|-------------------------------|

  e|------- ------- ------- -------|------- ------- ------- -------|
  B|--------------------3-------2--|-------------------------------|
  G|----------------4--------------|------------2---4-------2------|
  D|4-----------4------------------|-------------------------------|
  A|-------------------------------|-------------------------------|
  E|-------------------------------|-------------------------------|

  e|------- ------- ------- -------|------- ------- ------- -------|
  B|-------------------------------|-------------------------------|
  G|--------------------4-------2--|----------------0--------------|
  D|----------------5--------------|------------2-----------4------|
  A|5-----------5------------------|-------------------------------|
  E|-------------------------------|-------------------------------|


    01:24

  e|5------ 5---5-- ----5-- 5------|5------ ----5-- ----5-- 5---5--|
  B|5-------5---5-------5---5------|5-----------5-------5---5---5--|
  G|6-------6---6-------6---6------|6-----------6-------6---6---6--|
  D|7-------7---7-------7---7------|7-----------7-------7---7---7--|
  A|7-------7---7-------7---7------|7-----------7-------7---7---7--|
  E|5-------5---5-------5---5------|5-----------5-------5---5---5--|
    Aaaaaaaaaaaaaaaaaaaaaahhhh ....
                                    Aaaaaaaaaaaaaaaaaaaaaaahhh ....
  e|------- ------- ------- -------|------- ------- ------- -------|
  B|-------------------------------|-------------------------------|
  G|-------------------------------|-------------------------------|
  D|7-------7---7-------7---7---7--|7-----------7-------7---7---7--|
  A|7-------7---7-------7---7---7--|7-----------7-------7---7---7--|
  E|5-------5---5-------5---5---5--|5-----------5-------5---5---5--|


  e|5------ 5---5-- ----5-- 5---5--|5------ ----5-- ------- 5---5--|
  B|5-------5---5-------5---5---5--|5-----------5-----------5---5--|
  G|6-------6---6-------6---6---6--|6-----------6-----------6---6--|
  D|7-------7---7-------7---7---7--|7-----------7-----------7---7--|
  A|7-------7---7-------7---7---7--|7-----------7-----------7---7--|
  E|5-------5---5-------5---5---5--|5-----------5-----------5---5--|
    ....
  e|------- ------- ------- -------|------- ------- ------- -------|
  B|-------------------------------|-------------------------------|
  G|-------------------------------|-------------------------------|
  D|7-----------7-------7---7---7--|7-------7---7-------7---7---7--|
  A|7-----------7-------7---7---7--|7-------7---7-------7---7---7--|
  E|5-----------5-------5---5---5--|5-------5---5-------5---5---5--|


  e|5---5-- ----5-- ----5-- 5------|5---5-- 5---5-- 5---5-- 5---5--|
  B|5---5-------5-------5---5------|5---5---5---5---5---5---5---5--|
  G|6---6-------6-------6---6------|6---6---6---6---6---6---6---6--|
  D|7---7-------7-------7---7------|7---7---7---7---7---7---7---7--|
  A|7---7-------7-------7---7------|7---7---7---7---7---7---7---7--|
  E|5---5-------5-------5---5------|5---5---5---5---5---5---5---5--|
     ....                       Well,                   it  up, baby,
     Wow!                                           shake
  e|------- ------- ------- -------|------- ------- ------- -------|
  B|-------------------------------|-------------------------------|
  G|-------------------------------|-------------------------------|
  D|7---7---7---7---7---7---7---7--|7---7---7---7---7---7---7---7--|
  A|7---7---7---7---7---7---7---7--|7---7---7---7---7---7---7---7--|
  E|5---5---5---5---5---5---5---5--|5---5---5---5---5---5---5---5--|

    01:36
         now,
   (Shake it up, baby)
    Twist and shout.
   (Twist and shout)
    C'mon, c'mon, c'mon, c'mon, baby, now,
   (Come on baby)
    Come on and work it on out.
   (Work it on out, Wooooooooooooooohhh)

                                   01:51
    You know you twist little girl,
   (Twist, little girl)
    You know you twist so fine.
   (Twist so fine)
    Come on and twist a little closer, now,
   (Twist a little closer)
    And let me know that you're mine.
   (Let me know you're mine, Wooooooooooooohhh)


    Well, shake it, shake it, shake it,

    02:07
    baby, now.
   (shake it up baby)
    Well, shake it, shake it, shake it,
    baby, now.
   (shake it up baby)
    Well, shake it, shake it, shake it,
    baby, now.
   (shake it up baby)


    02:18

  e|5---5-- 5---5-- ----5-- 5------|5------ 5---5-- ----5-- 5------|
  B|5---5---5---5-------5---5------|5-------5---5-------5---5------|
  G|6---6---6---6-------6---6------|6-------6---6-------6---6------|
  D|7---7---7---7-------7---7------|7-------7---7-------7---7------|
  A|7---7---7---7-------7---7------|7-------7---7-------7---7------|
  E|5---5---5---5-------5---5------|5-------5---5-------5---5------|
    Aaaaaaaaaaaaaaaaaaaaaahhhh ....
                                    Aaaaaaaaaaaaaaaaaaaaaaahhh ....
  e|------- ------- ------- -------|------- ------- ------- -------|
  B|-------------------------------|-------------------------------|
  G|-------------------------------|-------------------------------|
  D|7-------7---7-------7---7---7--|7-------7---7-------7---7---7--|
  A|7-------7---7-------7---7---7--|7-------7---7-------7---7---7--|
  E|5-------5---5-------5---5---5--|5-------5---5-------5---5---5--|


  e|5------ 5---5-- ----5-- 5---5--|5------ ------- ------- -------|
  B|5-------5---5-------5---5---5--|5------------------------------|
  G|6-------6---6-------6---6---6--|6------------------------------|
  D|7-------7---7-------7---7---7--|7-----7----8----9----10----11--|
  A|7-------7---7-------7---7---7--|7-----7----8----9----10----11--|
  E|5-------5---5-------5---5---5--|5-----5----6----7-----8-----9--|
    ....
  e|------- ------- ------- -------|------- ------- ------- -------|
  B|-------------------------------|-------------------------------|
  G|-------------------------------|-------------------------------|
  D|7-------7---7-------7---7---7--|7-----7----8----9----10----11--|
  A|7-------7---7-------7---7---7--|7-----7----8----9----10----11--|
  E|5-------5---5-------5---5---5--|5-----5----6----7-----8-----9--|


                   (.
        xxx   xxx
  e|------- ------- 5------ -------|------- ------- ------- -------|
  B|----------------5--------------|-------------------------------|
  G|----------------5--------------|-------------------------------|
  D|12--------------4--------------|-------------------------------|
  A|12--------------5--------------|-------------------------------|
  E|10-----------------------------|-------------------------------|
                            Hey!
  e|------- ------- 5------ -------|------- ------- ------- -------|
  B|----------------5--------------|-------------------------------|
  G|----------------5--------------|-------------------------------|
  D|12--------------4--------------|-------------------------------|
  A|12--------------5--------------|-------------------------------|
  E|10-----------------------------|-------------------------------|



        T  Thumb
        B  Bend
        R  Release
        /  Slide up
        \  Slide down
        H  Hammer-on
        P  Pull-off
        ~  Vibrato
        +  Harmonic
        x  Mute note
        .  Play note like a dot in standard notation
        ^  Ties two notes together
        (. Pause
comments
print report bad tab
I want to post or [tab]
guest
You may want to rate the tab now too:
select rating
Please do not post tabs as comments. Select "correction" instead!