Oops, an error
Loading. Please wait.

Revolver Tab

154,875 views 336 this week
5 commentsread comments
1 2 3 4 5
accurate
x 8
add to favorites launch autoscroll
font size
0
reset
Autoscroll
+/-
esc
set tempo
stop
Contributor
WARNING: You are trying to view
                                    content from Ultimate-Guitar.com
                                    in an unauthorized application,
                                    which is prohibited.

                                    Please use an official Ultimate
                                    Guitar Tabs application for iPhone,
                                    iPad or Android to access legitimate
                                    chords, guitar, bass, and drum tabs
                                    from Ultimate-Guitar.com database.

                                    Type "ultimate guitar tabs" in Apple
                                    App Store's or Android Market's
                                    search to find the application.
Revolver
Album

1.Taxman
2.Eleanor Rigby
3.I'm Only Sleeping
4.Love You To
5.Here, There and Everywhere
6.Yellow Submarine
7.She Said She Said
8.Good Day Sunshine
9.And Your Bird Can Sing
10.For No One
11.Doctor Robert
12.I Want To Tell You
13.Got To Get You Into My Life
14.Tomorrow Never Knows


=================================================================


	  Taxman
	(Harrison)


Verse:
    D7                         D7#9  D7
Let me tell you how it will be
    D7                              D7#9  D7
There's one for you nineteen for me
               C7              G7#9    D7
'Cos I'm the taxman   Yeah I'm the taxman


Verse:
Should five percent appear too small
Be thankful I don't take it all
'Cos I'm the taxman   Yeah I'm the taxman


Middle:
         D
If you drive a truck  I'll tax the street
                            C
If you try to fix it  I'll tax your seat
        D
If you get too cold  I'll tax the heat
                           C                D
If you take a walk  I'll tax your feet   TAXMAN!


Guitar Solo:
-|---------------------------------------------------10----------------|
-|--------------------------------6--8--b(9)8--6-----------------------|
-|-----7-----7-----7-----7-----7------------------7--------------------|
-|--0-----0-----0-----0-----0------------------------------------------|
-|---------------------------------------------------------------------|
-|---------------------------------------------------------------------|

-|---------------------------------------------------------------------|
-|-----9p8--9p8--6-----------------------------------------------------|
-|--7---------------7--7--5h7p5--6--4h6p4--5--2h4p2--------------------|
-|---------------------------------------------------------------------|
-|---------------------------------------------------------------------|
-|---------------------------------------------------------------------|

-|------------------------------------------------------------10-------|
-|-----------------------8--6-----6-----6-----6--b(9)8--6--------------|
-|--2--4--5--7-----7-----------7-----7-----7---------------7-----------|
-|--------------0-----0------------------------------------------------|
-|---------------------------------------------------------------------|
-|---------------------------------------------------------------------|

               C               G7#9    D
'Cos I'm the taxman   Yeah I'm the taxman


Verse:
Don't ask me what I want it for  (ah ah, Mr. Wilson)
If you don't want to pay some more  (ah ah, Mr. Heath)
    'Cos I'm the taxman                 Yeah      I'm the taxman
-|--------------------------------------------------------------------------|
-|--------------------------------------------------------------------------|
-|-------------------5---------3--5-----5---------3--5----------------------|
-|----------------------3--h5--------------3--h5-----------5---------3b(4)--|
-|----------------3------------------3------------------------3--h5---------|
-|------------------------------------------------------3-------------------|


Verse:
Now my advice for those who die  (TAXMAN!)
Declare the pennies on your eyes  (TAXMAN!)
'Cos I'm the taxman   Yeah I'm the taxman

    And you're working     for no one    but me
                 F                           D7
-|--------------------------------------------------------------|
-|--------------/6-----/6-----/6-----/6-------------------------|
-|------------------5------5------5------5------7---------5--7--|  (repeat
-|-------------------------------------------------5--h7--------|   guitar
-|-------------------------------------------5------------------|    solo)
-|--------------------------------------------------------------|

-------------------------------------------------------------------------
Miscellaneous info:

C7   = (-3231-)
D7   = (-5453-)
D7#9 = (-5456-) or (----11)
G7#9 = (35-466)

Riff to repeat over first two
lines of third verse
-|------------------------------|
-|------------------------------|
-|-----7---------5--7-----------|
-|--------5--h7-----------------|

-|--5---------------------------|
-|------------------------------|

Riff to repeat over first two
lines of fourth verse
-|------------------------------|
-|------------------8-----------|
-|-----7---------5--------------|
-|--------5--h7-----------------|
-|--5---------------------------|
-|------------------------------|

========================================================================

Eleanor Rigby


define:
[C]:	032010
[C/G]:  	332010
[Em]:	022000
[Em6]:	022020
[Em7]:	022030

[C/G]Ah, look at all the lonely [Em]people!
[C/G]Ah, look at all the lonely [Em]people!

[Em]Eleanor Rigby,
Picks up the rice in a church where a wedding has been,
Lives in a dream.
[C]Waits at the window,
Wearing the face that she keeps in a jar by the door,
Who is it f[Em]or?

     [Em7]All the lonely [Em6]people,
     Where [C]do they all come [Em]from?
     [Em7]All the lonely [Em6]people,
     Where [C]do they all bel[Em]ong?

Father McKenzie,
Writing the words of a sermon that no one will hear,
No one comes near.
Look at him working,
Darning his socks in the night when there's nobody there,
What does he care?

     All the lonely people,
     Where do they all come from?
     All the lonely people,
     Where do they all belong?

Eleanor Rigby,
Died in the church and was buried along with her name,
Nobody came.
Father McKenzie,
Wiping the dirt from his hands as he walks from the grave,
No one was saved.

     All the lonely people,
     Where do they all come from?
     All the lonely people,
     Where do they all belong?


I'm Only Sleeping

(i think this should be played with a capo on 4... otherwise start with
Bm and it will do fine- top line are the chord forms, bottom line is in
the right key [at least the recording I have])

Bm                          Em      D       G      D         F#7
D#m                         G#m     F#      B      F#        A#7
When I wake up early in the morning/lift my head   I'm still yawning

(you get the idea...)
D#m                         G#m   F#      B     F#      B       G#m
When I'm in the middle of a dream/Stay in bed   Float upstream

F#                   G#m               A#m              G#m
Please don't wake me/no don't shake me/leave me where I am

           F#maj7      G#m  (little bass thing G#/B/D#/B somewhere)
I'm only sleeping...

(bridge part, after verses 2 and 3 I believe...)
C#m7                  D#7               G#m
Keeping an eye on the world going by my window, taking my time

2. Everybody seems to think I'm lazy/I don't mind/I think they're crazy
   Running everywhere at such a speed/'til they find/There's no need
   Please don't spoil my day/I'm miles away/and after all
   I'm only sleeping...

3. Lying there and staring at the ceiling/Waiting for/a sleepy feeling

   Please don't spoil my day/I'm miles away/And after all
   I'm only sleeping...

   RIFF 1:     RIFF 2:
E --------- ----------2---------|
B --------- ----------3---------|
G --------- ----------4-------4-|
D ---0-4-0- ---0-4-0--4---0-4---|
A -2------- -2--------2-2-------|
E --------- ----------2---------|

===========================================================================


 Love you to


|C                       |        |              |
Each day just goes so fast I turn around it's past
          |              |             |            |           |
You don't get time to hang a sign on me

  Verse:
  |Bb                C |Bb      C     | Bb             C  | Bb
  Love me while you can         Before I'm a dead old man


|C                      |               |                       |
Each day time is so short         A new one can't be bought
        |                 |              |
But what you've got means such a lot to me

  Verse:
  |Bb                C |Bb        C| Bb                     C  | Bb
  Make love all day long            Make love sing-ing a song

|C                       |                 |                 |
Each day ple standing round    Who'll screw you in the ground
        |                 |              |
They'll fill you in with all their sins you'll see


  Verse:
  |Bb                C |Bb         C| Bb            C  | Bb
  I'll make love to you             If you want me to


...... A bunch of Sitar solo......


  Verse:
  |Bb                C |Bb        C| Bb                     C  | Bb
  Make love all day long            Make love sing-ing a song



Here There and Everywhere  (Lennon/McCartney)

G           Bm
  To lead a better life,
Bb                     Am11  D7
  I need my love to be here.

G     Am7  Bm            C        G     Am7
Here,      making each day of the year
Bm          C           F#m7        B7
Changing my life with a wave of her hand,
F#m7   B7    Em              Am        Am7    D7
Nobody can deny that there's something there.


There, running my hands through her hair
Both of us thinking how good it can be
Someone is speaking, but she doesn't know he's there.


Chorus:  (x2)

  F7       Bb("E" bar chord)  Gm
I want her everywhere
       Cm              D7            Gm
And if she's beside me I know I need never care.
Cm              D7             G          Am7
But to love her is to need her everywhere
Bm              C       G      Am7
Knowing that love is to share,
Bm           C          F#m7       B7
Each one believing that love never dies
F#m7         B7        Em         Am            Am7 D7 (1st time through)
Watching her eyes, and hoping I'm always there.     D7sus4 (2nd time thru)


          G     Am      Bm       C
I will be there,    and everywhere.
G     Am7        Bm       C   G
Here, there, and everywhere.


Neil...

============================================================================


YELLOW SUBMARINE
(Lennon/McCartney)
Revolver (1966) and Yellow Submarine (1969)

 Tune down all strings 1/2 step!


 C       D        C      G
In the town where I was born,
 Em     Am       C         D
Lived a man who sailed to sea.
 C      D      C       G
And he told us of his life,
Em      Am      C    D
In the land of submarines.

 C      D      C       G
So we sailed unto the sun,
 Em      Am        C       D
Till we found the sea of green.
 C       D      C          G
And we lived beneath the waves,
Em      Am      C    D
In our yellow submarine.


G                  D
We all live in a yellow submarine,
                    G
Yellow submarine, yellow submarine.
G                  D
We all live in a yellow submarine,
                    G
Yellow submarine, yellow submarine.

 C         D         C     G
And our friends are all aboard,
 Em   Am           C         D
Many more of them live next door.
 C       D      C       G
And the band begins to play.

G   D

G                  D
We all live in a yellow submarine,
                    G
Yellow submarine, yellow submarine.
G                  D
We all live in a yellow submarine,
                    G
Yellow submarine, yellow submarine.


(break)
 C     D      C      G
 Em   Am      C      D
 C     D      C      G
 Em   Am      C      D


 C     D      C       G
As we live a life of ease,
Em   Am             C      D
Everyone of us has all we need.
 C       D       C       G
Sky of blue and sea of green,
Em     Am      C    D
In our yellow submarine.


G                  D
We all live in a yellow submarine,
                    G
Yellow submarine, yellow submarine.
G                  D
We all live in a yellow submarine,
                    G
Yellow submarine, yellow submarine.

G                  D
We all live in a yellow submarine,
                    G
Yellow submarine, yellow submarine.
G                  D
We all live in a yellow submarine,
                    G
Yellow submarine, yellow submarine.


She Said, She Said


NOTE:CAPO 1st
h = hammer on   p = pull off   b = bend
r = release bend
Intro:
e|------------------------------------|
B|------2h3--2h3--2h3---5-------------|
G|--2h4--------------------2----------|
D|------------------------------------|
A|------------------------------------|
E|------------------------------------|

A        G     D
She said
                   A           G    D
"I know what it's like to be dead
              A          G     D
I know what it is to be sad"
            A           G
And she's making me feel like
        D         A
I've never been born


A      G     D
I said
                     A              G   D
"Who put all those things in your head
                   A               G    D
Things that make me feel that I'm mad
              A       G
And you're making me feel like
      D           A
I've never been born"

 A          G                 D
She said, "You don't understand what I said"
         A                    G     D
I said, "No, no, no, you're wrong
             Em
When I was a boy
A7              D      A7              D
Everything was right, everything was right"

   A     G    D
I said
                    A             G   D
 "Even though you know what you know
              A             G    D
 I know that I'm ready to leave
                 A             G
 'Cause you're making me feel like
       D           A
 I've never been born"

 A          G                 D
She said, "You don't understand what I said"
         A                    G     D
I said, "No, no, no, you're wrong
             Em
When I was a boy
A7              D      A7              D
Everything was right, everything was right"


   A     G    D
I said
                    A             G   D
 "Even though you know what you know
              A             G    D
 I know that I'm ready to leave
                 A             G
 'Cause you're making me feel like
       D           A
 I've never been born"


A        G   D
She said
                   A           G    D
"I know what it's like to be dead
              A            G   D
I know what it is to be sad,
            A               G    D     A
I know what it is to be dead"


===========================================================================

Good Day Sunshine
                             (Lennon/McCartney)
                                 The Beatles
                               Revolver (1966)

 E


 B        F#        B        F#        E          E7
Good day sunshine, good day sunshine, good day sunshine


            A   F#7              B7
I need to laugh     and when the sun is out
 E                     A
I've got someting I can laugh about
           F#7       B7
I feel good   in a special way
 E                      A
I'm in love, and it's a   sunny day


 B        F#        B        F#        E          E7
Good day sunshine, good day sunshine, good day sunshine


           A    F#7          B7
We take a walk,    the sun is shining down
 E                      A
burns my feet as they touch the ground


[solo]
D B7 E7 A7 D


 B        F#        B        F#        E          E7
Good day sunshine, good day sunshine, good day sunshine


             A  F#7            B7
And then we lie     beneath a shady tree
E                      A
I love her and she's loving me
               F#7                  B7
She feels good,   she knows she's looking fine
 E                       A
I'm so proud to know that she is mine

 B        F#        B        F#        E          E7
Good day sunshine, good day sunshine, good day sunshine
 B        F#        B        F#        E          E7
Good day sunshine, good day sunshine, good day sunshine
 F7
good day sunshine  (repeat and fade)


============================================================================

AND YOUR BIRD CAN SING


Intro:
  E                                    B
E------------------------------------------------|
B---9-7-5-7-5-4-5-4-2-0-------0-2-9-9-9-10-9-----|
G---9-8-6-8-6-4-6-4-2-1-2-1-2-1-2-9-9-9-10-9-9---|
D-----------------------4-2-4------------------9-|
A------------------------------------------------|
E-0----------------------------------------------|

         B
E-----------------------|
B------12-12------------|
G----9-11-13-11-9-------|
D-11--------------11-9--|
A-----------------12-11-|
E-----------------------|

Verse:
      E
You tell me that you've got every thing you want
And your bird can sing
                  F#m  A            E
But you don't get me  You don't get me

Fill riff:
           B
E-------------------------|
B--------12-12------------|
G------9-11-13-11-9-------|
D-9-11--------------11-9--|
A-------------------12-11-|
E-------------------------|
Verse:
You say you've seen seven wonders
And your bird is green
But you can't see me  You can't see me
Middle:
 When your prize po--sessions        start to
  G#m                  G+            B/F#
E----------4------------------3------------------|
B-------4--4-----4----------4-4-4----------4-----|
G-----4------------6-4---4--------6-4---4--------|
D-6--------------------5--------------4----------|
A------------------------------------------------|
E------------------------------------------------|

  Weigh you   down
             C#/F
E-2-------------------------|
B-4-----4---------7-6-------|
G---------6-4-----6-6-6-----|
D---------------6-------6---|
A-------------8-----------8-|
E---------------------------|

  E               F#m
  Look in my di----rection I'll be 'round    I'll
E----------0-------------2-----------------2-----|
B----------0-0---------2-2-2-------------2-2-2---|
G--------------1-----2----------2------2---------|
D------6-9-------2-4---------------4-4-----------|
A-7----------------------------------------------|
E------------------------------------------------|

      B
  be 'round
E--------------------|
B--------------------|
G-2--------8-8-8-----|
D----4---9-------9---|
A------------------9-|
E------7-------------|

Guitar Solo:
   E                                    B  R
E-------------------------------------------------|
B----9-7-5-7-5-4-5-4-2-0-------0-2-9-9-9-10-9-----|
G----9-8-6-8-6-4-6-4-2-1-2-1-2-1-2-9-9-9-10-9-9-4-|
D------------------------4-2-4--------------------|
A-------------------------------------------------|
E-------------------------------------------------|

       B
E-----7-7--------|
B---5-7-9-7-5----|
G-6-----------6--|
D----------------|
A----------------|
E----------------|

  F#m              A                E
                                            B  R
E--2-4-5-7-5-4-2-0---0-2-4-5-6-9-11-12-12-12-14--|
B------------------4-----------------------------|
G--2-4-6-8-6-4-2-1---1-2-4-6-8-9-11-13-13-13-14--|
D------------------4-----------------------------|
A------------------------------------------------|
E------------------------------------------------|

E-12----------|
B----12-------|
G-13-13-13----|
D-------14-14-|
A----------14-|
E-------------|

Middle:
When your bird is broken  Will it bring you down?
You may be awoken   I'll be 'round I'll be 'round
Verse:
Tell me that you've heard every sound there is
And your bird can swing
But you can't hear me  You can't hear me

Repeat guitar solo:
   . . then . .

End:
                                                 A
E--------------------------------------------------|
B---9-7-5-7-5-4-5---9-7-5-7-5-4-5--9-7-5-7-5-4-5-2-|
G---9-8-6-8-6-4-6---9-8-6-8-6-4-6--9-8-6-8-6-4-6-2-|
D------------------------------------------------2-|
A--------------------------------------------------|
E-0---------------0---------------0----------------|

B = bend up first note to second. . .
R = release first note to second. . .
    In both cases, pick only first note

Magic E Chord for use in AYBCS. Note that this is
a real open, twangy sounding E5 chord. . . sounds
best on a Rickenbacker 325!  Also sounds great in
Day Tripper.

E -0-
B -0-
G -9-
D -9-
A -7-
E -0-

E----------------------------------0--2--0--4-|
B-9--7\5--4\2-------------0--2--4--2--4--2--5-|
G-9--8-6--4-2--4\2--1--2--1--2--4-------------|
D--------------6-4--2--4----------------------|
A---------------------------------------------|
E---------------------------------------------|

E-4/5\4--0--------0--2--4--5--7--5-------------|
B-5-7-5--0--0--2-----2--4--7--9--7--9--7--5--7-|
G-----------------------------------9--8--6--8-|
D----------------------------------------------|
A----------------------------------------------|
E----------------------------------------------|


E------------9---11--12--14--16--16--17--16-|
B-9--10--12--10--12--14--16--17--17--19--17-|
G-9--11--13---------------------------------|
D-------------------------------------------|
A-------------------------------------------|
E-------------------------------------------|

E------------|
B-12---------|
G-----13-----|
D---------14-|
A------------|
E------------|

============================================================================

FOR NO ONE

  C               Em
Your day breaks, your mind aches
 Am            C/G              Fmaj7               Bb
You find that all her words of kindness linger on
               C
When she no longer needs you

She wakes up, she makes up
She takes her time and doesn't feel she has to hurry
She no longer needs you

CHORUS:
            Dm             A7
And in her eyes you see nothing
 Dm                   A7     Dm
No sign of love behind the tears
            A7
Cried for no one
 Dm                       A7     Dm   G11 G7
A love that should have lasted years

You want her, you need her
And yet you don't believe her when she said her love is dead
You think she needs you ...CHORUS

You stay home, she goes out
She says that long ago she knew someone but now he's gone
She doesn't need him

Your day breaks, your mind aches
There will be time when all the things she said
will fill your head
you won't forget her ...CHORUS


G11: 3 x 0 2 1 1
C/G: 3 3 2 0 1 0

======================================================================


Doctor Robert


A7
Ring my friend I said you'd call Doctor Robert

Day or night he'll be thre any time at all
                     F#7
Doctor Robert Doctor Robert

You're a new and better man

 Verse:
                            F#7
 You're a new and better man

 He helps you to understand
            E7         F#7        B7
 He does everything he can Doctor Robert


A7
If you're down he'll pick you up Doctor Robert

Take a drink from his special cup
                     F#7
Doctor Robert Doctor Robert


 Verse:
                            F#7
 He's a new and better man

 Helping a ny-one in need
 E7                 F#7          B7
 No one can succeed like Doctor Robert


A7
My friend works for the Nationl Health Doctor Robert

Don't pay money just to see yourself
                     F#7
Doctor Robert Doctor Robert
B                       E       B
Well, well, well you're feeling fine
B                       E              A7
Well, well, well he'll make you Doctor Robert


 Verse:
                            F#7
 You're a new and better man

 He helps you to understand
            E7         F#7        B7
 He does everything he can Doctor Robert

B                       E       B
Well, well, well you're feeling fine
B                       E              A7
Well, well, well he'll make you Doctor Robert

Ring my friend I said you'd call Doctor Robert

Ring my friend I said you'd call Doctor Robert
       F#7
Doctor Robert


============================================================================


I Want To Tell You

Intro:

E---------------------------------------|
B---------------------------------------|
G--2--0-------------0-------------------|    x4
D-----------2----------0-----4--0-------|
A--------0-------0--------0--------0----|
E---------------------------------------|

A
I want to tell you
                       B
my head is filled with things to say
E7
When you're here, all those words
             A
they seem to slip away

A
When I get near you
                   B
the games begin to drag me down
E7
It's alright, I'll make you maybe
     A
next time around

Bm       E7            A
But if I seem to act unkind
          B7              Bm
It's only me, it's not my mind
Dm6        A
that is confusing things

A
I want to tell you
                     B
I feel hung up and I don't know why
E7
I don't mind, I could wait forever
A
I've got time

Bm          E7              A
Sometimes I wish I knew you well
             B7                Bm
Then I could speak my mind and tell you
Dm6         A
Maybe you'd understand.

A
I want to tell you
                     B
I feel hung up and I don't know why
E7
I don't mind, I could wait forever
A
I've got time

======================================================================

Got To Get You Into My Life

This is the tab for those brass instruments,

intro:


E--------7-------8--10------7----8-----------------------------------|
B------------------------------------------------------8-------------|
G--------------------------------------------------------------------|
D--------------------------------------------------------------------|
A--------------------------------------------------------------------|
E--------------------------------------------------------------------|


G                                                    F
I was alone I took a ride I didn't know what I would find  there
G                                                  F
Another road where maybe I can see another kind of mind there
Bm    Bb+      D/A    G#m7
Ooh   then I suddenly see you
Bm    Bb+        D/A    G#m7
Ooh   did I tell you I  need you
C      C/B     Am7  D      G
Every  single  day  of  my life

You didn't run you didn't lie you I wanted just to hold you
And had you gone you'd knew in time we meet again for I'd have told you
Ooh you were meant to be near me
And I want you hear me
Say we'll be together every day

G                      C
Got to get you into my life


E---3--3--5--6------1---3--------|
B----------------3---------------|
G--------------------------------|  (repeat this twice after "Got to
D--------------------------------|   get you into my life")
A--------------------------------|
E--------------------------------|

What can I do? What can I be when I'm with you I wanna stay there
If I'm true I'll never leave and if I do I know the way there
Ooh then I suddenly see you
Ooh did I tell you I need you
Every single day of my life

Got to get you into my life

(repeat 1st verse with a slightly different sound to the vocals)


Chords used:
Am7    x02010
Bb+    xx0332
Bm     x24432
C      x32010
C/B    x22010
D      xx0232
D/A    x00232
F      133211
G      320033
G#m7   464474  ?


=========================================================================


Tomorrow Never Knows

C
Turn off your mind relax and float downstream
It is not dying  It is not dying

Lay down all thoughts, surrender to the void
It is shining  It is shining

That you may see the meaning of within
It is being  It is being

That love is all and love is everyone
It is knowing It is knowing

That ignorance and haste may mourn the dead
It is believing  It is believing

But listen to the colour of your dream
It is not living  It is not living

Or play the game of existence to the end
Of the beginning Of the beginning  Of the beginning

One chord - that was easy. The trick is to get a steady strum on that C chord and keep it
throughout the whole song. (Lyrics here are taken from the Anthology 2 version)
5 comments total. Showing first comments.
+1 reply
The_Bird wrote on August 19 2009, 04:43 pm

Awwww you didn't tab the backwards guitar solo in tomorrow never knows... lol

Great job 5*

0 reply
micbass wrote on October 8 2010, 03:04 pm

"Love You Too" is actually in C Melodic minor (C D Eb F G A B C). You can also use the Harmonic minor during the free solo (C D Eb F G Ab B C).

As for the chord, a Cm/maj7 is a good approximation of the arrangement.

+1 reply
revolution1251 wrote on October 14 2011, 08:06 pm

TAXMAN IS WRONG!

I want to post or [tab]
guest
You may want to rate the tab now too:
select rating
Please do not post tabs as comments. Select "correction" instead!