Oops, an error
Loading. Please wait.

Rubber Soul Bass Tab

18,710 views 12 this week
1 commentread comment
1 2 3 4 5
excellent!
x 3
add to favorites launch autoscroll
font size
0
reset
Autoscroll
+/-
esc
set tempo
stop
WARNING: You are trying to view
                                    content from Ultimate-Guitar.com
                                    in an unauthorized application,
                                    which is prohibited.

                                    Please use an official Ultimate
                                    Guitar Tabs application for iPhone,
                                    iPad or Android to access legitimate
                                    chords, guitar, bass, and drum tabs
                                    from Ultimate-Guitar.com database.

                                    Type "ultimate guitar tabs" in Apple
                                    App Store's or Android Market's
                                    search to find the application.
RUBBER SOUL 
(Released on 3rd December 1965)


DRIVE MY CAR

By Paul McCartney

INTRO

  4/4                               9/8
G|-------------------------5---7---|-------------------------------------|
D|---------------------7-----------|-------------------------------------|
A|---------------------------------|-5-----------------------------------|
E|---------------------------------|-------------------------------------|

VERSE

   4/4
G||---------------------------------|---------------------------------|
D||---------------------7-----------|---------------------------------|
A||-5---------------9-------9\7-5---|---------------------5-----------|
E||---------------------------------|-3-------------3-7-------7\5-3---|

G|---------------------------------|---------------------------------|
D|---------------------7-----------|---------------------------------|
A|-5---------------9-------9\7-5---|---------------------5-----------|
E|---------------------------------|-3-------------3-7-------7\5-3---|

G|---------------------------------|---------------------------------|
D|---------------------7-----------|---------------------------------|
A|-5---------------9-------9\7-5---|---------------------5-----------|
E|---------------------------------|-3-------------3-7-------7\5-3---|

G|---------------------------------|---------------------------------|
D|---------------------------------|---------------------------------|
A|---------------------------------|---------------------7---9-7-----|
E|-5-------5---5---5-------5---5---|-5-------5-------9-----------9---|

CHORUS

G|---------------------------------|---------------------------------|
D|---------------------------------|---------------------------------|
A|---------------------------------|---------------------------------|
E|-7-------7-------7-------7---5---|-3-------3-------3-------3---5---|

G|---------------------------------|---------------------------------|
D|---------------------------------|---------------------------------|
A|---------------------------------|---------------------------------|
E|-7-------7-------7-------7---5---|-3-------3-------3-------3---5---|

G|---------------------------------|---------------------------------|
D|---------------------------------|---------------------------------|
A|---------------------------------|-----------------0---------------|
E|-7-------7-------7-------7-------|-0---2---3---0-------3---2---0---|
  _________________________________
 | 1.
G|---------------------------------|---------------------------------||
D|---------------------------------|---------------------------------||
A|-5-------5-----------5-----------|---------------------7-----------||
E|---------------5/7-------7---3---|-5-------5-----5-9-------9---5---||
  _________________________________
 | 2.
G|---------------------------------|---------------------------------|
D|---------------------------------|---------------------------------|
A|-5-------5-------5---5---5-------|---------------------------------|
E|---------------------------------|-5-------------------------------|

GUITAR SOLO

G|---------------------------------|---------------------------------|
D|---------------------7-----------|---------------------------------|
A|-5-------------5-9-------9\7-5---|---------------------5---7-5-----|
E|---------------------------------|-3-------------3-7-----------7---|

G|---------------------------------|---------------------------------|
D|---------------------7-----------|---------------------------------|
A|-5-------------5-9-------9\7-5---|---------------------5---7-5-----|
E|---------------------------------|-3-------------3-7-----------7---|

G|---------------------------------|---------------------------------|
D|---------------------7-----------|---------------------------------|
A|-5-------------5-9-------9\7-5---|---------------------5---7-5-----|
E|---------------------------------|-3-------------3-7-----------7---|

G|---------------------------------|---------------------------------|
D|---------------------------------|---------------------------------|
A|---------------------------------|---------------------7---9-7-----|
E|-5-------5---5---5-------5---5---|-5-------5---5---9-----------9---|

CHORUS

G|---------------------------------|---------------------------------|
D|---------------------------------|---------------------------------|
A|---------------------------------|---------------------------------|
E|-7-------7-------7-------7---5---|-3-------3-------3-------3---5---|

G|---------------------------------|---------------------------------|
D|---------------------------------|---------------------------------|
A|---------------------------------|---------------------------------|
E|-7-------7-------7-------7---5---|-3-------3-------3-------3---5---|

G|---------------------------------|---------------------------------|
D|---------------------------------|---------------------------------|
A|---------------------------------|-----------------0---------------|
E|-7-------7-------7-------7-------|-0---2---3---0-------3---2---0---|

G|---------------------------------|---------------------------------|
D|---------------------------------|---------------------------------|
A|-5-------5-----------5-----------|---------------------7-----------|
E|---------------5/7-------7---3---|-5-------5-----5-9-------9---5---|

VERSE

G|---------------------------------|---------------------------------|
D|---------------------7-----------|---------------------------------|
A|-5---------------9-------9\7-5---|---------------------5-----------|
E|---------------------------------|-3-------------3-7-------7\5-3---|

G|---------------------------------|---------------------------------|
D|---------------------7-----------|---------------------------------|
A|-5---------------9-------9\7-5---|---------------------5-----------|
E|---------------------------------|-3-------------3-7-------7\5-3---|

G|---------------------------------|---------------------------------|
D|---------------------7-----------|---------------------------------|
A|-5---------------9-------9\7-5---|---------------------5-----------|
E|---------------------------------|-3-------------3-7-------7\5-3---|

G|---------------------------------|---------------------------------|
D|---------------------------------|---------------------------------|
A|---------------------------------|---------------------7---9-7-----|
E|-5-------5---5---5-------5---5---|-5-------5-------9-----------9---|

CHORUS

G|---------------------------------|---------------------------------|
D|---------------------------------|---------------------------------|
A|---------------------------------|---------------------------------|
E|-7-------7-------7-------7---5---|-3-------3-------3-------3---5---|

G|---------------------------------|---------------------------------|
D|---------------------------------|---------------------------------|
A|---------------------------------|---------------------------------|
E|-7-------7-------7-------7---5---|-3-------3-------3-------3---5---|

G|---------------------------------|---------------------------------|
D|---------------------------------|---------------------------------|
A|---------------------------------|-----------------0---------------|
E|-7-------7-------7-------7-------|-0---2---3---0-------3---2---0---|

G|---------------------------------|---------------------------------|
D|---------------------------------|---------------------------------|
A|-5-------5-----------------------|---------------------------------|
E|-----------------3---3-------3---|-5-------------------------------|

G||---------------------------------|---------------------------------|
D||---------------------------------|---------------------------------|
A||-5-------5---------------2-------|---------------------------------|
E||-----------------3---3-------3---|-5-------5-------5---5-------5---|

G|---------------------------------|---------------------------------||
D|---------4---7-------------------|---------------------------------||
A|-5-----------------------2---5---|---------4---4---7---7---7-------||
E|-----------------3---3-----------|-5---5---------------------------||
                                                             FADE OUT


NORWEGIAN WOOD (THIS BIRD HAS FLOWN)

By John Lennon

INTRO

  12/8
G|-------------------------------------------------|
D|-------------------------------------------------|
A|-------------------------------------------------|
E|-------------------------------------------------|

G|-------------------------------------------------|
D|-------------------------------------------------|
A|-------------------------------------------------|
E|-----------------------------------------------7-|

G|-------------------------------------------------|
D|-------------------------------------------------|
A|-7---------7-------------7---------7-------------|
E|-------------7---------7-------------7---------7-|

G|-------------------------------------------------|
D|-------------------------------------------------|
A|-7---------7---------7---7---------7-7-----------|
E|-------------7-----------------------------------|

VERSE

G|-------------------------------------------------|
D|-------------------------------------------------|
A|-7---------7-------------7---------7-------------|
E|-------------7---------7-------------7---------7-|

G|-----------------7---9---------------------------|
D|-------------9-----------------------------------|
A|-7-----------------------7---------7-7-----------|
E|-------------------------------------------------|

G|-------------------------------------------------|
D|-------------------------------------------------|
A|-7---------7-------------7---------7-------------|
E|-------------7---------7-------------7---------7-|

G|-------------------------------------------------|
D|-----------------7---9---------------------------|
A|-7-----------7-----------------------------------|
E|-------------------------7-----------7-----------|

BRIDGE

G||-------------------------------------------------|
D||-------------------------------------------------|
A||-7-----------7-----------7-----------7-----------|
E||-------------------------------------------------|

G|-------------------------------------------------|
D|-7-------------------5---7-------------------7---|
A|-------------7-----------------------7-----------|
E|-------------------------------------------------|

G|-------------------------------------------------|
D|-------------------------------------------------|
A|-7-----------------------7-----------7-----------|
E|-------------7-----------------------------------|

G|-------------------------------------------------|
D|-------------------------------------------------|
A|-9-----------9-------------------------------6---|
E|-------------------------7---------7-7-----------|

VERSE

G|-------------------------------------------------|
D|-------------------------------------------------|
A|-7---------7-------------7---------7-------------|
E|-------------7---------7-------------7---------7-|

G|-----------------7---9---------------------------|
D|-------------9-----------------------------------|
A|-7-----------------------7---------7-------------|
E|-------------------------------------7-----------|

G|-------------------------------------------------|
D|-------------------------------------------------|
A|-7---------7-------------7---------7-------------|
E|-------------7---------7-------------7---------7-|
  _________________________________________________
 | 1.
G|-----------------7---9---------------------------|
D|-------------9---------------------------9\7-5---|
A|-7-----------------------7-----------7-----------|
E|-------------------------------------------------|

INTERLUDE

G|-------------------------------------------------|
D|-------------------------------------------------|
A|-7---------7-------------7---------7-----------6-|
E|-------------7---------7-------------7-----------|

G|-------------------------------------------------|
D|-------------7---8---9---------------------------|
A|-7-----------------------7---------------5-------|
E|-------------------------------------7-------7---|

G|-------------------------------------------------|
D|-------------------------------------------------|
A|-7-------------------6---7---------7---------6---|
E|-------------7-----------------------7-----------|

G|-----------------7---9---------------------------||
D|-------------9-----------------------------------||
A|-7-----------------------7---------7-------------||
E|-------------------------------------7---------7-||
  _________________________________________________
 | 2.
G|-----------------7---9---------------------------|
D|-------------9-----------------------------------|
A|-7-----------------------7---------7-----6-------|
E|-------------------------------------7-------7---|

G|-------------------------------------------------|
D|-------------------------------------------------|
A|-7---------7-------------7---------7-------------|
E|-------------7---------7-------------7-----------|

G|-------------------------------------------------|
D|-------------7---8---9---------------------------|
A|-7-----------------------7-----------------------|
E|-------------------------------------------------|


YOU WON’T SEE ME

By Paul McCartney

INTRO

G|---------------------------------|---------------------------------|
D|-----4---7-----------------------|---------6-------4---------------|
A|-5-------------------------------|-------------------------7-------|
E|-------------5-------------------|---------------------------------|

VERSE

G||---------------------------------|---------------------------------|
D||-------------7-------7-----------|-------------9-------7---6-------|
A||-----4---7---------------4---7---|-----6---9-------------------9---|
E||-5-------------------------------|-7-------------------------------|

G|-------------7-------------------|---------------------------------|
D|-----4---7-----------7---4---7---|-------------7---------------7---|
A|-5-------------------------------|-----4---7-----------7---4-------|
E|---------------------------------|-5-------------------------------|

G|---------------------------------|-------------7-------6---4-------|
D|-------------9-------7---6-------|-----4---7-------------------7---|
A|-----6---9-------------------9---|-5-------------------------------|
E|-7-------------------------------|---------------------------------|

G|---------------------------------|---------------------------------|
D|-------------7-------------------|-------------7-------7-----------|
A|-----4---7-----------------------|-----4---7---------------4---7---|
E|-5-------------------------------|-5-------------------------------|

G|-------------7-------6---4-------|-------------7-------6---4-------|
D|-----4---7-------------------7---|---------7-------------------7---|
A|-5-------------------------------|-5---5---------------------------|
E|---------------------------------|---------------------------------|

G|---------------------------------|---------------------------------|
D|-------------7-------4-----------|-------------7---------------7---|
A|-----4---7---------------7---4---|-----4---7-----------4---7-------|
E|-5-------------------------------|-5-------------------------------|

G|---------------------------------|---------------------------------|
D|-------------9-------------------|-----4---7-----------------------|
A|-----8---9-----------------------|-5-------------------------------|
E|-7-------------------------------|-------------5-------------------|

G|---------------------------------|---------------------------------|
D|-7-------6-------4---------------|-----4---7-----------------------|
A|-------------------------7-------|-5-------------------------------|
E|---------------------------------|-------------5-------------------|

                                    BRIDGE
G|---------------------------------||---------------------------------|
D|-7-------6-------4---------------||---------------------------------|
A|-------------------------7-------||-2-------2-------2---2---2-------|
E|---------------------------------||---------------------------------|

G|---------------------------------|---------------------------------|
D|---------------------------------|---------------------------------|
A|-5-------5-------5---5---5-------|-5-------5-------5---5---5-------|
E|---------------------------------|---------------------------------|

G|---------------------------------|---------------------------------|
D|-7-------7-------7---7---7-------|---------------------------------|
A|---------------------------------|---------------------------------|
E|---------------------------------|-7-------7-------7---7---7-------|

G|---------------------------------|---------------------------------|
D|---------------------------------|---------------------------------|
A|---------------------------------|-7-------7-------7---7---7-------|
E|-7-------7-------7---7---7---7---|---------------------------------|

                                   VERSE
G|---------------------------------|---------------------------------|
D|---------------------------------|-----------------7---------------|
A|-7-------7-------7---7---7-------|---------4---7-----------4---7---|
E|---------------------------------|-5-------------------------------|

G|---------------------------------|-------------7-------------------|
D|-------------9-------7---6-------|-----4---7-----------7---4---7---|
A|-----6---9-------------------9---|-5-------------------------------|
E|-7-------------------------------|---------------------------------|

G|---------------------------------|---------------------------------|
D|-------------7-------------------|-------------7-------4-----------|
A|-----4---7-----------7---4---7---|-----4---7---------------7---4---|
E|-5-------------------------------|-5-------------------------------|

G|---------------------------------|-------------7-------------------|
D|-------------9-------7---6-------|-----4---7-----------7---4---7---|
A|-----6---9-------------------9---|-5-------------------------------|
E|-7-------------------------------|---------------------------------|

G|---------------------------------|---------------------------------|
D|-------------7-------------------|-------------7-------7---4-------|
A|-----4---7-----------7---4-------|-----4---7-------------------7---|
E|-5---------------------------5---|-5-------------------------------|

G|-------------7-------------------|-------------7-------6---4-------|
D|-----4---7-----------7---4---7---|-----3---7-------------------7---|
A|-5-------------------------------|-5-------------------------------|
E|---------------------------------|---------------------------------|

G|---------------------------------|---------------------------------|
D|-------------7-------7-------4---|-------------7-------4-----------|
A|-----4---7---------------7-------|-----4---7---------------7---4---|
E|-5-------------------------------|-5-------------------------------|

G|---------------------------------|---------------------------------|
D|-------------9-------7---6-------|-----4---7-----------------------|
A|-----6---9-------------------9---|-5-------------------------------|
E|-7-------------------------------|-------------5-------------------|

G|---------------------------------|---------------------------------|
D|-7-------6-------4---------------|-----4---7-----------------------|
A|-------------------------7-------|-5-------------------------------|
E|---------------------------------|-------------5-------------------|

                                   BRIDGE
G|---------------------------------|---------------------------------|
D|-7-------6-------4---------------|---------------------------------|
A|-------------------------7-------|-2-------2-------2---2---2-------|
E|---------------------------------|---------------------------------|

G|---------------------------------|---------------------------------|
D|---------------------------------|---------------------------------|
A|-5-------5-------5---5---5-------|-5-------5-------5---5---5-------|
E|---------------------------------|---------------------------------|

G|---------------------------------|---------------------------------|
D|-7-------7-------7---7---7-------|---------------------------------|
A|---------------------------------|---------------------------------|
E|---------------------------------|-7-------7-------7---7---7-------|

G|---------------------------------|---------------------------------|
D|---------------------------------|---------------------------------|
A|---------------------------------|-7-------7-------7---7---7-------|
E|-7-------7-------7---7---7---7---|---------------------------------|

                                   VERSE
G|---------------------------------|---------------------------------|
D|---------------------------------|-----------------7---------------|
A|-7-------7-------7---7---7-------|---------4---7-----------4---7---|
E|---------------------------------|-5-------------------------------|

G|---------------------------------|-------------7-------------------|
D|-------------9-------7---6-------|-----4---7-----------7---4---7---|
A|-----6---9-------------------9---|-5-------------------------------|
E|-7-------------------------------|---------------------------------|

G|---------------------------------|---------------------------------|
D|-------------7-------------------|-------------7-------4-----------|
A|-----4---7-----------7---4---7---|-----4---7---------------7---4---|
E|-5-------------------------------|-5-------------------------------|

G|---------------------------------|-------------7-------------------|
D|-------------9-------7---6-------|-----4---7-----------7---4---7---|
A|-----6---9-------------------9---|-5-------------------------------|
E|-7-------------------------------|---------------------------------|

G|---------------------------------|---------------------------------|
D|-------------7-------------------|-------------7-------7---4-------|
A|-----4---7-----------7---4-------|-----4---7-------------------7---|
E|-5---------------------------5---|-5-------------------------------|

G|-------------7-------------------|-------------7-------6---4-------|
D|-----4---7-----------7---4---7---|-----3---7-------------------7---|
A|-5-------------------------------|-5-------------------------------|
E|---------------------------------|---------------------------------|

G|---------------------------------|---------------------------------|
D|-------------7-------7-------4---|-------------7-------4-----------|
A|-----4---7---------------7-------|-----4---7---------------7---4---|
E|-5-------------------------------|-5-------------------------------|

G|---------------------------------|---------------------------------|
D|-------------9-------7---6-------|-----4---7-----------------------|
A|-----6---9-------------------9---|-5-------------------------------|
E|-7-------------------------------|-------------5-------------------|

G|---------------------------------|---------------------------------|
D|-7-------6-------4---------------|-----4---7-----------------------|
A|-------------------------7-------|-5-------------------------------|
E|---------------------------------|-------------5-------------------|

G|---------------------------------||---------------------------------|
D|-7-------6-------4---------------||-------------7-------7-----------|
A|-------------------------7-------||-----4---7---------------4---7---|
E|---------------------------------||-5-------------------------------|

G|---------------------------------|-------------7-------------------|
D|-------------9-------------------|-----4---7-----------7---4---7---|
A|-----6---9-----------------------|-5-------------------------------|
E|-7-------------------------------|---------------------------------|

G|---------------------------------||
D|-------------7-------------------||
A|-----4---7-----------7---4---7---||
E|-5-------------------------------||REPEAT AND FADE OUT

NOWHERE MAN

By John Lennon

G|---------------------------------|---------------------------------|
D|-7---7---6---6---------------7---|-----7---6---6-------------------|
A|-----------------9---7-----------|-----------------9---7-------7---|
E|-------------------------9-------|-------------------------9-------|

G|---------------------------------|---------------------------------|
D|---------6---6---7---8---9-------|---------6---6---7---8---9-------|
A|-----7-----------------------7---|-----7---------------------------|
E|---------------------------------|---------------------------------|

G||---------------------------------|---------------------------------|
D||---------6---6---7---8---9-------|---------------------------------|
A||-7---7-----------------------7---|---------6---6---7---8---9-------|
E||---------------------------------|-----7-----------------------7---|

G|---------------------------------|---------------------------------|
D|-------------------------6---7---|-----7---6---6-------------------|
A|---------6---6---9---9-----------|-----------------9---7-------7---|
E|-----7---------------------------|-------------------------9-------|

G|---------------------------------|---------------------------------|
D|---------6---6---------------7---|-----7---6---6-------------------|
A|-----7-----------9---7-----------|-----------------9---7-------7---|
E|-------------------------9-------|-------------------------9-------|

G|---------------------------------|---------------------------------|
D|---------6---6---7---8---9-------|---------------------------------|
A|-----7-----------------------7---|---------7-------7---7---7-------|
E|---------------------------------|---------------------------------|

BRIDGE

G|---------------------------------|---------------------------------|
D|-6---6-----------6---6-----------|-7---7-----------7---7-----------|
A|---------6---6---------------6---|---------7---7---------------7---|
E|---------------------------------|---------------------------------|

G|---------------------------------|---------------------------------|
D|-6---6-----------6---6-----------|-7---7-----------7---7-----------|
A|---------6---6---------------6---|---------7---7---------------7---|
E|---------------------------------|---------------------------------|

G|---------------------------------|---------------------------------|
D|-6---6-----------6---6-----------|---------4-----------------------|
A|---------6---6---------------6---|-----4-------7-----------4---7---|
E|---------------------------------|-5-------------------------------|
                                    _________________________________
                                   | 1.
G|---------------------------------|---------------------------------|
D|---------4-----------------------|---------6-----------------------|
A|-----4-------7-----------4---7---|-----6-------9-------------------|
E|-5-------------------------------|-7-------------------7---7-------|

SOLO

G|---------------------------------|---------------------------------|
D|---------6---6---7---8---9-------|-------------------------6---7---|
A|-7---7---------------------------|---------6---6---9---6-----------|
E|-----------------------------7---|-----7---------------------------|

G|---------------------------------|---------------------------------|
D|-----7---6---6-------------------|---------6---6---9---6-------7---|
A|-----------------9---7-------7---|-----7-------------------7-------|
E|-------------------------9-------|---------------------------------|

G|---------------------------------|---------------------------------|
D|-----7---6---6---------------7---|-----7---6---6-------------------|
A|-----------------9---7-----------|-----------------9---7-------7---|
E|-------------------------9-------|-------------------------9-------|

G|---------------------------------|---------------------------------||
D|---------6---6---9---6---9-------|---------------------------------||
A|-----7-----------------------7---|-----7---7-------7---7-------7---||
E|---------------------------------|---------------------------------||
  _________________________________  _________________________________
 | 2.                              || 3.
G|---------------------------------||---------------------------------|
D|---------6-----------------------||---------6-----------------------|
A|-----6-------9-------------------||-----6-------9-------------------|
E|-7-------------------7---7-------||-7-------------------7---7-------|

G|---------------------------------|---------------------------------|
D|---------6---6---7---8---9-------|-------------------------6---7---|
A|-7---7---------------------------|---------6---6---9---9-----------|
E|-----------------------------7---|-----7---------------------------|

G|---------------------------------|---------------------------------|
D|-----7---6---6-------------------|---------6---6---7---8---9---7---|
A|-----------------9---7-------7---|-----7---------------------------|
E|-------------------------9-------|---------------------------------|

G|---------------------------------|---------------------------------|
D|-----7---6---6---------------7---|-----7---6---6-------------------|
A|-----------------9---7-----------|-----------------9---7-------7---|
E|-------------------------9-------|-------------------------9-------|

G|---------------------------------|---------------------------------|
D|-------------6---9-------6---9---|---------------------------------|
A|-7-------7-----------------------|-7-------7-------7---7-------7---|
E|---------------------------------|---------------------------------|

G|---------------------------------|---------------------------------|
D|-7-------6-----------------------|-7-------6-----------------------|
A|-----------------9---7-----------|-----------------9---7-----------|
E|-------------------------9-------|-------------------------9-------|

G|---------------------------------|---------------------------------|
D|---------------------------------|---------------------------------|
A|-7-------7-------7---7-----------|-7---7---7---7---7---7---7---7---|
E|---------------------------------|---------------------------------|

G|---------------------------------|---------------------------------|
D|-7-------6-----------------------|-7-------6-----------------------|
A|-----------------9---7-----------|-----------------9---7-----------|
E|-------------------------9-------|-------------------------9-------|

G|---------------------------------|---------------------------------|
D|-----------------6---9---6-------|---------------------------------|
A|-7-------7---7-------------------|-7-------------------------------|
E|---------------------------------|---------------------------------|

THINK FOR YOURSELF

By George Harrison

Bass Guitar

INTRO
                                                     .    .    .
G|---------------------------------|---------------------------------|
D|-5-------5-------5-------5-------|-5-------5-------5----5----6-----|
A|---------------------------------|---------------------------------|
E|---------------------------------|---------------------------------|

VERSE

G||---------------------------------|---------------------------------|
D||-7-----------7---7---7-----------|---------------------------------|
A||-----------------------------7---|-5-----------5---7----5----3-----|
E||---------------------------------|---------------------------------|

G|---------------------------------|---------------------------------|
D|---------------------------------|-----------------------------2---|
A|-1-----------1---1---1-------1---|-3-----------3---3---3-----------|
E|---------------------------------|---------------------------------|

G|---------------------------------|---------------------------------|
D|-5-----------5---5---5-----------|-5---5-------5---5----5----6-----|
A|-----------------------------5---|---------------------------------|
E|---------------------------------|---------------------------------|

G|---------------------------------|---------------------------------|
D|-7-----------7---7---7-----------|---------------------------------|
A|-----------------------------7---|-5---5-------5---7----5----3-----|
E|---------------------------------|---------------------------------|

G|---------------------------------|---------------------------------|
D|---------------------------------|-----------------------------2---|
A|-1-----------1---1---1-------1---|-3-----------3---3---3-----------|
E|---------------------------------|---------------------------------|

G|---------------------------------|---------------------------------|
D|-5---5-------5---5---5-----------|-7---7-------7---7---7-----------|
A|---------------------------------|---------------------------------|
E|---------------------------------|---------------------------------|

CHORUS

G|---------------------------------|---------------------------------|
D|---------2---2---5---5---2-------|---------2---2---5---5---2-------|
A|-3---3---------------------------|-3---3---------------------------|
E|---------------------------------|---------------------------------|

G|---------------------------------|---------------------------------|
D|-5---5-----------5---5-----------|------3--------------------------|
A|---------5---5-----------5---5---|-5---------5-----3----1----------|
E|---------------------------------|---------------------------3-----|

G|---------------------------------|---------------------------------|
D|---------------------------------|-----------------------------3---|
A|-1---1---1---1---1---1---1---3---|-5---5---5---5---5---5---5-------|
E|---------------------------------|---------------------------------|
  _________________________________
 | 1.2.3.                                            .    .    .
G|---------------------------------|---------------------------------||
D|-5---5---5---5---5---5---5-------|-5-------5-------5----5----6-----||
A|-----------------------------5---|---------------------------------||
E|---------------------------------|---------------------------------||
  _________________________________
 | 4.
G|---------------------------------|---------------------------------|
D|-5---5---5---5---5---5---5-------|-5-------5-------5----5----5-----|
A|-----------------------------5---|---------------------------------|
E|---------------------------------|---------------------------------|

OUTRO

G|---------------------------------|---------------------------------|
D|---------------------------------|---------2---2---5---5---2---2---|
A|-1-------3---3---1---3-------1---|-3---3---------------------------|
E|---------------------------------|---------------------------------|

G|---------------------------------|---------------------------------|
D|-5-------5---5-------------------|---------5-----------------------|
A|-----------------5---5-------5---|-5-----------5---3---1-----------|
E|---------------------------------|-------------------------3-------|

G|---------------------------------|---------------------------------|
D|---------------------------------|-----------------------------3---|
A|-1---1---1---1---1---1---1---3---|-5---5---5---5---5---5---5-------|
E|---------------------------------|---------------------------------|

G|---------------------------------|---------------------------------|
D|-5---5-----------------------5---|-5-------5-------5---5---5---5---|
A|---------3---3---3---3---3-------|---------------------------------|
E|---------------------------------|---------------------------------|

G|---------------------------------|---------------------------------|
D|---------------------------------|---------------------------------|
A|-1---1---1---1---1---1---1---3---|-5---5---5---5---5---5---5---5---|
E|---------------------------------|---------------------------------|

G|---------------------------------|---------------------------------|
D|---------------------------------|-5---5---5---5-------------------|
A|-3---3---3---3---3---3---3---3---|---------------------------------|
E|---------------------------------|---------------------------------|

THINK FOR YOURSELF

By George Harrison

Fuzz Bass

INTRO
                                                     .    .    .
G|---------------------------------|---------------------------------|
D|-5---(3/)5-------5-----3h5-5-----|-5-------5-------5----5----6-----|
A|---------------------------------|---------------------------------|
E|---------------------------------|---------------------------------|

VERSE

G||---------------------------------|-7-----------(7/)9----7----5-----|
D||-7-------------------------------|---------------------------------|
A||---------------------------------|---------------------------------|
E||---------------------------------|---------------------------------|

G|---------------------------------|-5---------------------------5---|
D|-8---------------------------8---|---------------------------------|
A|---------------------------------|---------------------------------|
E|---------------------------------|---------------------------------|

                                                          .    .
G|---------------------------------|---------------------------------|
D|-5-------------------5-----------|-5--------------------5----6-----|
A|-------------------------5-------|---------------------------------|
E|---------------------------------|---------------------------------|

G|---------------------------------|-7-----------(7/)9----7----5-----|
D|-7---------------------------7---|---------------------------------|
A|---------------------------------|---------------------------------|
E|---------------------------------|---------------------------------|

G|---------------------------------|-5---------------------------5---|
D|-8---------------------------8---|---------------------------------|
A|---------------------------------|---------------------------------|
E|---------------------------------|---------------------------------|

G|---------------------------------|---------------------------------|
D|-5---------------------------5---|-7-----------------------X-X-5\--|
A|---------------------------------|---------------------------------|
E|---------------------------------|---------------------------------|

CHORUS

G|---------------------------------|---------3-------2---------------|
D|---------2-------5---5---2-------|---------------------5---2-------|
A|-3---3---------------------------|-3---3---------------------------|
E|---------------------------------|---------------------------------|

                                     .    .    .     .    .    .
G|---------4-------7---7---4-------|---------------------------------|
D|-5---5---------------------------|------3--------------------------|
A|---------------------------------|-5---------5-----3----1----------|
E|---------------------------------|---------------------------3-----|

G|---------------------------------|---------------------------------|
D|---------------------------------|---------------------------------|
A|-1-----------------------1---3---|-5-------------------5-------5---|
E|---------------------------------|---------------------------------|
  _________________________________
 | 1.2.3.                                                 .    .
G|---------3-----------------------|---------------------------------||
D|-5-------------------------------|-----3-------5--------5----6-----||
A|-----------------------------5---|---------------------------------||
E|---------------------------------|---------------------------------||
  _________________________________
 | 4.
G|---------------------------------|---------------------------------|
D|-5-------5-----------------------|-5-------5-------5p3-------------|
A|-----------------------------5---|---------------------5---3---1---|
E|---------------------------------|---------------------------------|

OUTRO

G|---------------------------------|-----3-----------2---------------|
D|---------------------------------|---------------------5---2-------|
A|-1---3-----------1---3---3---1---|-3-------------------------------|
E|---------------------------------|---------------------------------|

                                     .    .    .     .    .    .
G|---------4-------7---7---4-------|---------------------------------|
D|-5---5---------------------------|------3--------------------------|
A|---------------------------------|-5---------5-----3----1----------|
E|---------------------------------|---------------------------3-----|

G|---------------------------------|---------------------------------|
D|---------------------------------|---------------------------------|
A|-1-------1-------1-------1---3---|-5-------5-------5---5-------5---|
E|---------------------------------|---------------------------------|

G|---------------------------------|---------------------------------|
D|---------------------------------|-5-------5-------5---5-----------|
A|-3-------3-------3---3-----------|-----------------------------3---|
E|-----------------------------3---|---------------------------------|

G|---------------------------------|---------------------------------|
D|---------------------------------|---------------------------------|
A|-1-------1-------1---1-------3---|-5-------5-------5---5-------5---|
E|---------------------------------|---------------------------------|

G|---------3-------5p3-----3-------|---------------------------------|
D|*5-------------------5-----------|-5-------3---5-------------------|
A|---------------------------------|-----5---------------------------|
E|---------------------------------|---------------------------------|

*
D|-(3/)5---|

THE WORD

By John Lennon

G|---------------------------------|---------------------------------|
D|---------------------------------|---------------------------------|
A|-5---5-------5-3-------------3-4-|-5---5-------5-3-------------3-4-|
E|-----------------5---5-----------|-----------------5---5-----------|

VERSE

G||---------------------------------|---------------------------------|
D||---------------------------------|---------------------------------|
A||-5---5-------5-3-------------3-4-|-5---5-------5-3-------------3-4-|
E||-----------------5---5-----------|-----------------5---5-----------|

G|---------------------------------|---------------------------------|
D|---------------------------------|-------------------------------3-|
A|-5---5-------5-3-------------3-4-|-5---5-------5-3-------------5---|
E|-----------------5---5-----------|-----------------5---5-----------|

G|---------------------------------|---------------------------------|
D|-5---5-------5-3---------------3-|-5---5-------5-3-----------------|
A|-----------------5---5-------5---|-----------------5---5---3-------|
E|---------------------------------|-----------------------------5---|

G|---------------------------------|---------------------------------|
D|---------------------------------|---------------------------------|
A|-5---5-------5-3---------------3-|-5---5-------5-3---------3-------|
E|-----------------5---5-------5---|-----------------5---5-------5---|

G|---------------------------------|---------------------------------|
D|-------------7-------------------|-------------5-------------------|
A|-----4---7-----------------------|-----2---5-----------------------|
E|-5-------------------------------|-3-------------------------------|
                                    _________________________________
                                   | 1.2.3.
G|---------------------------------|---------------------------------|
D|---------------------------------|---------------------------------|
A|-5-----------5-3---------------3-|-5---5-------5-3-----------------|
E|-----------------5---5-------5---|-----------------5---5-----------|

BRIDGE

G|---------------------------------|---------------------------------|
D|---------------------------------|---------------------------------|
A|-5-------5-------5-------5-------|-3-------3-------3-------3-------|
E|---------------------------------|---------------------------------|

G|---------------------------------|-----------------------------5---||
D|-3-------3-------3-------3-------|-5-------5-------5-------5/7-----||
A|---------------------------------|---------------------------------||
E|---------------------------------|---------------------------------||
  _________________________________
 | 4.
G|---------------------------------|---------------------------------|
D|---------------------------------|---------------------------------|
A|-5---5-------5-3-----------------|-5-------5-------5-------5-------|
E|-----------------5---5-------5---|---------------------------------|

G|---------------------------------|---------------------------------|
D|---------------------------------|-3-------3-------3-------3-------|
A|-3-------3-------3-------3-------|---------------------------------|
E|---------------------------------|---------------------------------|

G|---------------------5-------5---|---------------------------------|
D|-5-------5-------5/7-----5/7-----|---------------------------------|
A|---------------------------------|-5-------5-----3---------3---5---|
E|---------------------------------|-----------------5---5-----------|

G|---------------------------------|---------------------------------|
D|---------------------------------|---------------------------------|
A|-5-------5-----3---------3---5---|-5-------5-----3---------3---5---|
E|-----------------5---5-----------|-----------------5---5-----------|

G|---------------------------------|---------------------------------|
D|-----------------------------4---|-5-------5-----3---------3---5---|
A|-5-------5-----3-----3---5-------|-----------------5---5-----------|
E|-----------------5---------------|---------------------------------|
                                     .   .   .   .   .   .   .   .
G|---------------------5-----------|---------------------------------|
D|-5-------5---3---5/7---7\5-3-----|---------------------------------|
A|-----------------------------5---|-5---5---5---3-----------3---5---|
E|---------------------------------|-----------------5---5-----------|

G|---------------------------------|---------------------------------|
D|---------------------------------|-------------7-------------------|
A|-5---5-------5-3---------3-------|-----4---7-----------------------|
E|-----------------5---5-------5---|-5-------------------------------|

G|---------------------------------|---------------------------------|
D|-------------5-------------------|---------------------------------|
A|-----2---5-----------------------|-5-------5-----3---------3---4---|
E|-3-------------------------------|-----------------5---5-----------|

G|---------------------------------|---------------------------------|
D|---------------------------------|---------------------------------|
A|-5-------5-----3-----------------|-5-------5-------5-------5-------|
E|-----------------5-------5-------|---------------------------------|

G|---------------------------------|---------------------------------|
D|---------------------------------|-3-------3-------3-------3-------|
A|-3-------3-------3-------3-------|---------------------------------|
E|---------------------------------|---------------------------------|

G|---------------------------------|
D|-5-------5-------5-------5-------|
A|---------------------------------|
E|---------------------------------|FADE OUT

MICHELLE

By Paul McCartney

INTRO

G|-------------------------9-------|-10------------------------------|
D|-10------------------------------|-------------------------10------|
A|---------------------------------|---------------------------------|
E|---------------------------------|---------------------------------|

G|---------------------------------|---------------------------------|
D|---------------------------------|-10------------------------------|
A|-8-------------------------------|---------------------------------|
E|---------------------------------|---------------------------------|

CHORUS

G|---------------------------------|---------------------------------|
D|-----------------10------------7-|-8-------------------------------|
A|-8-------------------------------|-----------------8---------------|
E|---------------------------------|---------------------------------|

G|---------------------------------|---------------------------------|
D|-----------------8---------------|---------------------------------|
A|-6-------------------------------|-5-------------------------------|
E|---------------------------------|-----------------7---------------|

G|---------------------------------|---------------------------------|
D|---------------------------------|---------------------------------|
A|---------------------------------|-----------------5-------7-------|
E|-8---------------7---------------|-8-------------------------------|

G|---------------------------------|---------------------------------|
D|---------------------------------|---------------------------------|
A|-8-------------------------------|-----------------8---------------|
E|-----------------8-------------5-|-6-------------------------------|

G|---------------------------------|---------------------------------|
D|-----------------8---------------|---------------------------------|
A|-6-------------------------------|-5-------------------------------|
E|---------------------------------|-----------------7---------------|

G|---------------------------------|---------------------------------|
D|---------------------------------|---------------------------------|
A|---------------------------------|-----------------5-------7-------|
E|-8---------------7---------------|-8-------------------------------|

VERSE

G|---------------------------------|---------------------------------|
D|---------------------------------|---------------------------------|
A|-8---------------------6---------|-8---------------------6---------|
E|-----------------8---------------|-----------------8---------------|

G|---------------------------------|---------------------------------|
D|-6-------------------------------|---------------------------------|
A|---------9-------8-------6-------|---------6-------8---------------|
E|---------------------------------|-9-----------------------9-------|

G|---------------------------------|---------------------------------|
D|---------------------------------|-------------------------8-------|
A|-----------------7---------------|-8-------10------11--------------|
E|-8-------10--------------8-------|---------------------------------|

G|-------------------------9-------|-10------------------------------|
D|-10------------------------------|-------------------------10------|
A|---------------------------------|---------------------------------|
E|---------------------------------|---------------------------------|

G|---------------------------------|---------------------------------|
D|---------------------------------|-10------------------------------|
A|-8-------------------------------|---------------------------------|
E|---------------------------------|---------------------------------|

CHORUS

G|---------------------------------|---------------------------------|
D|---------------------------------|---------------------------------|
A|-8-------------------------------|-----------------8---------------|
E|-----------------8-------------5-|-6-------------------------------|

G|---------------------------------|---------------------------------|
D|-----------------8---------------|---------------------------------|
A|-6-------------------------------|-5-------------------------------|
E|---------------------------------|-----------------7---------------|

G|---------------------------------|---------------------------------|
D|---------------------------------|---------------------------------|
A|---------------------------------|-----------------5-------7-------|
E|-8---------------7---------------|-8-------------------------------|

VERSE

G|---------------------------------|---------------------------------|
D|---------------------------------|---------------------------------|
A|-8---------------------6---------|-8---------------------6---------|
E|-----------------8---------------|-----------------8---------------|

G|---------------------------------|---------------------------------|
D|-6-------------------------------|---------------------------------|
A|---------9-------8-------6-------|---------6-------8---------------|
E|---------------------------------|-9-----------------------9-------|

G|---------------------------------|---------------------------------|
D|---------------------------------|-------------------------8-------|
A|-----------------7---------------|-8-------10------11--------------|
E|-8-------10--------------8-------|---------------------------------|

G|-------------------------9-------|-10------------------------------|
D|-10------------------------------|-------------------------10------|
A|---------------------------------|---------------------------------|
E|---------------------------------|---------------------------------|

G|---------------------------------|---------------------------------|
D|---------------------------------|-10--------------10--------------|
A|-8-------------------------------|---------------------------------|
E|---------------------------------|---------------------------------|

GUITAR SOLO

G|---------------------------------|---------------------------------|
D|-----------------10------------7-|-8-------------------------------|
A|-8-------------------------------|-----------------8---------------|
E|---------------------------------|---------------------------------|

G|---------------------------------|---------------------------------|
D|-----------------8---------------|---------------------------------|
A|-6-------------------------------|-5-------------------------------|
E|---------------------------------|-----------------7---------------|

G|---------------------------------|---------------------------------|
D|---------------------------------|---------------------------------|
A|---------------------------------|---------------------------------|
E|-8---------------7---------------|-8---------------8-------8-------|

VERSE

G|---------------------------------|---------------------------------|
D|---------------------------------|---------------------------------|
A|-8---------------------6---------|-8---------------------6---------|
E|-----------------8---------------|-----------------8---------------|

G|---------------------------------|---------------------------------|
D|-6-------------------------------|---------------------------------|
A|---------9-------8-------6-------|---------6-------8---------------|
E|---------------------------------|-9-----------------------9-------|

G|---------------------------------|---------------------------------|
D|---------------------------------|-------------------------8-------|
A|-----------------7---------------|-8-------10------11--------------|
E|-8-------10--------------8-------|---------------------------------|

G|-------------------------9-------|-10------------------------------|
D|-10------------------------------|-------------------------10------|
A|---------------------------------|---------------------------------|
E|---------------------------------|---------------------------------|

G|---------------------------------|---------------------------------|
D|---------------------------------|-10--------------10--------------|
A|-8-------------------------------|---------------------------------|
E|---------------------------------|---------------------------------|

CHORUS

G|---------------------------------|---------------------------------|
D|-----------------10------------7-|-8-------------------------------|
A|-8-------------------------------|-----------------8-------------5-|
E|---------------------------------|---------------------------------|

G|---------------------------------|---------------------------------|
D|-----------------8---------------|---------------------------------|
A|-6-------------------------------|-5-------------------------------|
E|---------------------------------|-----------------7-----7---------|

G|---------------------------------|---------------------------------|
D|---------------------------------|---------------------------------|
A|---------------------------------|---------------------------------|
E|-8---------------7-----7---------|-8---------------8-----8---------|

G|-------------------------9-------|-10------------------------------|
D|-10------------------------------|-------------------------10------|
A|---------------------------------|---------------------------------|
E|---------------------------------|---------------------------------|

G|---------------------------------|---------------------------------|
D|---------------------------------|-10--------------10--------------|
A|-8-------------------------------|---------------------------------|
E|---------------------------------|---------------------------------|

OUTRO SOLO

G||---------------------------------|---------------------------------|
D||-------------------------------7-|-8-------------------------------|
A||-8-------------------------------|-----------------8---------------|
E||-----------------8---------------|---------------------------------|

G|---------------------------------|---------------------------------|
D|-----------------8---------------|---------------------------------|
A|-6-------------------------------|-5-------------------------------|
E|---------------------------------|-----------------7---------------|

G|---------------------------------|---------------------------------||
D|---------------------------------|---------------------------------||
A|---------------------------------|-----------------5-------7-------||
E|-8---------------7---------------|-8-------------------------------||
                                                  REPEAT AND FADE OUT

WHAT GOES ON

By John Lennon, Paul McCartney & Richard Starkey

INTRO

G|---------------------------------|---------------------------------|
D|-----------------------------9---|---------------------------------|
A|-7---7-------7-----------9-------|-7-----7-----5---7-----7-----7---|
E|---------7-------7-----7---------|---------7---------------5-------|

CHORUS

G||---------------------------------|---------------------------------|
D||---------------------------------|---------------------------------|
A||-7---7-------5---7---7-------5---|-7---7-------5---7---7-------5---|
E||---------7---------------7-------|---------7---------------7-------|

G|---------------------------------|---------------------------------|
D|---------------------------------|-7---7-------5---7---7-------5---|
A|-7---7-------5---7---7-------5---|---------7---------------7-------|
E|---------7---------------7-------|---------------------------------|

G|---------------------------------|---------------------------------|
D|---------------------------------|---------------------------------|
A|-7---7-------5---7---7-------5---|-7---7-------5---7---7-------5---|
E|---------7---------------7-------|---------7---------------7-------|

G|---------------------------------|---------------------------------|
D|---------------------------------|-7---7-------5---7---7-------5---|
A|-7---7-------5---7---7-------5---|---------7---------------7-------|
E|---------7---------------7-------|---------------------------------|

G|---------------------------------|---------------------------------|
D|-9---9-----------9---9-------9---|---------------------------------|
A|---------9---9-----------9-------|-7---7-------5---7---7-------5---|
E|---------------------------------|---------7---------------7-------|

VERSE

G|---------------------------------|---------------------------------|
D|---------------------------------|-7-----7-----5---7-----7-----7---|
A|-7-----7-----5---7-----7-----7---|---------7---------------7-------|
E|---------7---------------7-------|---------------------------------|

G|---------------------------------|---------------------------------|
D|---------------------------------|-7-----7-----5---7-----7-----5---|
A|-7-----7-----5---7-----7-----7---|---------7---------------7-------|
E|---------7---------------7-------|---------------------------------|

G|---------------------------------|---------------------------------|
D|-7-----7-----5---9-----9-----9---|---------------------------------|
A|---------7---------------9-------|-7-----7-----5---7-----7-----7---|
E|---------------------------------|---------7---------------7-------|

G|---------------------------------||---------------------------------|
D|-9-----9---------9-----9-----9---||-----6---7---9-------6---7---9---|
A|---------9---9-----------9-------||-7---------------7---------------|
E|---------------------------------||---------------------------------|

GUITAR SOLO

G|---------------------------------|---------------------------------|
D|-----6---7---9-------6---7---9---|-----6---7---9-------6---9---6---|
A|-7---------------7---------------|-7---------------7---------------|
E|---------------------------------|---------------------------------|

G|---------------------------------|---------------------------------|
D|---------------------4---5---6---|-----6---7---8-9-----6---7---8-9-|
A|-----4---5---6-7-7---------------|-7---------------7---------------|
E|-5-------------------------------|---------------------------------|



G|---------------------------------|---------------------------------|
D|-----6---7---8-9-----------------|-----6---7---8-9-----6---7---8-9-|
A|-7---------------7---4-----------|-7---------------7---------------|
E|-------------------------7---4---|---------------------------------|

G|---------------------------------|---------------------------------|
D|---------------------------------|---------------------------------|
A|-----4---5---6---7---5---4-------|-----6---7---8-9-----6---7---8-9-|
E|-5---------------------------7---|-7---------------7---------------|

                                    VERSE
G|---------------------------------|---------------------------------|
D|---------------------------------|---------------------------------|
A|-7---7-------5---7---7-------5---|-7-----7-----5---7-----7-----7---|
E|---------7---------------7-------|---------7---------------7-------|

G|---------------------------------|---------------------------------|
D|-7-----7-----5---7-----7-----7---|---------------------------------|
A|---------7---------------7-------|-7-----7-----5---7-----7-----7---|
E|---------------------------------|---------7---------------7-------|

G|---------------------------------|---------------------------------|
D|-7-----7-----5---7-----7-----5---|-7-----7-----5---9-----9-----9---|
A|---------7---------------7-------|---------7---------------9-------|
E|---------------------------------|---------------------------------|

G|---------------------------------|---------------------------------|
D|---------------------------------|-9---9-----------9---9-------9---|
A|-7-----7-----5---7-----7-----7---|---------9---9-----------9-------|
E|---------7---------------7-------|---------------------------------|

CHORUS

G|---------------------------------|---------------------------------|
D|---------------------------------|---------------------------------|
A|-7---7-------5---7---7-------5---|-7---7-------5---7---7-------5---|
E|---------7---------------7-------|---------7---------------7-------|

G|---------------------------------|---------------------------------|
D|---------------------------------|-7---7-------5---7---7-------5---|
A|-7---7-------5---7---7-------5---|---------7---------------7-------|
E|---------7---------------7-------|---------------------------------|

G|---------------------------------|---------------------------------|
D|---------------------------------|---------------------------------|
A|-7---7-------5---7---7-------5---|-7---7-------5---7---7-------5---|
E|---------7---------------7-------|---------7---------------7-------|

G|---------------------------------|---------------------------------|
D|---------------------------------|-7---7-------5---7---7-------5---|
A|-7---7-------5---7---7-------5---|---------7---------------7-------|
E|---------7---------------7-------|---------------------------------|

G|---------------------------------|---------------------------------|
D|-9---9-----------9---9-------9---|---------------------------------|
A|---------9---9-----------9-------|-7---7-------5---7---7-------5---|
E|---------------------------------|---------7---------------7-------|

G|---------------------------------|---------------------------------|
D|---------------------------------|---------------------------------|
A|-7---7-----------7---7-----------|-7---7-------5---7-----7---------|
E|---------7---7-----------7---7---|---------7-----------------------|

G|---------------------------------|
D|---------------------------------|
A|---------------------------------|
E|---------------------------------|

GIRL

By John Lennon

VERSE

G||---------------------------------|---------------------------------|
D||-----------------5---------------|-----------------5---------------|
A||-3-------------------------------|-3-------------3---------3-------|
E||---------------------------------|---------------------------------|

G|---------------------------------|---------------------------------|
D|-3-----------------------3-------|---------------------------------|
A|-----------------3---------------|-6---------------5---------------|
E|---------------------------------|---------------------------------|

G|---------------------------------|---------------------------------|
D|-----------------5---------------|-----------------5---------------|
A|-3-------------------------------|-3-------------------------------|
E|---------------------------------|---------------------------------|

G|---------------------------------|---------------------------------|
D|-3-------------------------------|-----------------5---------------|
A|-----------------3---------------|-3-----------------------------3-|
E|---------------------------------|---------------------------------|

CHORUS

G|---------------------------------|---------------------------------|
D|---------------------------------|---------------------------------|
A|-6---------------5---------------|-3-------------------------------|
E|---------------------------------|-----------------6---------------|
                                    _________________________________
                                   | 1.
G|---------------------------------|---------------------------------||
D|---------------------------------|---------------------------------||
A|-6---------------5---------------|-3-------------------------------||
E|---------------------------------|-----------------6---------------||
  _________________________________
 | 2.                              BRIDGE
G|---------------------------------|---------------------------------|
D|---------------------------------|-3-------3-------3-------3-------|
A|-3-----------3-------------------|---------------------------------|
E|-----------------6---------------|---------------------------------|

G|---------------------------------|---------------------------------|
D|---------------------------------|-3-------3-------3-------3-------|
A|-3-------3-------3-------3-------|---------------------------------|
E|---------------------------------|---------------------------------|

G|---------------------------------|---------------------------------|
D|---------------------------------|-3-------3-------3-------3-------|
A|-3-------3-------3-------3-------|---------------------------------|
E|---------------------------------|---------------------------------|

G|---------------------------------|---------------------------------|
D|---------------------------------|-3-------3-------3-------3-------|
A|-3-------3-------3-------3-------|---------------------------------|
E|---------------------------------|---------------------------------|

                                   CHORUS
G|---------------------------------|---------------------------------|
D|-6-------6-------6-------6-------|---------------------------------|
A|---------------------------------|-6-----6---------5-----5---------|
E|---------------------------------|---------------------------------|

G|---------------------------------|---------------------------------|
D|---------------------------------|---------------------------------|
A|-3-----3-------------------------|-6-----6---------5-----5---------|
E|-----------------6-----6---------|---------------------------------|

G|---------------------------------|
D|---------------------------------|
A|-3-----3-------------------------|
E|-----------------6-----6---------|

VERSE

G|---------------------------------|---------------------------------|
D|-----------------5---------------|-----------------5---------------|
A|-3-------------------------------|-3-------------3---------3-------|
E|---------------------------------|---------------------------------|

G|---------------------------------|---------------------------------|
D|-3-----------------------3-------|---------------------------------|
A|-----------------3---------------|-6---------------5---------------|
E|---------------------------------|---------------------------------|

G|---------------------------------|---------------------------------|
D|-----------------5---------------|-----------------5---------------|
A|-3-------------------------------|-3-------------------------------|
E|---------------------------------|---------------------------------|

G|---------------------------------|---------------------------------|
D|-3-------------------------------|-----------------5---------------|
A|-----------------3---------------|-3-----------------------------3-|
E|---------------------------------|---------------------------------|

CHORUS

G|---------------------------------|---------------------------------|
D|---------------------------------|---------------------------------|
A|-6---------------5---------------|-3-------------------------------|
E|---------------------------------|-----------------6---------------|

G|---------------------------------|---------------------------------|
D|---------------------------------|---------------------------------|
A|-6---------------5---------------|-3-------------------------------|
E|---------------------------------|-----------------6---------------|

INTERLUDE

G|---------------------------------|---------------------------------|
D|-----------------5---------------|-----------------5---------------|
A|-3-------------------------------|-3-------------------------------|
E|---------------------------------|---------------------------------|

G|---------------------------------|---------------------------------|
D|-3-------------------------------|-----------------3---------------|
A|-----------------3---------------|-6-------------------------------|
E|---------------------------------|---------------------------------|

G|---------------------------------|---------------------------------|
D|-----------------5---------------|-----------------5---------------|
A|-3-------------------------------|-3-------------------------------|
E|---------------------------------|---------------------------------|

G|---------------------------------|---------------------------------|
D|-3-------------------------------|---------------------------------|
A|-----------------3---------------|-3---------------3---------------|
E|---------------------------------|---------------------------------|

OUT-CHORUS

G|---------------------------------|---------------------------------|
D|---------------------------------|---------------------------------|
A|-6-------6-------5-------5-------|-3-------3-----------------------|
E|---------------------------------|-----------------6-------6-------|

G|---------------------------------|---------------------------------|
D|---------------------------------|---------------------------------|
A|-6-------6-------5-------5-------|-3-------3-----------------------|
E|---------------------------------|-----------------6-------6-------|
                                                             FADE OUT

I’M LOOKING THROUGH YOU

By Paul McCartney

INTRO

G|---------------------------------|---------------------------------|
D|---------------------------------|---------------------------------|
A|---------------------------------|---------------------------------|
E|---------------------------------|---------------------------------|

G|---------------------------------|---------------------------------|
D|---------------------------------|---------------------------------|
A|---------------------------------|---------------------------------|
E|---------------------------------|---------------------------------|

G|---------------------------------|---------------------------------|
D|---------------------------------|---------------------------------|
A|---------------------------------|-----------------4-------3-------|
E|---------------------------------|---------------------------------|

VERSE

G||---------------------------------|---------------------------------|
D||-------------------------3-------|-3-----------3-----------3-------|
A||-----------------4---------------|-----------------3---------------|
E||-6-----------6-------------------|---------------------------------|

G|---------------------------------|---------------------------------|
D|---------------------------------|-6-----------6-------------------|
A|-6-----------6---8-------6-------|-----------------4-------3-------|
E|---------------------------------|---------------------------------|

G|---------------------------------|---------------------------------|
D|-------------------------3-------|-------------------------3-------|
A|-----------------4---------------|-----------------3---------------|
E|-6-----------6-------------------|-1-----------1-------------------|

G|---------------------------------|---------------------------------|
D|-1-----------1---1---1---1---1---|-3-----------3---3---3---3-------|
A|---------------------------------|---------------------------------|
E|---------------------------------|---------------------------------|

G|-3-----------3---3---3---3-------|---------------------------------|
D|---------------------------------|-6-----------6-------------------|
A|---------------------------------|-----------------4---4---4-------|
E|---------------------------------|---------------------------------|

G|---------------------------------|---------------------------------|
D|---------------------------------|-6-----------6-------------------|
A|-6-----------6---6---6---6-------|-----------------4-------3-------|
E|---------------------------------|---------------------------------|
                                                     .       .
G|---------------------------------|---------------------------------|
D|-------------------------3-------|---------------------------------|
A|-----------------4---------------|-4-----------4---4-------6-------|
E|-6-----------6-------------------|---------------------------------|
   .       .                         .       .
G|---------------------------------|---------------------------------|
D|-6-------6-----------------------|-6-------6-----------------------|
A|-----------------4---4---4---3---|-----------------4---4---4---3---|
E|---------------------------------|---------------------------------|
                                    _________________________________
                                   | 1.
   .       .                         .       .
G|---------------------------------|---------------------------------||
D|-6-------6-----------------------|-6-------6-----------------------||
A|-----------------4---4---4---3---|-----------------4-------3-------||
E|---------------------------------|---------------------------------||
  _________________________________
 | 2.                              BRIDGE
   .       .       .       .         .       .       .       .
G|---------------------------------|---------------------------------|
D|-6-------6---------------6-------|-----------------6-------6-------|
A|-----------------6---------------|-4-------4-----------------------|
E|---------------------------------|---------------------------------|
   .       .       .       .         .       .       .       .
G|---------------------------------|---------------------------------|
D|-----------------6---------------|-6-------6-----------------------|
A|-4-------4---------------4-------|-----------------6-------6-------|
E|---------------------------------|---------------------------------|
   .       .       .       .         .       .       .       .
G|---------------------------------|---------------------------------|
D|-6-------6-----------------------|-----------------6-------6-------|
A|-----------------6-------6-------|-4-------4-----------------------|
E|---------------------------------|---------------------------------|
   .       .       .       .
G|---------------------------------|---------------------------------|
D|-----------------6---------------|---------------------------------|
A|-4-------4---------------4-------|-6-----------6---6---6---6-------|
E|---------------------------------|---------------------------------|

G|---------------------------------|---------------------------------|
D|---------------------------------|-6-------6-----------------------|
A|-6-----------6---6---6---6-------|-----------------4-------3-------|
E|---------------------------------|---------------------------------|

VERSE

G|---------------------------------|---------------------------------|
D|-------------------------3-------|-3-----------3-----------3-------|
A|-----------------4---------------|-----------------3---------------|
E|-6-----------6-------------------|---------------------------------|

G|---------------------------------|---------------------------------|
D|---------------------------------|-6-----------6-------------------|
A|-6-----------6---8-------6-------|-----------------4-------3-------|
E|---------------------------------|---------------------------------|

G|---------------------------------|---------------------------------|
D|-------------------------3-------|-------------------------3-------|
A|-----------------4---------------|-----------------3---------------|
E|-6-----------6-------------------|-1-----------1-------------------|

G|---------------------------------|---------------------------------|
D|-1-----------1---1---1---1---1---|-3-----------3---3---3---3-------|
A|---------------------------------|---------------------------------|
E|---------------------------------|---------------------------------|

G|-3-----------3---3---3---3-------|---------------------------------|
D|---------------------------------|-6-----------6-------------------|
A|---------------------------------|-----------------4---4---4-------|
E|---------------------------------|---------------------------------|

G|---------------------------------|---------------------------------|
D|---------------------------------|-6-----------6-------------------|
A|-6-----------6---6---6---6-------|-----------------4-------3-------|
E|---------------------------------|---------------------------------|
                                                     .       .
G|---------------------------------|---------------------------------|
D|-------------------------3-------|---------------------------------|
A|-----------------4---------------|-4-----------4---4-------6-------|
E|-6-----------6-------------------|---------------------------------|
   .       .                         .       .
G|---------------------------------|---------------------------------|
D|-6-------6-----------------------|-6-------6-----------------------|
A|-----------------4---4---4---3---|-----------------4---4---4---3---|
E|---------------------------------|---------------------------------|

   .       .                         .       .       .       .
G|---------------------------------|---------------------------------|
D|-6-------6-----------------------|-6-------6---------------6-------|
A|-----------------4---4---4---3---|-----------------6---------------|
E|---------------------------------|---------------------------------|

BRIDGE
   .       .       .       .         .       .       .       .
G|---------------------------------|---------------------------------|
D|-----------------6-------6-------|-----------------6---------------|
A|-4-------4-----------------------|-4-------4---------------4-------|
E|---------------------------------|---------------------------------|
   .       .       .       .         .       .       .       .
G|---------------------------------|---------------------------------|
D|-6-------6-----------------------|-6-------6-----------------------|
A|-----------------6-------6-------|-----------------6-------6-------|
E|---------------------------------|---------------------------------|
   .       .       .       .         .       .       .       .
G|---------------------------------|---------------------------------|
D|-----------------6-------6-------|-----------------6---------------|
A|-4-------4-----------------------|-4-------4---------------4-------|
E|---------------------------------|---------------------------------|

G|---------------------------------|---------------------------------|
D|---------------------------------|---------------------------------|
A|-6-----------6---6---6---6-------|-6-----------6---6---6---6-------|
E|---------------------------------|---------------------------------|

                                   VERSE
G|---------------------------------|---------------------------------|
D|-6-------6-----------------------|-------------------------3-------|
A|-----------------4-------3-------|-----------------4---------------|
E|---------------------------------|-6-----------6-------------------|

G|---------------------------------|---------------------------------|
D|-3-----------3-----------3-------|---------------------------------|
A|-----------------3---------------|-6-----------6---8-------6-------|
E|---------------------------------|---------------------------------|

G|---------------------------------|---------------------------------|
D|-6-----------6-------------------|-------------------------3-------|
A|-----------------4-------3-------|-----------------4---------------|
E|---------------------------------|-6-----------6-------------------|

G|---------------------------------|---------------------------------|
D|-------------------------3-------|-1-----------1---1---1---1---1---|
A|-----------------3---------------|---------------------------------|
E|-1-----------1-------------------|---------------------------------|

G|---------------------------------|-3-----------3---3---3---3-------|
D|-3-----------3---3---3---3-------|---------------------------------|
A|---------------------------------|---------------------------------|
E|---------------------------------|---------------------------------|

G|---------------------------------|---------------------------------|
D|-6-----------6-------------------|---------------------------------|
A|-----------------4---4---4-------|-6-----------6---6---6---6-------|
E|---------------------------------|---------------------------------|

G|---------------------------------|---------------------------------|
D|-6-----------6-------------------|-------------------------3-------|
A|-----------------4-------3-------|-----------------4---------------|
E|---------------------------------|-6-----------6-------------------|
                                     .       .
G|---------------------------------|---------------------------------|
D|---------------------------------|-6-------6-----------------------|
A|-4-----------4---4---------------|-----------------4---4---4---3---|
E|---------------------------------|---------------------------------|
   .       .                         .       .
G|---------------------------------|---------------------------------|
D|-6-------6-----------------------|-6-------6-----------------------|
A|-----------------4---4---4---3---|-----------------4---4---4---3---|
E|---------------------------------|---------------------------------|
   .       .                         .       .
G|---------------------------------|---------------------------------|
D|-6-------6-----------------------|-6-------6-----------------------|
A|-----------------4---4---4---3---|-----------------4---4---4---3---|
E|---------------------------------|---------------------------------|
   .       .                         .       .
G|---------------------------------|---------------------------------|
D|-6-------6-----------------------|-6-------6-----------------------|
A|-----------------4---4---4---3---|-----------------4---4---4---3---|
E|---------------------------------|---------------------------------|
   .       .                         .       .
G|---------------------------------|---------------------------------|
D|-6-------6-----------------------|-6-------6-----------------------|
A|-----------------4---4---4---3---|-----------------4---4---4---3---|
E|---------------------------------|---------------------------------|
   .       .
G|---------------------------------|
D|-6-------6-----------------------|
A|-----------------4---4---4---3---|
E|---------------------------------|

IN MY LIFE

By John Lennon & Paul McCartney

INTRO

G|---------------------------------|---------------------------------|
D|-7-------7-------7---------------|---------------------6---7---7---|
A|---------------------5---5---7---|-----------------7---------------|
E|---------------------------------|---------------------------------|

G|---------------------------------|---------------------------------|
D|---------7-------7---------------|---------------------------------|
A|---------------------5---5---7---|-------------7---7---------------|
E|---------------------------------|---------------------------------|

VERSE

G||---------------------------------|---------------------------------|
D||-7-------------------------------|-4-----------5-----------7-------|
A||-----------------7---------------|-----------------------------5---|
E||---------------------------------|---------------------------------|

G|---------------------------------|---------------------------------|
D|-----------------------------7---|-7-----------7---7-----------7---|
A|-5-----------5---5---------------|---------------------------------|
E|---------------------------------|---------------------------------|

G|---------------------------------|---------------------------------|
D|-7-----------7-------------------|-4-----------5-----------7-------|
A|-----------------7---------------|-----------------------------5---|
E|---------------------------------|---------------------------------|

G|---------------------------------|---------------------------------|
D|-----------------------------7---|-7-----------7---7-------7\------|
A|-5-----------5---5---------------|---------------------------------|
E|---------------------------------|---------------------------------|

CHORUS

G|---------------------------------|---------------------------------|
D|-4-------------------------------|-----------------------------4---|
A|---------------------------------|-5-----------5---5---------------|
E|---------------------------------|---------------------------------|

G|---------------------------------|---------------------------------|
D|-5---5---5---5---5---5---5---5---|-7---7---7---7---7---7---7-------|
A|---------------------------------|-----------------------------7---|
E|---------------------------------|---------------------------------|

G|---------------------------------|---------------------------------|
D|-4-------------------------------|---------------------------------|
A|---------------------------------|---------------------------------|
E|---------------------------------|-7-----------7---7---------------|
                                    _________________________________
                                   | 1.
G|---------------------------------|---------------------------------|
D|-------------------------7---7---|-7-----------7---7---------------|
A|-5-----------5---5---5-----------|-----------------------------7---|
E|---------------------------------|---------------------------------|

G|---------------------------------|---------------------------------||
D|-7-------7-------7---------------|---------------------6-------6---||
A|---------------------5---5---7---|-------------7---7---------------||
E|---------------------------------|---------------------------------||
  _________________________________
 | 2.                              PIANO SOLO
G|---------------------------------|---------------------------------|
D|-7---7---7---7---7---7---7-------|-7-----------7-------------------|
A|-----------------------------7---|-----------------7-----------7---|
E|---------------------------------|---------------------------------|



G|---------------------------------|---------------------------------|
D|-4-----------5-----------7-------|-----------------------------7---|
A|-----------------------------5---|-5-----------5---5---------------|
E|---------------------------------|---------------------------------|

G|---------------------------------|---------------------------------|
D|-7-----------7---------------6---|-7-----------7-------------------|
A|-------------------------7-------|-----------------7---7-------7---|
E|---------------------------------|---------------------------------|

G|---------------------------------|---------------------------------|
D|-4-----------5-----------7-------|-----------------------------7---|
A|-----------------------------5---|-5-----------5---5---------------|
E|---------------------------------|---------------------------------|

                                   CHORUS
G|---------------------------------|---------------------------------|
D|-7-------------------------------|-4-------------------------------|
A|-------------7-------------------|---------------------------------|
E|---------------------------------|---------------------------------|

G|---------------------------------|---------------------------------|
D|-----------------------------4---|-5---5---5---5---5---5---5---5---|
A|-5-----------5---5---------------|---------------------------------|
E|---------------------------------|---------------------------------|

G|---------------------------------|---------------------------------|
D|-7---7---7---7---7---7---7-------|-4-------------------------------|
A|-----------------------------7---|---------------------------------|
E|---------------------------------|---------------------------------|

G|---------------------------------|---------------------------------|
D|---------------------------------|-------------------------7---7---|
A|---------------------------------|-5-----------5---5---5-----------|
E|-7-----------7---7---------------|---------------------------------|

G|---------------------------------|---------------------------------|
D|-7-----------7---7---------------|-7-------7-------7---------------|
A|-----------------------------7---|---------------------5---5---7---|
E|---------------------------------|---------------------------------|

                                   OUTRO
G|---------------------------------|---------------------------------|
D|---------------------------------|---------------------------------|
A|-------------7---7-----------7---|-5-------------------------------|
E|---------------------------------|---------------------------------|

  2/4               4/4
G|-----------------|---------------------------------|
D|-----------------|-7---------------7---------------|
A|-----------------|---------------------5---5---7---|
E|-----------------|---------------------------------|

G|---------------------------------|---------------------------------|
D|---------------------------------|-7-------------------------------|
A|-----------------7---7-----------|---------------------------------|
E|---------------------------------|---------------------------------|

WAIT

By John Lennon & Paul McCartney

G|---------------------------------|---------------------------------|
D|---------------------------------|---------------------------------|
A|---------------------------------|---------------------------------|
E|-2-----------2-------------------|-2-----------2-------------------|

G|---------------------------------|---------------------------------|
D|---------------------------------|---------------------------------|
A|-4-------------------------------|---------------------------------|
E|-------------2-------------------|-2-----------2-------------------|

G|---------------------------------|---------------------------------|
D|---------------------------------|---------------------------------|
A|---------------------------------|-4-------------------------------|
E|-2-----------2-------------------|-------------2-------------------|

G|---------------------------------|---------------------------------|
D|-7-------7-----------------------|-7-------7-----------------------|
A|-----------------5-------5-------|-----------------5-------5-------|
E|---------------------------------|---------------------------------|

G|---------------------------------|---------------------------------|
D|-7-------7-----------------------|-7-------7-----------------------|
A|-----------------5-------5-------|-----------------4-------4-------|
E|---------------------------------|---------------------------------|
  _________________________________  _________________________________
 | 1.                              || 2.3.
G|---------------------------------||---------------------------------|
D|-4-------------------------------||---------------------------------|
A|---------------------------------||---------------------------------|
E|---------------------------------||-2---2---2---2---2---2---2---2---|

BRIDGE

G|---------------------------------|---------------------------------|
D|---------------------------------|-2---2---2---2-----------2---2---|
A|-2---2---2---2-----------2---2---|-----------------2---2-----------|
E|-----------------2---2-----------|---------------------------------|

G|---------------------------------|---------------------------------|
D|---------------------------------|---------------------------------|
A|-0---0---0---0---0---0---0-------|---------------------------------|
E|-----------------------------4---|-2---2---2---2---2---2---2---2---|

G|---------------------------------|---------------------------------|
D|---------------------------------|-2---2---2---2-----------2---2---|
A|-2---2---2---2---2---2---2---2---|-----------------2---2-----------|
E|---------------------------------|---------------------------------|

G|---------------------------------|---------------------------------||
D|/7---7---7---7---7---7---7---7---|---------------------------------||
A|---------------------------------|-4-------------------------------||
E|---------------------------------|---------------------------------||
  _________________________________
 | 4.
G|---------------------------------|---------------------------------|
D|-4-------------------------------|---------------------------------|
A|---------------------------------|---------------------------------|
E|---------------------------------|-2-----------2-------------------|

G|---------------------------------|---------------------------------|
D|---------------------------------|---------------------------------|
A|---------------------------------|-4-------------------------------|
E|-2-----------2-------------------|-------------2-------------------|

G|---------------------------------|---------------------------------|
D|---------------------------------|---------------------------------|
A|---------------------------------|---------------------------------|
E|-2-----------2-------------------|-2-----------2-------------------|

                                     /
                                     /
                                     /
G|---------------------------------|---------------------------------|
D|---------------------------------|---------------------------------|
A|-4-------------------------------|---------------------------------|
E|---------------------------------|-2-------------------------------|

G|---------------------------------|
D|---------------------------------|
A|---------------------------------|
E|---------------------------------|

IF I NEEDED SOMEONE

By George Harrison

INTRO

G|---------------------------------|---------------------------------|
D|---------------------------------|---------------------------------|
A|---------------------------------|---------------------------------|
E|---------------------------------|---------------------------------|

G|-------------------------9-------|-------------------------9-------|
D|-7-------5---7-/-9---9-----------|-7-------5---7-/-9---9-----------|
A|-0-------------------------------|-0-------------------------------|
E|---------------------------------|---------------------------------|

VERSE

G|-------------------------9-------|-------------------------9-------|
D|-7-------5---7-/-9---9-----------|-7-------5---7-/-9---9-----------|
A|-0-------------------------------|-0-------------------------------|
E|---------------------------------|---------------------------------|

G|-------------------------9-------|-------------------------9-------|
D|-7-------5---7-/-9---9-----------|-7-------5---7-/-9---9-----------|
A|-0-------------------------------|-0-------------------------------|
E|---------------------------------|---------------------------------|

G|-------------------------9-------|-------------------------9-------|
D|-7-------5---7-/-9---9-----------|-7-------5---7-/-9---9-----------|
A|-0-------------------------------|-0-------------------------------|
E|---------------------------------|---------------------------------|

G|-------------------------9-------|-------------------------9-------|
D|-7-------5---7-/-9---9-----------|-7-------5---7-/-9---9-----------|
A|-0-------------------------------|-0-------------------------------|
E|---------------------------------|---------------------------------|

VERSE

G|-------------------------9-------|-------------------------9-------|
D|-7-------5---7-/-9---9-----------|-7-------5---7-/-9---9-----------|
A|-0-------------------------------|-0-------------------------------|
E|---------------------------------|---------------------------------|

G|-------------------------9-------|-------------------------9-------|
D|-7-------5---7-/-9---9-----------|-7-------5---7-/-9---9-----------|
A|-0-------------------------------|-0-------------------------------|
E|---------------------------------|---------------------------------|

G|-------------------------9-------|-------------------------9-------|
D|-7-------5---7-/-9---9-----------|-7-------5---7-/-9---9-----------|
A|-0-------------------------------|-0-------------------------------|
E|---------------------------------|---------------------------------|

G|-------------------------9-------|-------------------------9-------|
D|-7-------5---7-/-9---9-----------|-7-------5---7-/-9---9-----------|
A|-0-------------------------------|-0-------------------------------|
E|---------------------------------|---------------------------------|

BRIDGE

G|---------------------------------|---------------------------------|
D|---------------------------------|---------------------------------|
A|-7-------7-------7---7-------7---|-9-------9-------9---9-----------|
E|---------------------------------|-----------------------------9---|

G|---------------------------------|---------------------------------|
D|---------------------------------|---------------------------------|
A|-9-------9-------9---9-----------|---------9-------9---9-----------|
E|-------------------------9---8---|-7---------------------------7---|

G|---------------------------------|---------------------------------|
D|---------------------------------|---------------------------------|
A|-7-------7-------7---7-----------|-9-------9-------9---9-----------|
E|-----------------------------7---|-----------------------------9---|

G|---------------------------------|---------------------------------|
D|---------------------------------|---------------------------------|
A|---------------------------------|-7-------7-------7---7-------7---|
E|-7-------7-------7---7-------7---|---------------------------------|

VERSE

G|-------------------------9-------|-------------------------9-------|
D|-7-------5---7-/-9---9-----------|-7-------5---7-/-9---9-----------|
A|-0-------------------------------|-0-------------------------------|
E|---------------------------------|---------------------------------|

G|-------------------------9-------|-------------------------9-------|
D|-7-------5---7-/-9---9-----------|-7-------5---7-/-9---9-----------|
A|-0-------------------------------|-0-------------------------------|
E|---------------------------------|---------------------------------|

G|-------------------------9-------|-------------------------9-------|
D|-7-------5---7-/-9---9-----------|-7-------5---7-/-9---9-----------|
A|-0-------------------------------|-0-------------------------------|
E|---------------------------------|---------------------------------|

G|-------------------------9-------|-------------------------9-------|
D|-7-------5---7-/-9---9-----------|-7-------5---7-/-9---9-----------|
A|-0-------------------------------|-0-------------------------------|
E|---------------------------------|---------------------------------|

SOLO

G|-------------------------9-------|-------------------------9-------|
D|-7-------5---7-/-9---9-----------|-7-------5---7-/-9---9-----------|
A|-0-------------------------------|-0-------------------------------|
E|---------------------------------|---------------------------------|

G|-------------------------9-------|-------------------------9-------|
D|-7-------5---7-/-9---9-----------|-7-------5---7-/-9---9-----------|
A|-0-------------------------------|-0-------------------------------|
E|---------------------------------|---------------------------------|

G|-------------------------9-------|-------------------------9-------|
D|-7-------5---7-/-9---9-----------|-7-------5---7-/-9---9-----------|
A|-0-------------------------------|-0-------------------------------|
E|---------------------------------|---------------------------------|

G|-------------------------9-------|-------------------------9-------|
D|-7-------5---7-/-9---9-----------|-7-------5---7-/-9---9-----------|
A|-0-------------------------------|-0-------------------------------|
E|---------------------------------|---------------------------------|

VERSE

G|-------------------------9-------|-------------------------9-------|
D|-7-------5---7-/-9---9-----------|-7-------5---7-/-9---9-----------|
A|-0-------------------------------|-0-------------------------------|
E|---------------------------------|---------------------------------|

G|-------------------------9-------|-------------------------9-------|
D|-7-------5---7-/-9---9-----------|-7-------5---7-/-9---9-----------|
A|-0-------------------------------|-0-------------------------------|
E|---------------------------------|---------------------------------|

G|-------------------------9-------|-------------------------9-------|
D|-7-------5---7-/-9---9-----------|-7-------5---7-/-9---9-----------|
A|-0-------------------------------|-0-------------------------------|
E|---------------------------------|---------------------------------|

G|-------------------------9-------|-------------------------9-------|
D|-7-------5---7-/-9---9-----------|-7-------5---7-/-9---9-----------|
A|-0-------------------------------|-0-------------------------------|
E|---------------------------------|---------------------------------|

BRIDGE

G|---------------------------------|---------------------------------|
D|---------------------------------|---------------------------------|
A|-7-------7-------7---7-------7---|-9-------9-------9---9-----------|
E|---------------------------------|-----------------------------9---|

G|---------------------------------|---------------------------------|
D|---------------------------------|---------------------------------|
A|-9-------9-------9---9-----------|---------9-------9---9-----------|
E|-------------------------9---8---|-7---------------------------7---|

G|---------------------------------|---------------------------------|
D|---------------------------------|---------------------------------|
A|-7-------7-------7---7-----------|-9-------9-------9---9-----------|
E|-----------------------------7---|-----------------------------9---|

G|---------------------------------|---------------------------------|
D|---------------------------------|---------------------------------|
A|---------------------------------|-7-------7-------7---7-------7---|
E|-7-------7-------7---7-------7---|---------------------------------|

VERSE

G|-------------------------9-------|-------------------------9-------|
D|-7-------5---7-/-9---9-----------|-7-------5---7-/-9---9-----------|
A|-0-------------------------------|-0-------------------------------|
E|---------------------------------|---------------------------------|

G|-------------------------9-------|-------------------------9-------|
D|-7-------5---7-/-9---9-----------|-7-------5---7-/-9---9-----------|
A|-0-------------------------------|-0-------------------------------|
E|---------------------------------|---------------------------------|

G|-------------------------9-------|-------------------------9-------|
D|-7-------5---7-/-9---9-----------|-7-------5---7-/-9---9-----------|
A|-0-------------------------------|-0-------------------------------|
E|---------------------------------|---------------------------------|

G|-------------------------9-------|-------------------------9-------|
D|-7-------5---7-/-9---9-----------|-7-------5---7-/-9---9-----------|
A|-0-------------------------------|-0-------------------------------|
E|---------------------------------|---------------------------------|

G|-------------------------9-------|-------------------------9-------|
D|-7-------5---7-/-9---9-----------|-7-------5---7-/-9---9-----------|
A|-0-------------------------------|-0-------------------------------|
E|---------------------------------|---------------------------------|

G|-------------------------9-------|-------------------------9-------|
D|-7-------5---7-/-9---9-----------|-7-------5---7-/-9---9-----------|
A|-0-------------------------------|-0-------------------------------|
E|---------------------------------|---------------------------------|

G|---------------------------------|
D|-7-------------------------------|
A|-0-------------------------------|
E|---------------------------------|

RUN FOR YOUR LIFE

By John Lennon

G|---------------------------------|---------------------------------|
D|---------------------------------|---------------------------------|
A|-5-----5---------5-----5---------|-5-----5---------5-----5---------|
E|---------5-5---5---------5-5---5-|---------5-5---5---------5-5---5-|

VERSE

G||---------------------------------|---------------------------------|
D||---------------------------------|---------------------------------|
A||-5-----5---------5-----5---------|-2-----2---------2-----2---------|
E||---------5-5---5---------5-5---5-|---------2-2---2---------2-2---2-|

G|---------------------------------|---------------------------------|
D|---------------------------------|---------------------------------|
A|-5-----5---------5-----5---------|-2-----2---------2-----2---------|
E|---------5-5---5---------5-5---5-|---------2-2---2---------2-2---2-|

G|---------------------------------|---------------------------------|
D|---------------------------------|---------------------------------|
A|-2-----2-------------------2-----|-2-----2-------------------2-----|
E|---------2-2---2-0-----0-4-----4-|---------2-2---2-0-----0-4-----4-|
                                    _________________________________
                                   | 1.
G|---------------------------------|---------------------------------|
D|---------------------------------|---------------------------------|
A|-2-----2-------------------------|-2-----2---------2---2---3---4---|
E|---------2-2---2-3-----3-2-2---2-|---------2-2---2-----------------|

G|---------------------------------|---------------------------------||
D|---------------------------------|---------------------------------||
A|-5-----5---------5-----5---------|-5-----5---------5-----5---------||
E|---------5-5---5---------5-5---5-|---------5-5---5---------5-5---5-||
  _________________________________
 | 2.
G|---------------------------------|
D|---------------------------------|
A|-2-----2---------2---2---3---4---|
E|---------2-2---2-----------------|

SOLO

G|---------------------------------|---------------------------------|
D|---------------------------------|---------------------------------|
A|-5-----5---------5-----5---------|-5-----5---------5-----5---------|
E|---------5-5---5---------5-5---5-|---------5-5---5---------5-5---5-|

G|---------------------------------|---------------------------------|
D|---------------------------------|---------------------------------|
A|---------5-5---5---------5-5-----|-5-----5---------5-----5---------|
E|-3-----3---------3-----3-------5-|---------5-5---5---------5-5---5-|

G|---------------------------------|---------------------------------|
D|---------------------------------|---------------------------------|
A|---------7-7---7---------7-7---7-|-5-----5---------5-----5---------|
E|-5-----5---------5-----5---------|---------5-5---5---------5-5---5-|

VERSE

G|---------------------------------|---------------------------------|
D|---------------------------------|---------------------------------|
A|-5-----5---------5-----5---------|-2-----2---------2-----2---------|
E|---------5-5---5---------5-5---5-|---------2-2---2---------2-2---2-|

G|---------------------------------|---------------------------------|
D|---------------------------------|---------------------------------|
A|-5-----5---------5-----5---------|-2-----2---------2-----2---------|
E|---------5-5---5---------5-5---5-|---------2-2---2---------2-2---2-|

G|---------------------------------|---------------------------------|
D|---------------------------------|---------------------------------|
A|-2-----2-------------------2-----|-2-----2-------------------2-----|
E|---------2-2---2-0-----0-4-----4-|---------2-2---2-0-----0-4-----4-|

G|---------------------------------|---------------------------------|
D|---------------------------------|---------------------------------|
A|-2-----2-------------------------|-2-----2---------2---2---3---4---|
E|---------2-2---2-3-----3-2-2---2-|---------2-2---2-----------------|

G|---------------------------------|---------------------------------|
D|---------------------------------|---------------------------------|
A|-5-----5---------5-----5---------|-5-----5---------5-----5---------|
E|---------5-5---5---------5-5---5-|---------5-5---5---------5-5---5-|

VERSE

G|---------------------------------|---------------------------------|
D|---------------------------------|---------------------------------|
A|-5-----5---------5-----5---------|-2-----2---------2-----2---------|
E|---------5-5---5---------5-5---5-|---------2-2---2---------2-2---2-|

G|---------------------------------|---------------------------------|
D|---------------------------------|---------------------------------|
A|-5-----5---------5-----5---------|-2-----2---------2-----2---------|
E|---------5-5---5---------5-5---5-|---------2-2---2---------2-2---2-|

G|---------------------------------|---------------------------------|
D|---------------------------------|---------------------------------|
A|-2-----2-------------------2-----|-2-----2-------------------2-----|
E|---------2-2---2-0-----0-4-----4-|---------2-2---2-0-----0-4-----4-|

G|---------------------------------|---------------------------------|
D|---------------------------------|---------------------------------|
A|-2-----2-------------------------|-2-----2---------2---2---3---4---|
E|---------2-2---2-3-----3-2-2---2-|---------2-2---2-----------------|

G||---------------------------------|---------------------------------|
D||---------------------------------|---------------------------------|
A||-5-----5---------5-----5---------|-5-----5---------5-----5---------|
E||---------5-5---5---------5-5---5-|---------5-5---5---------5-5---5-|

G|---------------------------------|---------------------------------|
D|---------------------------------|---------------------------------|
A|-5-----5---------5-----5---------|-5-----5---------5-----5---------|
E|---------5-5---5---------5-5---5-|---------5-5---5---------5-5---5-|

G|---------------------------------|---------------------------------||
D|---------------------------------|---------------------------------||
A|-5-----5---------5-----5---------|-5-----5---------5-----5---------||
E|---------5-5---5---------5-5---5-|---------5-5---5---------5-5---5-||
                                                             FADE OUT

   .
---5--- staccato
--(7)-- ghost note
--3/5-- legato slide
--3h5-- hammer on
--5p3-- pull off
comments
We did not receive enough feedback on this tab! Please rate:
print report bad tab
1 2 3 4 5
1 comment total.
+2 reply
Maitinin wrote on May 13 2008, 05:13 am

whoah!

I want to post or [tab]
guest
You may want to rate the tab now too:
select rating
Please do not post tabs as comments. Select "correction" instead!