Oops, an error
Loading. Please wait.

Rubber Soul Tab

ver2
ver2

Album

More versions @911Tabs.com
37,402 views 75 this week
2 commentsread comments
1 2 3 4 5
excellent!
x 1
add to favorites launch autoscroll
font size
0
reset
Autoscroll
+/-
esc
set tempo
stop
Contributor
WARNING: You are trying to view
                                    content from Ultimate-Guitar.com
                                    in an unauthorized application,
                                    which is prohibited.

                                    Please use an official Ultimate
                                    Guitar Tabs application for iPhone,
                                    iPad or Android to access legitimate
                                    chords, guitar, bass, and drum tabs
                                    from Ultimate-Guitar.com database.

                                    Type "ultimate guitar tabs" in Apple
                                    App Store's or Android Market's
                                    search to find the application.

                      THE BEATLES - RUBBER SOUL (Album)

                   1  DRIVE MY CAR
                   2  NORWEGIAN WOOD
                   3  YOU WON'T SEE ME
                   4  NOWHERE MAN
                   5  THINK FOR YOURSELF
                   6  THE WORD
                   7  MICHELLE
                   8  WHAT GOES ON
                   9  GIRL
                  10  I'M LOOKING THROUGH YOU
                  11  IN MY LIFE
                  12  WAIT
                  13  IF I NEEDED SOMEONE
                  14  RUN FOR YOUR LIFE


  ----------------------------------------------------------------

  THE BEATLES - DRIVE MY CAR (Lennon & McCartney) From RUBBER SOUL
                album. Released 3rd December 1965.

  ----------------------------------------------------------------

  Tabbed by:PJVillanueva





  Asked a girl what she wanted to be
  She said baby, can't you see
  I wanna be famous, a star on the screen
  But you can do something in between

  Baby you can drive my car
  Yes I'm gonna be a star
  Baby you can drive my car
  And maybe I'll love you

  I told that girl that my prospects were good
  And she said baby, it's understood
  Working for peanuts is all very fine
  But I can show you a better time

  Baby you can drive my car
  Yes I'm gonna be a star
  Baby you can drive my car
  And maybe I'll love you

  Beepbeep'mm Beepbeep yeah

  Baby you can drive my car
  Yes I'm gonna be a star
  Baby you can drive my car
  And maybe I'll love you

  I told that girl I can start right away
  When she said listen babe I got something to say
  I got no car and it's breaking my heart
  But I found a driver and that's a start

  Baby you can drive my car
  Yes I'm gonna be a star
  Baby you can drive my car
  And maybe I'll love you

  Beepbeep'mm Beepbeep yeah
  Beepbeep'mm Beepbeep yeah
  Beepbeep'mm Beepbeep yeah
  Beepbeep'mm Beepbeep yeah




  INTRO

                                  D                  x x x x x x x
e|------- ------- ------- -------|------- ---------- ------- -------|
B|-------------------6B7-----5---|7-------7---5------5-------7------|
G|---7--8\7--5---------------5---|7-------7---5------5-------7------|
D|7---------------7--------------|----------------7-----------------|
A|-------------------------------|----------------------------------|
E|-------------------------------|----------------------------------|


  00:05
  VERSE
  D                               G
e|------- ------- ------- -------|------- ------- ------- -------|
B|-------------------------------|-------------------------------|
G|-------------------------------|-------------------------------|
D|--------------------7----------|-------------------------------|
A|5-------------7/9-------97--5--|--------------------5----------|
E|-------------------------/-----|3-------------3/7------\5---3--|
          Asked   girl    what    wanted  to  be
              a               she


  D                               G
e|------- ------- ------- -------|------- ------- ------- -------|
B|-------------------------------|-------------------------------|
G|-------------------------------|-------------------------------|
D|--------------------7----------|-------------------------------|
A|5------------7/-9-------97--5--|--------------------5----------|
E|-------------------------/-----|3-------------3/7------\5---3--|
          She said                Can't      see
                  baby                you


  D                               G
e|------- ------- ------- -------|------- ------- ------- -------|
B|-------------------------------|-------------------------------|
G|-------------------------------|-------------------------------|
D|--------------------7----------|-------------------------------|
A|5-------------7/9-------97--5--|--------------------5----\-----|
E|-------------------------/-----|3-------------5/7-------75--3--|
      I   wanna   famous      a   star    the screen          but
              be                      of


  A
e|------- ------- ------- -------|------- ------- ------- -------|
B|-------------------------------|-------------------------------|
G|-------------------------------|-------------------------------|
D|-------------------------------|-------------------------------|
A|-------------------------------|----------------/---7---9-7----|
E|5---5---5-------5---5---5---5--|5---5---5---5---79----------9--|
  You can do      something       in  between


  00:20
  CHORUS

e|------- ------- ------- -------|------- ------- ------- -------|
B|-------------------------------|-------------------------------|
G|-------------------------------|-------------------------------|
D|-------------------------------|-------------------------------|
A|-------------------------------|-------------------------------|
E|7-------7-------7-------7---5--|3-------3-------3-------3---5--|
  Bm                                 G       C  Dmsus4 C     G
e|------- ------- ------- -------|------- ------- ------- -------|
B|3-------3-----------3-------3--|----3-------5--/6-----5-----3--|
G|4-------4-----------4-------4--|----4-------5--/7-----5-----4--|
D|4-------4-----------4-------4--|----5-------5--/5-----5-----5--|
A|-------------------------------|-------------------------------|
E|-------------------------------|-------------------------------|
   Baby   you can drive      car
                      my    



e|------- ------- ------- -------|------- ------- ------- -------|
B|-------------------------------|-------------------------------|
G|-------------------------------|-------------------------------|
D|-------------------------------|-------------------------------|
A|-------------------------------|-------------------------------|
E|7-------7-------7-----7-7---5--|3-------3-------3-------3---5--|
  Bm                                 G       C  Dmsus4 C     G
e|2------ ------- ------- -------|------- ------- ------- -------|
B|3-------3-----------3-------3--|----3-------5--/6-----5-----3--|
G|4-------4-----------4-------4--|----4-------5--/7-----5-----4--|
D|--------4-----------4-------4--|----5-------5--/5-----5-----5--|
A|-------------------------------|-------------------------------|
E|-------------------------------|-------------------------------|
  yes I'm gonna   be  a       star




e|------- ------- ------- -------|------- ------- ------- -------|
B|-------------------------------|-------------------------------|
G|-------------------------------|-------------------------------|
D|-------------------------------|-------------------------------|
A|-------------------------------|----------------0--------------|
E|7-------7-------7-------7------|0---2---3---0-------3---2---0--|
  Bm                              Em              A
e|2------ ------- ------- -------|------- ------- ------- -------|
B|3-------3--------3---------3---|--------0-----------2------2---|
G|4-------4--------4---------4---|--------0-----------2------2---|
D|--------4--------4---------4---|--------2-----------2------2---|
A|-------------------------------|--------2-------0--------------|
E|-------------------------------|0---0-------0------------------|
   Baby   you can drive      car              and maybe   I   love
                      my    


 
e|------- ------- ------- -------|------- ------- ------- -------|
B|-------------------------------|-------------------------------|
G|-------------------------------|-------------------------------|
D|-------------------------------|-------------------------------|
A|5-------5-----------5----------|--------------------7----------|
E|------------5-/-7-------7---3--|5-------5----5-/9-------9---5--|
  D               G               A
e|------- ------- ------- -------|------- ------- ------- -------|
B|3-------3-----------0------0---|2------------------------------|
G|2-------2-----------0------0---|2------------------------------|
D|0-------0-----------0------0---|2------------------2-----------|
A|-------------------------------|0-------0----0-/4------\2--0---|
E|----------------3--------------|-------------------------------|
      you


  00:36
  VERSE
  D                               G
e|------- ------- ------- -------|------- ------- ------- -------|
B|-------------------------------|-------------------------------|
G|-------------------------------|-------------------------------|
D|--------------------7----------|-------------------------------|
A|5-------5------/9------\7---5--|--------------------5----------|
E|-------------------------------|3-------------3/7------\5---3--|
     I    told    girl    that    prospects  good
              a               my          were


  D                               G
e|------- ------- ------- -------|------- ------- ------- -------|
B|-------------------------------|-------------------------------|
G|-------------------------------|-------------------------------|
D|--------------------7----------|-------------------------------|
A|5-------5-----5/9------\7---5--|--------------------5----------|
E|-------------------------------|3-------3-----3/7-------7-\-3--|
     and  she said            it's 
                  baby,           understood


  D                               G
e|------- ------- ------- -------|------- ------- ------- -------|
B|-------------------------------|-------------------------------|
G|-------------------------------|-------------------------------|
D|--------------------7----------|-------------------------------|
A|5-------------5/9------\7---5--|--------------------5---\------|
E|-------------------------------|3-------------5/7-------75--3--|
     Working   for peanuts    is  all very    fine            but



  A
e|------- ------- ------- -------|------- ------- ------- -------|
B|-------------------------------|-------------------------------|
G|-------------------------------|-------------------------------|
D|-------------------------------|-------------------------------|
A|-------------------------------|-----------------/--7---9-7----|
E|5---5---5---5---5---5---5---5--|5---5---5---5---79----------9--|
  I       can     show    you a   better      time


  00:52
  CHORUS
  Bm                              G
e|------- ------- ------- -------|------- ------- ------- -------|
B|-------------------------------|-------------------------------|
G|-------------------------------|-------------------------------|
D|-------------------------------|-------------------------------|
A|-------------------------------|-------------------------------|
E|7-------7-------7-------7---5--|3-------3-------3-------3---5--|
  Bm                                 G       C  Dmsus4 C     G
e|------- ------- ------- -------|------- ------- ------- -------|
B|3-------3----------3-------3---|---3-------5---/6----5-----3---|
G|4-------4----------4-------4---|---4-------5---/7----5-----4---|
D|4-------4----------4-------4---|---5-------5---/5----5-----5---|
A|2-------2----------2-------2---|-------------------------------|
E|-------------------------------|-------------------------------|
   Baby   you can drive       car
                      my

  Bm                              G
e|------- ------- ------- -------|------- ------- ------- -------|
B|-------------------------------|-------------------------------|
G|-------------------------------|-------------------------------|
D|-------------------------------|-------------------------------|
A|-------------------------------|-------------------------------|
E|7-------7-------7-----7-7---5--|3-------3-------3-------3---5--|
  Bm                                 G       C  Dmsus4 C     G
e|2------ ------- ------- -------|------- ------- ------- -------|
B|3-------3----------3-------3---|---3-------5---/6----5-----3---|
G|4-------4----------4-------4---|---4-------5---/7----5-----4---|
D|--------4----------4-------4---|---5-------5---/5----5-----5---|
A|-------------------------------|-------------------------------|
E|-------------------------------|-------------------------------|
  yes I'm gonna   be  a       star


  Bm                              Em              A
e|------- ------- ------- -------|------- ------- ------- -------|
B|-------------------------------|-------------------------------|
G|-------------------------------|-------------------------------|
D|-------------------------------|-------------------------------|
A|-------------------------------|----------------0--------------|
E|7-------7-------7-------7------|0---2---3---0-------3---2---0--|
  Bm                              Em              A
e|2------ ------- ------- -------|------- ------- ------- -------|
B|3-------3--------3---------3---|----0------0----2--------------|
G|4-------4--------4---------4---|----0------0----2--------------|
D|--------4--------4---------4---|----2------2----2--------------|
A|-------------------------------|----2------2----0--------------|
E|-------------------------------|0------------------------------|
   Baby   you can drive      car              and maybe   I   love
                      my    


  D                               A
e|------- ------- ------- -------|------- ------- ------- -------|
B|-------------------------------|-------------------------------|
G|-------------------------------|-------------------------------|
D|-------------------------------|-------------------------------|
A|5-------5-----------5----------|--------------------7----------|
E|--------------5/7-------7---3--|5-------5-----5/9-------9---5--|
  D               G           A
e|2------ 2------ ------- -------|------- ------- ------- -------|
B|3-------3-------0-------0---2--|-------------------------------|
G|2-------2-------0-------0---2--|-------------------------------|
D|0-------0-------0-------0---2--|-------------------------------|
A|----------------------------0--|-------------------------------|
E|----------------3-------3------|-------------------------------|

e|------- ------- ------- -------|------- ------- ------- -------|
B|-------------------------------|-------------------------------|
G|-------------------------------|-------------------------------|
D|-------------------------------|-------------------------------|
A|-------------------------------|----------------------------12-|
E|-------------------------------|-------------------------------|
      you                             BeepBeep'mm BeepBeep    Yeah




  01:07                         
  SOLO  (Use a slide [Standard tuning].)

  D                               G
e|------- ------- ------- -------|------- ------- ------- -------|
B|-------------------------------|-------------------------------|
G|----------13/15------13\12--10-|12------12---12-10B1112--------|
D|10---/--12---------12----------|-------------------------------|
A|-------------------------------|----------------------------12-|
E|-------------------------------|-------------------------------|

  D                               G
e|------- ------- ------- -------|------- ------- ------- -------|
B|-------------------------------|-------------------------------|
G|----------13/15------13\12--10-|12------12---12-10B11----------|
D|10---/--12---------12----------|---------------------12\-------|
A|-------------------------------|----------------------------12-|
E|-------------------------------|-------------------------------|

  D                               G
e|------- ------- ------- -------|------- ------- ------- -------|
B|-------------------------------|-------------------------------|
G|----------13/15------13\12--10-|12------12---12-10B11----------|
D|10--/---12---------12----------|---------------------12--------|
A|-------------------------------|-------------------------------|
E|-------------------------------|-------------------------------|

  A
e|------- ------- ------- -------|------- ------- ------- -------|
B|10------10---/--13--13-/15--15-/18-13---/--15------------------|
G|-------------------------------|-------------------------------|
D|-------------------------------|-------------------------------|
A|-------------------------------|-------------------------------|
E|-------------------------------|-------------------------------|


  01:23
  CHORUS

  Bm                      G
  Baby you can drive my car
  Bm                    G
  Yes I'm gonna be a star
  Bm                      Em 
  Baby you can drive my car
      A          D       G  A
  And maybe I love you


  01:39
  VERSE

  D                   G
  I told a girl I can start right away
  D                              G
  And she said listen babe I got something to say
  D                     G
  I got no car and it's breaking my heart
  A
  But I've found a driver and that's a start

  01:54
  CHORUS

  Bm                      G
  Baby you can drive my car
  Bm                    G
  Yes I'm gonna be a star
  Bm                      Em
  Baby you can drive my car
    A          D     G A
  And maybe I love you


  02:08
  CODA
                                  D               G          
e|------- ------- ------- -------|------- ------- ------- -------|
B|-------------------------------|-------------------------------|
G|-------------------------------|-------------------------------|
D|-------------------------------|-------------------------------|
A|-------------------------------|5-------5----------5-----------|
E|-------------------------------|--------------/-7-----\-5--3---|

e|------- ------- ------- -------|------- ------- ------- -------|
B|-------------------------------|3-------3----------0-------0---|
G|-------------------------------|2-------2----------0-------0---|
D|-------------------------------|0-------0----------0-------0---|
A|-------------------------------|-------------------------------|
E|-------------------------------|----------------3--------------|
      Beepbeep'mm Beepbeep   Yeah



  A                               D               G
e|------- ------- ------- -------|------- ------- ------- -------|
B|-------------------------------|-------------------------------|
G|-------------------------------|-------------------------------|
D|-------------------------------|-------------------------------|
A|-------------------7----9-7----|5-------5----------5-----------|
E|5-------5----5-/9-----------9--|--------------/-7-----\-5--3---|

e|------- ------- ------- -------|------- ------- ------- -------|
B|2-------2-----------2-------2--|3-------3-----------0-------0--|
G|2-------2-----------2-------2--|2-------2-----------0-------0--|
D|2-------2-----------2-------2--|0-------0-----------0-------0--|
A|0---------------0--------------|-------------------------------|
E|-------------------------------|----------------3--------------|
      Beepbeep'mm Beepbeep   Yeah



  A                               D               G
e|------- ------- ------- -------|------- ------- ------- -------|
B|-------------------------------|-------------------------------|
G|-------------------------------|-------------------------------|
D|-------------------------------|-------------------------------|
A|-------------------7----9-7----|5-------5----------5-----------|
E|5-------5----5-/9-----------9--|--------------/-7-----\-5--3---|                          

e|------- ------- ------- -------|------- ------- ------- -------|
B|2-------2-----------2-------2--|3-------3-----------0-------0--|
G|2-------2-----------2-------2--|2-------2-----------0-------0--|
D|2-------2-----------2-------2--|0-------0-----------0-------0--|
A|0---------------0--------------|-------------------------------|
E|-------------------------------|----------------3--------------|
      Beep beep'm beep beep   yeah
                                  ............. Fade ............


  A                               D               G
e|------- ------- ------- -------|------- ------- ------- -------|
B|-------------------------------|-------------------------------|
G|-------------------------------|-------------------------------|
D|-------------------------------|-------------------------------|
A|-------------------7----9-7----|5-------5----------5-----------|
E|5-------5----5-/9-----------9--|--------------/-7-----\-5--3---|

e|------- ------- ------- -------|------- ------- ------- -------|
B|2-------2-----------2-------2--|3-------3-----------0-------0--|
G|2-------2-----------2-------2--|2-------2-----------0-------0--|
D|2-------2-----------2-------2--|0-------0-----------0-------0--|
A|0---------------0--------------|-------------------------------|
E|-------------------------------|----------------3--------------|
      Beep beep'm beep beep   yeah     
  ...............................................................


  A                               D               G
e|------- ------- ------- -------|------- ------- ------- -------|
B|-------------------------------|-------------------------------|
G|-------------------------------|-------------------------------|
D|-------------------------------|-------------------------------|
A|-------------------7----9-7----|5-------5----------5-----------|
E|5-------5----5-/9-----------9--|--------------/-7-----\-5--3---|

e|------- ------- ------- -------|------- ------- ------- -------|
B|2-------2-----------2-------2--|3-------3-----------0-------0--|
G|2-------2-----------2-------2--|2-------2-----------0-------0--|
D|2-------2-----------2-------2--|0-------0-----------0-------0--|
A|0---------------0--------------|-------------------------------|
E|-------------------------------|----------------3--------------|
      Beep beep'm beep beep   yeah     
  ...............................................................







        B  Bend
        R  Release
        /  Slide up
        \  Slide down
        H  Hammer-on
        P  Pull-off
        ~  Vibrato
        +  Harmonic
        x  Mute note
        .  Play note like a dot in standard notation
        ^  Ties two notes together
       (.  Pause



  -------------------------------------------------------------

  THE BEATLES - NORWEGIAN WOOD (Lennon & McCartney) From RUBBER 
                SOUL album. Released on 3rd December 1965.

  -------------------------------------------------------------

  Tabbed by:PJVillanueva

 

      

  I once had a girl, or should I say, she once had me...
  She showed me her room, isn't it good, norwegian wood?

  She asked me to stay and she told me to sit anywhere,
  So I looked around and I noticed there wasn't a chair.

  I sat on a rug, biding my time, drinking her wine.
  We talked until two and then she said, "It's time for bed"

  She told me she worked in the morning and started to laugh.
  I told her I didn't and crawled off to sleep in the bath

  And when I awoke, I was alone, this bird had flown
  So I lit a fire, isn't it good, norwegian wood.




    1st guitar uses a capo on the second 
    fret, except for the middle eight.
    2nd guitar uses a capo on the second 
    fret through the whole song.


  
    12/8


    INTRO
                              
  D
e|2-------- 2----2--- 2----2---|2-------- --------- ---------|
B|3---------3----3----3----3---|3-------------------3--------|
G|2---------2----2----2----2---|2--H-4--P-2---------0--------|
D|0----------------------------|--------------------0--------|
A|0----------------------------|-----------------------------|
E|-----------------------------|-----------------------------|



e|2-------- 2----2--- 2--------|--------- --------- ---------|
B|3---------3----3----3--------|----------3---------3--------|
G|2---------2----2----2--------|----------0---------0--------|
D|4----------------------------|2-------------------4--------|
A|-----------------------------|-----------------------------|
E|-----------------------------|-----------------------------|



e|2-------- 2----2--- 2--------|--------- 0-------- ---------|
B|3---------3----3----3--------|----------3---------3--------|
G|2---------2----2----2--------|----------0---------0--------|
D|0----------------------------|--------------------0--------|
A|-----------------------------|3-------------------2--------|
E|-----------------------------|-----------------------------|



e|0--H-2--- 2----2--- 2--------|2-------- 2----2--- 2----2---|
B|3---------3----3----3--------|3---------3----3----3----3---|
G|0--H-2----2----2----2--------|2---------2----2----2----2---|
D|0---------0----0----0--------|0---------0----0----0----0---|
A|0---------0----0----0--------|0---------0----0----0----0---|
E|-----------------------------|-----------------------------|



e|2-------- 2----2--- 2--------|2-------- --------- ---------|  
B|3---------3----3----3--------|3-------------------3--------|
G|2---------2----2----2--------|2--H-4--P-2---------0--------|
D|0----------------------------|--------------------0--------|
A|0----------------------------|-----------------------------|
E|-----------------------------|-----------------------------|

e|5-------- --------- ---------|5H7------ 5-------- ---------|
B|-----------------------------|--------------------8--------|
G|-----------------------------|-----------------------------|
D|-----------------------------|-----------------------------|
A|-----------------------------|-----------------------------|
E|-----------------------------|-----------------------------|



e|2-------- 2----2--- 2--------|--------- --------- ---------|
B|3---------3----3----3--------|----------3---------3--------|
G|2---------2----2----2--------|----------0---------0--------|
D|4----------------------------|2-------------------4--------|
A|-----------------------------|-----------------------------|
E|-----------------------------|-----------------------------|

e|--------- --------- ---------|--------- --------- ---------|
B|7----------------------------|5-------7B8---------7--------|
G|-----------------------------|-----------------------------|
D|-----------------------------|-----------------------------|
A|-----------------------------|-----------------------------|
E|-----------------------------|-----------------------------|



e|2-------- 2----2--- 2--------|--------- 0-------- ---------|
B|3---------3----3----3--------|----------3---------3--------|
G|2---------2----2----2--------|----------0---------0--------|
D|0----------------------------|-----------------------------|
A|-----------------------------|3-------------------2--------|
E|-----------------------------|-----------------------------|

e|--------- --------- ---------|--------- 3-------- ---------|
B|3----------------------------|-----------------------------|
G|----------------------------4B5-------------------4--------|
D|-----------------------------|-----------------------------|
A|-----------------------------|-----------------------------|
E|-----------------------------|-----------------------------|



e|0--H-2--- 2----2--- 2--------|2-------- 2----2--- 2--------|
B|3---------3----3----3--------|3---------3----3----3--------|
G|0--H-2----2----2----2--------|2---------2----2----2--------|
D|0---------0----0----0--------|0---------0----0----0--------|
A|0---------0----0----0--------|0---------0----0----0--------|
E|-----------------------------|-----------------------------|

e|--------- --------- ---------|--------- --------- ---------|
B|-----------------------------|-----------------------------|
G|2----------------------------|-----------------------------|
D|-----------------------------|-----------------------------|
A|-----------------------------|-----------------------------|
E|-----------------------------|-----------------------------|


  VERSE

e|2-------- 2----2--- 2--------|--------- --------- ---------|     
B|3---------3----3----3--------|3------------------------3---|
G|2---------2----2----2--------|2------------------------2---|
D|0---------0----0----0--------|0------------------------0---|
A|0---------0----0----0--------|0------------------------0---|
E|-----------------------------|-----------------------------|
 
e|--------- --------- ---------|--------- 5-------- 5--------|
B|----------3---------3--------|----------3---------3--------|
G|-----------------------------|----------2---------2--------|
D|0----------------------------|0----------------------------|
A|-----------------------------|-----------------------------|
E|-----------------------------|-----------------------------|
  I                             once      had       a    girl



e|2----2--- -----2--- 2----2---|--------- --------- ---------|
B|3----3---------3----3----3---|3---------3------------------|
G|2----2---------2----2----2---|2---------2------------------|
D|0----0---------0----0----0---|0---------0------------------|
A|0----0---------0----0----0---|0---------0------------------|
E|-----------------------------|-----------------------------|

e|--------- 5-------- 5--------|--------- 5-------- 5--------|
B|----------3---------3--------|----------3---------3--------|
G|----------2---------2--------|----------2---------2--------|
D|0----------------------------|0----------------------------|
A|-----------------------------|-----------------------------|
E|-----------------------------|-----------------------------| 
                                or        should I



e|2-------- 2----2--- 2--------|--------- --------- ---------|
B|3---------3----3----3--------|3---------3---------3--------|
G|2---------2----2----2--------|2---------2---------2--------|
D|0---------0----0----0--------|0---------0---------0--------|
A|0---------0----0----0--------|0---------0---------0--------|
E|-----------------------------|-----------------------------|

e|--------- 5-------- 5--------|--------- 5-------- 5--------|
B|----------3---------3--------|----------3---------3--------|
G|----------2---------2--------|----------2---------2--------|
D|0----------------------------|0----------------------------|
A|-----------------------------|-----------------------------|
E|-----------------------------|-----------------------------|
  say,                          she       once      had 



e|2-------- -----2--- ---------|2-------- -----2--- 2--------|
B|3--------------3-------------|3--------------3----3--------|
G|2--------------2-------------|2--------------2----2--------|
D|0--------------0-------------|0--------------0----0--------|
A|0--------------0-------------|0--------------0----0--------|
E|-----------------------------|-----------------------------|
  
e|--------- 5-------- 5--------|--------- 5-------- 5--------|
B|----------3---------3--------|----------3---------3--------|
G|----------2---------2--------|----------2---------2--------|
D|0----------------------------|0----------------------------|
A|-----------------------------|-----------------------------|
E|-----------------------------|-----------------------------|

e|--------- --------- ---------|--------- 3-------- ---------|
B|-----------------------------|-----------------------------|
G|-------------------------4--B|5-------------------4--------|
D|-----------------------------|-----------------------------|
A|-----------------------------|-----------------------------|
E|-----------------------------|-----------------------------|
  me



e|2----2---------2--- 2--------|--------- --------- ---------|
B|3----3---------3----3--------|3-------------------3--------|
G|2----2---------2----2--------|2-------------------2--------|
D|0----0---------0----0--------|0-------------------0--------|
A|0----0---------0----0--------|0-------------------0--------|
E|-----------------------------|-----------------------------|

e|--------- 5-------- 5--------|--------- 5-------- 5--------|
B|----------3---------3--------|----------3---------3--------|
G|----------2---------2--------|----------2---------2--------|
D|0----------------------------|0----------------------------|
A|-----------------------------|-----------------------------|
E|-----------------------------|-----------------------------|

e|--------- --------- ---------|--------- --------- ---------|
B|-----------------------------|-----------------------------|
G|2----------------------------|-----------------------------|
D|-----------------------------|-----------------------------|
A|-----------------------------|-----------------------------|
E|-----------------------------|-----------------------------|
  She                           showed    me        her



e|2----2--- -----2--- 2--------|--------- --------- ---------|
B|3----3---------3----3--------|----------3------------------|
G|2----2---------2----2--------|----------2------------------|
D|0----0---------0----0--------|----------0------------------|
A|0----0---------0----0--------|----------0------------------|
E|-----------------------------|-----------------------------|

e|--------- 5-------- 5--------|--------- 5-------- ---------|
B|----------3---------3--------|----------3------------------|
G|----------2---------2--------|----------2------------------|
D|0----------------------------|0----------------------------|
A|-----------------------------|-----------------------------|
E|-----------------------------|-----------------------------|
  room                          isn't               it     



e|2-------- 2----2--- 2--------|--------- 0-------- ---------|
B|3---------3----3----3--------|----------3------------------|
G|2---------2----2----2--------|----------0------------------|
D|0---------0----0----0--------|----------0------------------|
A|0---------0----0----0--------|----------0------------------|
E|-----------------------------|-----------------------------|

e|--------- 5-------- 5--------|--------- 5-------- 5--------|
B|----------3---------3--------|----------3---------3--------|
G|----------2---------2--------|----------2---------2--------|
D|0----------------------------|0----------------------------|
A|-----------------------------|-----------------------------|
E|-----------------------------|-----------------------------|
  good                          norwegian



e|0--H-2--- 2----2--- 2--------|2-------- 2----2--- 2--------|
B|3---------3----3----3--------|3---------3----3----3--------|
G|0--H-2----2----2----2--------|2---------2----2----2--------|
D|0---------0----0----0--------|0---------0----0----0--------|
A|0---------0----0----0--------|0---------0----0----0--------|
E|-----------------------------|-----------------------------|

e|--------- 5-------- 5--------|--------- 5-------- 5--------|
B|----------3---------3--------|----------3---------3--------|
G|----------2---------2--------|----------2---------2--------|
D|0----------------------------|0----------------------------|
A|-----------------------------|-----------------------------|
E|-----------------------------|-----------------------------|

e|--------- --------- ---------|--------- 3-------- ---------|
B|-----------------------------|-----------------------------|
G|-------------------------4--B|5-------------------4--------|
D|-----------------------------|-----------------------------|
A|-----------------------------|-----------------------------|
E|-----------------------------|-----------------------------|
  wood                                              She


   MIDDLE EIGHT
  (1st guitar isn't capoed. 2nd is)
  
  Em
e|0-------- 0----0--- 0--------|0----0--- -----0--- -----0---|    
B|0---------0----0----0--------|0----0---------0---------0---|
G|0---------0----0----0--------|0----0---------0---------0---|
D|2---------2----2----2--------|2----2---------2---------2---|
A|2---------2----2----2--------|2----2---------2---------2---|
E|0---------0----0----0--------|0----0---------0---------0---|
  asked     me        to        stay      and       she
  Dm
e|1-------- --------- ---------|1-------- 1-------- 1--------|
B|3----------------------------|3---------3---------3--------|
G|2----------------------------|2---------2---------2--------|
D|0----------------------------|0---------0---------0--------|
A|-----------------------------|-----------------------------|
E|-----------------------------|-----------------------------|

e|--------- --------- ---------|--------- --------- ---------|
B|-----------------------------|-----------------------------|
G|2----------------------------|-----------------------------|
D|-----------------------------|-----------------------------|
A|-----------------------------|-----------------------------|
E|-----------------------------|-----------------------------|




e|0-------- 0----0--- 0--------|0----0--- -----0--- -----0---|
B|0---------0----0----0--------|0----0---------0---------0---|
G|0---------0----0----0--------|0----0---------0---------0---|
D|2---------2----2----2--------|2----2---------2---------2---|
A|2---------2----2----2--------|2----2---------2---------2---|
E|0---------0----0----0--------|0----0---------0---------0---|

e|1-------- --------- ---------|1-------- --------- ---------|
B|3----------------------------|3----------------------------|
G|2----------------------------|2----------------------------|
D|0----------------------------|0----------------------------|
A|-----------------------------|-----------------------------|
E|-----------------------------|-----------------------------|
  told      me        to        sit anywhere


  A
e|5-------- 5----5--- 5--------|5-------- 5----5--- -----5---|
B|5---------5----5----5--------|5---------5----5---------5---|
G|6---------6----6----6--------|6---------6----6---------6---|
D|7---------7----7----7--------|7---------7----7---------7---|
A|7---------7----7----7--------|7---------7----7---------7---|
E|5---------5----5----5--------|5---------5----5---------5---|
  G
e|3-------- --------- ---------|3-------- 3-------- 3--------|
B|3----------------------------|3---------3---------3--------|
G|4----------------------------|4---------4---------4--------|
D|5----------------------------|5---------5---------5--------|
A|-----------------------------|-----------------------------|
E|-----------------------------|-----------------------------|




e|5-------- 5----5--- -----5---|5----5--- -----5--- 5--------|
B|5---------5----5---------5---|5----5---------5----5--------|
G|6---------6----6---------6---|6----6---------6----6--------|
D|7---------7----7---------7---|7----7---------7----7--------|
A|7---------7----7---------7---|7----7---------7----7--------|
E|5---------5----5---------5---|5----5---------5----5--------|
                                                    
e|3-------- --------- ---------|--------- --------- ---------|
B|3----------------------------|-----------------------------|
G|4----------------------------|-----------------------------|
D|5----------------------------|-----------------------------|
A|-----------------------------|-----------------------------|
E|-----------------------------|-----------------------------|
                                                    So


  Em
e|0-------- 0----0--- -----0---|-----0--- -----0--- -----0---|    
B|0---------0----0---------0---|-----0---------0---------0---|
G|0---------0----0---------0---|-----0---------0---------0---|
D|2---------2----2---------2---|-----2---------2---------2---|
A|2---------2----2---------2---|-----2---------2---------2---|
E|0---------0----0---------0---|-----0---------0---------0---|
  Dm
e|1-------- --------- ---------|1-------- 1-------- 1--------|
B|3----------------------------|3---------3---------3--------|
G|2----------------------------|2---------2---------2--------|
D|0----------------------------|0---------0---------0--------|
A|-----------------------------|-----------------------------|
E|-----------------------------|-----------------------------|
  I         looked    around              and I



e|-----0--- -----0--- 0--------|0----0--- -----0--- 0--------|
B|-----0---------0----0--------|0----0---------0----0--------|
G|-----0---------0----0--------|0----0---------0----0--------|
D|-----2---------2----2--------|2----2---------2----2--------|
A|-----2---------2----2--------|2----2---------2----2--------|
E|-----0---------0----0--------|0----0---------0----0--------|

e|1-------- --------- ---------|1-------- --------- ---------|
B|3----------------------------|3----------------------------|
G|2----------------------------|2----------------------------|
D|0----------------------------|0----------------------------|
A|-----------------------------|-----------------------------|
E|-----------------------------|-----------------------------|
  noticed             there     wasn't              a  chair


  F#m7
e|2-------- 2----2--- 2--------|2----2--- -----2--- 2--------|
B|5---------5----5----5--------|5----5---------5----5--------|
G|2---------2----2----2--------|2----2---------2----2--------|
D|4---------4----4----4--------|4----4---------4----4--------|
A|4---------4----4----4--------|4----4---------4----4--------|
E|2---------2----2----2--------|2----2---------2----2--------|
  Em7
e|0-------- --------- ---------|0-------- 0-------- 0--------|
B|3----------------------------|3---------3---------3--------|
G|0----------------------------|0---------0---------0--------|
D|2----------------------------|2---------2---------2--------|
A|-----------------------------|-----------------------------|
E|-----------------------------|-----------------------------|



  B
e|2-------- 2----2--- 2----2---|2-------- 2----2--- 2----2---|
B|4---------4----4----4----4---|4---------4----4----4----4---|
G|4---------4----4----4----4---|4---------4----4----4----4---|
D|4---------4----4----4----4---|4---------4----4----4----2---|
A|2---------2----2----2----2---|2---------2----2----2----2---|
E|-----------------------------|-----------------------------|
  A
e|5-------- --------- ---------|--------- --------- ---------|
B|2----------------------------|2---------3---------5--------|
G|2----------------------------|2----------------------------|
D|2----------------------------|2----------------------------|
A|-----------------------------|-----------------------------|
E|-----------------------------|-----------------------------|         


    VERSE
  ( Both guitars capoed

  D  
e|2-------- 2----2--- 2--------|2-------- --------- 2--------|
B|3---------3----3----3--------|3-------------------3--------|
G|2---------2----2----2--------|2-------------------2--------|
D|0---------0----0----0--------|0-------------------0--------|
A|0---------0----0----0--------|0-------------------0--------|
E|-----------------------------|-----------------------------|

e|--------- 5-------- 5--------|--------- 5-------- 5--------|
B|----------3---------3--------|----------3---------3--------|
G|----------2---------2--------|----------2---------2--------|
D|0----------------------------|0----------------------------|
A|-----------------------------|-----------------------------|
E|-----------------------------|-----------------------------|

e|2-------- --------- ---------|--------- --------- ---------|
B|-----------------------------|-----------------------------|
G|-----------------------------|-----------------------------|
D|-----------------------------|-----------------------------|
A|-----------------------------|-----------------------------|
E|-----------------------------|-----------------------------|

e|--------- --------- ---------|--------- --------- ---------|
B|-----------------------------|-----------------------------|
G|-----------------------------|-----------------------------|
D|0----------------------------|-----------------------------|
A|0----------------------------|-----------------------------|
E|-----------------------------|-----------------------------|
  I                             sat       on        a  



e|2-------- -----2--- 2--------|--------- 2-------- 2--------|
B|3--------------3----3--------|3---------3---------3--------|
G|2--------------2----2--------|2---------2---------2--------|
D|0--------------0----0--------|0---------0---------0--------|
A|0--------------0----0--------|0---------0---------0--------|
E|-----------------------------|-----------------------------|
 
e|--------- 5-------- 5--------|--------- 5-------- 5--------|
B|----------3---------3--------|----------3---------3--------|
G|----------2---------2--------|----------2---------2--------|
D|0----------------------------|0----------------------------|
A|-----------------------------|-----------------------------|
E|-----------------------------|-----------------------------| 
  rug                           biding              my  



e|2-------- 2----2--- 2--------|--------- 0-------- ---------|
B|3---------3----3----3--------|----------3------------------|
G|2---------2----2----2--------|----------0------------------|
D|0---------0----0----0--------|----------0------------------|
A|0---------0----0----0--------|----------0------------------|
E|-----------------------------|-----------------------------|

e|--------- 5-------- 5--------|--------- 5-------- 5--------|
B|----------3---------3--------|----------3---------3--------|
G|----------2---------2--------|----------2---------2--------|
D|0----------------------------|0----------------------------|
A|-----------------------------|-----------------------------|
E|-----------------------------|-----------------------------|

e|--------- --------- ---------|--------- --------- ---------|
B|-----------------------------|-----------------------------|
G|-----------------------------|-----------------------------|
D|0----------------------------|-----------------------------|
A|0----------------------------|-----------------------------|
E|-----------------------------|-----------------------------|
   time                         drinking            her 



e|2-------- -----2--- 2----2---|2-------- 2----2--- 2--------|
B|3--------------3----3----3---|3---------3----3----3--------|
G|2--------------2----2----2---|2---------2----2----2--------|
D|0--------------0----0----0---|0---------0----0----0--------|
A|0--------------0----0----0---|0---------0----0----0--------|
E|-----------------------------|-----------------------------|
  
e|--------- 5-------- 5--------|--------- --------- ---------|
B|----------3---------3--------|-----------------------------|
G|----------2---------2--------|----------0------------------|
D|0----------------------------|-----------------------------|
A|-----------------------------|3-------------------2--------|
E|-----------------------------|-----------------------------|
  wine



e|2-------- -----2--- 2--------|2-------- --------- ---------|
B|3--------------3----3--------|3---------3---------3--------|
G|2--------------2----2--------|2---------2---------2--------|
D|0--------------0----0--------|0---------0---------0--------|
A|0--------------0----0--------|0---------0---------0--------|
E|-----------------------------|-----------------------------|

e|--------- 5-------- 5--------|--------- 5-------- 5--------|
B|----------3---------3--------|----------3---------3--------|
G|----------2---------2--------|----------2---------2--------|
D|0----------------------------|0----------------------------|
A|-----------------------------|-----------------------------|
E|-----------------------------|-----------------------------|

e|--------- --------- ---------|--------- --------- ---------|
B|-----------------------------|-----------------------------|
G|-----------------------------|-----------------------------|
D|0----------------------------|-----------------------------|
A|0----------------------------|-----------------------------|
E|-----------------------------|-----------------------------|
  We                            talked    until  



e|2-------- -----2--- 2--------|--------- 2-------- ---------|
B|3--------------3----3--------|3---------3------------------|
G|2--------------2----2--------|2---------2------------------|
D|0--------------0----0--------|0---------0------------------|
A|0--------------0----0--------|0---------0------------------|
E|-----------------------------|-----------------------------|

e|--------- 5-------- 5--------|--------- 5-------- 5--------|
B|----------3---------3--------|----------3---------3--------|
G|----------2---------2--------|----------2---------2--------|
D|0----------------------------|0----------------------------|
A|-----------------------------|-----------------------------|
E|-----------------------------|-----------------------------|
  two                           and       then      she   



e|2-------- 2----2--- 2--------|--------- 0-------- ---------|
B|3---------3----3----3--------|----------3------------------|
G|2---------2----2----2--------|0---------0------------------|
D|0---------0----0----0--------|0---------0------------------|
A|0---------0----0----0--------|0---------0------------------|
E|-----------------------------|-----------------------------|

e|--------- 5-------- 5--------|--------- 5-------- ---------|
B|----------3---------3--------|----------3------------------|
G|----------2---------2--------|----------2------------------|
D|0----------------------------|0----------------------------|
A|-----------------------------|-----------------------------|
E|-----------------------------|-----------------------------|

e|--------- --------- ---------|--------- --------- ---------|
B|-----------------------------|-----------------------------|
G|-----------------------------|-----------------------------|
D|0----------------------------|-----------------------------|
A|0----------------------------|-----------------------------|
E|-----------------------------|-----------------------------|
  said                         "It's      time      for bed



e|--------- 2----2--- -----2---|2-------- 2-------- 2--------|
B|----------3----3---------3---|3---------3---------3--------|
G|2---------2----2---------2---|2---------2---------2--------|
D|0---------0----0---------0---|0---------0---------0--------|
A|0---------0----0---------0---|0---------0---------0--------|
E|-----------------------------|-----------------------------|
  
e|--------- 5-------- 5--------|5-------- 5-------- 5--------|
B|----------3---------3--------|3---------3---------3--------|
G|----------2---------2--------|2---------2---------2--------|
D|0----------------------------|-----------------------------|
A|-----------------------------|-----------------------------|
E|-----------------------------|-----------------------------|   



e|2-------- 2----2--- 2--------|2-------- --------- 0--------|
B|3---------3----3----3--------|3-------------------3--------|    
G|2---------2----2----2--------|2--H-4----2---------0--------|
D|0---------0----0----0--------|0-------------------0--------|
A|0---------0----0----0--------|-----------------------------|
E|-----------------------------|-----------------------------|

e|5-------- --------- ---------|5H7------ 5-------- ---------|
B|-----------------------------|--------------------8--------|
G|-----------------------------|-----------------------------|
D|-----------------------------|-----------------------------|
A|-----------------------------|-----------------------------|
E|-----------------------------|-----------------------------|



e|2-------- 2----2--- 2--------|--------- 0-------- ---------|
B|3---------3----3----3--------|3---------3------------------|
G|2---------2----2----2--------|0---------0------------------|
D|4----------------------------|2-------------------4--------|
A|-----------------------------|-----------------------------|
E|-----------------------------|-----------------------------|

e|--------- --------- ---------|--------- --------- ---------|
B|7----------------------------|5-------7B8---------7--------|
G|-----------------------------|-----------------------------|
D|-----------------------------|-----------------------------|
A|-----------------------------|-----------------------------|
E|-----------------------------|-----------------------------|



e|2-------- -----2--- ---------|--------- 0-------- ---------|
B|3--------------3-------------|----------3---------3--------|
G|2--------------2-------------|----------0---------0--------|
D|0--------------0-------------|--------------------0--------|
A|0--------------0-------------|3-------------------2--------|
E|-----------------------------|-----------------------------|

e|--------- --------- ---------|--------- 3-------- ---------|
B|3----------------------------|-----------------------------|
G|----------------------------4B5-------------------4--------|
D|-----------------------------|-----------------------------|
A|-----------------------------|-----------------------------|
E|-----------------------------|-----------------------------|



e|0--H-2--- 2----2--- 2----2---|2-------- 2----2--- 2--------|  
B|3---------3----3----3----3---|3---------3----3----3--------|
G|0--H-2----2----2----2----2---|2---------2----2----2--------|
D|0---------0----0----0----0---|0---------0----0----0--------|
A|0---------0----0----0----0---|0---------0----0----0--------|
E|-----------------------------|-----------------------------|

e|--------- --------- ---------|--------- --------- ---------|
B|-----------------------------|-----------------------------|
G|2----------------------------|2----------------------------|
D|-----------------------------|-----------------------------|
A|-----------------------------|-----------------------------|
E|-----------------------------|-----------------------------|  



e|2-------- 2----2--- 2--------|--------- --------- 0--------|  
B|3---------3----3----3--------|----------3---------3--------|
G|2---------2----2----2--------|2--H-4----2---------0--------|
D|0---------0----0----0--------|----------0---------0--------|
A|0---------0----0----0--------|-----------------------------|
E|-----------------------------|-----------------------------|

e|5-------- --------- ---------|5H7------ 5-------- ---------|
B|-----------------------------|--------------------8--------|
G|-----------------------------|-----------------------------|
D|-----------------------------|-----------------------------|
A|-----------------------------|-----------------------------|
E|-----------------------------|-----------------------------|



e|2-------- 2----2--- 2--------|--------- 0-------- 0--------|
B|3---------3----3----3--------|----------3---------3--------|
G|2---------2----2----2--------|----------0---------0--------|
D|4----------------------------|2-------------------4--------|
A|-----------------------------|-----------------------------|
E|-----------------------------|-----------------------------|

e|--------- --------- ---------|--------- --------- ---------|
B|7----------------------------|5-------7B8---------7--------|
G|-----------------------------|-----------------------------|
D|-----------------------------|-----------------------------|
A|-----------------------------|-----------------------------|
E|-----------------------------|-----------------------------|



e|2-------- 2----2--- 2--------|--------- 0-------- ---------|
B|3---------3----3----3--------|----------3------------------|
G|2---------2----2----2--------|----------0------------------|
D|0---------0----0----0--------|----------0------------------|
A|-----------------------------|3-------------------2--------|
E|-----------------------------|-----------------------------|

e|--------- --------- ---------|--------- 3-------- ---------|
B|3----------------------------|-----------------------------|
G|----------------------------4B5-------------------4--------|
D|-----------------------------|-----------------------------|
A|-----------------------------|-----------------------------|
E|-----------------------------|-----------------------------|



e|0--H-2--- 2--- 2----2--------|2-------- -----2--- 2--------|  
B|3---------3----3----3--------|3--------------3----3--------|
G|0--H-2----2----2----2--------|2--------------2----2--------|
D|0---------0----0----0--------|0--------------0----0--------|
A|0---------0----0----0--------|0--------------0----0--------|
E|-----------------------------|-----------------------------|
                                                    She
e|--------- --------- ---------|--------- --------- ---------|
B|-----------------------------|-----------------------------|
G|2----------------------------|-----------------------------|
D|-----------------------------|-----------------------------|
A|-----------------------------|-----------------------------|
E|-----------------------------|-----------------------------|  



   MIDDLE EIGHT
  (1st guitar isn't capoed. 2nd is)
  
  Em
e|-----0--- 0----0--- 0--------|-----0--- 0----0--- 0--------|  
B|-----0----0----0----0--------|-----0----0----0----0--------|
G|-----0----0----0----0--------|-----0----0----0----0--------|
D|-----2----2----2----2--------|-----2----2----2----2--------|
A|-----2----2----2----2--------|-----2----2----2----2--------|
E|-----0----0----0----0--------|-----0----0----0----0--------|
  Dm
e|1-------- --------- ---------|1-------- 1-------- 1--------|
B|3----------------------------|3---------3---------3--------|
G|2----------------------------|2---------2---------2--------|
D|0----------------------------|0---------0---------0--------|
A|-----------------------------|-----------------------------|
E|-----------------------------|-----------------------------|

e|--------- --------- ---------|--------- --------- ---------|
B|-----------------------------|-----------------------------|
G|2----------------------------|-----------------------------|
D|-----------------------------|-----------------------------|
A|-----------------------------|-----------------------------|
E|-----------------------------|-----------------------------|
  told      me        she worked          in        the mor...



e|-----0--- 0----0--- 0--------|-----0--- 0----0--- 0--------|
B|-----0----0----0----0--------|-----0----0----0----0--------|
G|-----0----0----0----0--------|-----0----0----0----0--------|
D|-----2----2----2----2--------|-----2----2----2----2--------|
A|-----2----2----2----2--------|-----2----2----2----2--------|
E|-----0----0----0----0--------|-----0----0----0----0--------|

e|1-------- --------- ---------|1-------- 1-------- ---------|
B|3----------------------------|3---------3------------------|
G|2----------------------------|2---------2------------------|
D|0----------------------------|0---------0------------------|
A|-----------------------------|-----------------------------|
E|-----------------------------|-----------------------------|
  ..........ning      and       started             to   laugh.


  A
e|--------- 5----5--- 5--------|5-------- 5----5--- 5--------|
B|----------5----5----5--------|5---------5----5----5--------|
G|----------6----6----6--------|6---------6----6----6--------|
D|----------7----7----7--------|7---------7----7----7--------|
A|----------7----7----7--------|7---------7----7----7--------|
E|----------5----5----5--------|5---------5----5----5--------|
  G
e|3-------- --------- ---------|3-------- 3-------- 3--------|
B|3----------------------------|3---------3---------3--------|
G|4----------------------------|4---------4---------4--------|
D|5----------------------------|5---------5---------5--------|
A|-----------------------------|-----------------------------|
E|-----------------------------|-----------------------------|




e|5-------- 5----5--- 5----5---|5-------- 5-------- ---------|
B|5---------5----5----5----5---|5---------5------------------|
G|6---------6----6----6----6---|6---------6------------------|
D|7---------7----7----7----7---|7---------7------------------|
A|7---------7----7----7----7---|7---------7------------------|
E|5---------5----5----5----5---|5---------5------------------|
                                                      
e|3-------- --------- ---------|3-------- 3-------- 3--------|
B|3----------------------------|3---------3---------3--------|
G|4----------------------------|4---------4---------4--------|
D|5----------------------------|5---------5---------5--------|
A|-----------------------------|-----------------------------|
E|-----------------------------|-----------------------------|
                                                    I


  Em
e|0-------- 0----0--- 0--------|--------- 0----0--- 0--------|    
B|0---------0----0----0--------|----------0----0----0--------|
G|0---------0----0----0--------|----------0----0----0--------|
D|2---------2----2----2--------|----------2----2----2--------|
A|2---------2----2----2--------|----------2----2----2--------|
E|0---------0----0----0--------|----------0----0----0--------|
  Dm
e|1-------- --------- ---------|1-------- 1-------- 1--------|
B|3----------------------------|3---------3---------3--------|
G|2----------------------------|2---------2---------2--------|
D|0----------------------------|0---------0---------0--------|
A|-----------------------------|-----------------------------|
E|-----------------------------|-----------------------------|
  told      her       I         didn't              and 



e|--------- 0----0--- 0--------|-----0--- -----0--- 0--------|
B|----------0----0----0--------|-----0---------0----0--------|
G|----------0----0----0--------|-----0---------0----0--------|
D|----------2----2----2--------|-----2---------2----2--------|
A|----------2----2----2--------|-----2---------2----2--------|
E|----------0----0----0--------|-----0---------0----0--------| 

e|1-------- --------- ---------|1-------- 1-------- ---------|
B|3----------------------------|3---------3------------------|
G|2----------------------------|2---------2------------------|
D|0----------------------------|0---------0------------------|
A|-----------------------------|-----------------------------|
E|-----------------------------|-----------------------------|
  crawled   off       to        sleep in            the  bath


  F#m7
e|2-------- 2----2--- 2--------|2-------- 2-------- 2--------|
B|5---------5----5----5--------|5---------5---------5--------|
G|2---------2----2----2--------|2---------2---------2--------|
D|4---------4----4----4--------|4---------4---------4--------|
A|4---------4----4----4--------|4---------4---------4--------|
E|2---------2----2----2--------|2---------2---------2--------|
  Em7
e|0-------- --------- ---------|0-------- 0-------- 0--------|
B|3----------------------------|3---------3---------3--------|
G|0----------------------------|0---------0---------0--------|
D|2----------------------------|2---------2---------2--------|
A|-----------------------------|-----------------------------|
E|-----------------------------|-----------------------------|



  B
e|2-------- 2----2--- 2--------|2-------- --------- 2--------|
B|4---------4----4----4--------|4-------------------4--------|
G|4---------4----4----4--------|4-------------------4--------|
D|4---------4----4----4--------|4-------------------4--------|
A|2---------2----2----2--------|2-------------------2--------|
E|-----------------------------|-----------------------------|
  A
e|5-------- --------- ---------|--------- --------- ---------|
B|2----------------------------|2---------3---------5--------|
G|2----------------------------|-----------------------------|
D|2----------------------------|-----------------------------|
A|-----------------------------|-----------------------------|
E|-----------------------------|-----------------------------|    


  VERSE

  D
e|2-------- 2----2--- 2--------|2-------- --------- 2--------|
B|3---------3----3----3--------|3-------------------3--------|
G|2---------2----2----2--------|2-------------------2--------|
D|0---------0----0----0--------|0-------------------0--------|
A|0---------0----0----0--------|0-------------------0--------|
E|-----------------------------|-----------------------------|

e|--------- 5-------- 5--------|--------- 5-------- 5--------|
B|----------3---------3--------|----------3---------3--------|
G|----------2---------2--------|----------2---------2--------|
D|0----------------------------|0----------------------------|
A|-----------------------------|-----------------------------|
E|-----------------------------|-----------------------------|

e|2-------- --------- ---------|--------- --------- ---------|
B|-----------------------------|-----------------------------|
G|-----------------------------|-----------------------------|
D|-----------------------------|-----------------------------|
A|-----------------------------|-----------------------------|
E|-----------------------------|-----------------------------|

e|--------- --------- ---------|--------- --------- ---------|
B|-----------------------------|-----------------------------|
G|-----------------------------|-----------------------------|
D|0----------------------------|-----------------------------|
A|0----------------------------|-----------------------------|
E|-----------------------------|-----------------------------|
  And                           when      I         awoke



e|2-------- -----2--- 2--------|--------- 2-------- 2--------|
B|3--------------3----3--------|3---------3---------3--------|
G|2--------------2----2--------|2---------2---------2--------|
D|0--------------0----0--------|0---------0---------0--------|
A|0--------------0----0--------|0---------0---------0--------|
E|-----------------------------|-----------------------------|

e|--------- 2-------- 2--------|--------- 2-------- 2--------|
B|----------3---------3--------|----------3---------3--------|
G|----------2---------2--------|----------2---------2--------|
D|0----------------------------|0----------------------------|
A|-----------------------------|-----------------------------|
E|-----------------------------|-----------------------------| 
                                I         was       alone



e|2-------- 2----2--- 2--------|--------- 0-------- ---------|
B|3---------3----3----3--------|----------3------------------|
G|2---------2----2----2--------|----------0------------------|
D|0---------0----0----0--------|----------0------------------|
A|0---------0----0----0--------|----------0------------------|
E|-----------------------------|-----------------------------|

e|--------- 5-------- 5--------|--------- 0-------- ---------|
B|----------3---------3--------|----------3------------------|
G|----------2---------2--------|----------2------------------|
D|0----------------------------|0----------------------------|
A|-----------------------------|-----------------------------|
E|-----------------------------|-----------------------------|

e|--------- --------- ---------|--------- --------- ---------|
B|-----------------------------|-----------------------------|
G|-----------------------------|-----------------------------|
D|0----------------------------|-----------------------------|
A|0----------------------------|-----------------------------|
E|-----------------------------|-----------------------------|
                                this      bird      had



e|2-------- -----2--- 2----2---|2-------- 2----2--- 2--------|
B|3--------------3----3----3---|3---------3----3----3--------|
G|2--------------2----2----2---|2---------2----2----2--------|
D|0--------------0----0----0---|0---------0----0----0--------|
A|0--------------0----0----0---|0---------0----0----0--------|
E|-----------------------------|-----------------------------|

e|--------- 5-------- 5--------|--------- --------- ---------|
B|----------3---------3--------|-----------------------------|
G|----------2---------2--------|----------0------------------|
D|0----------------------------|-----------------------------|
A|-----------------------------|3-------------------2--------|
E|-----------------------------|-----------------------------|
  flown



e|2-------- -----2--- 2--------|2-------- --------- ---------|
B|3--------------3----3--------|3---------3---------3--------|
G|2--------------2----2--------|2---------2---------2--------|
D|0--------------0----0--------|0---------0---------0--------|
A|0--------------0----0--------|0---------0---------0--------|
E|-----------------------------|-----------------------------|

e|--------- 5-------- 5--------|--------- 5-------- 5--------|
B|-----------------------------|-----------------------------|
G|----------2---------2--------|----------2---------2--------|
D|0----------------------------|0----------------------------|
A|0----------------------------|-----------------------------|
E|-----------------------------|-----------------------------|

e|--------- --------- ---------|--------- --------- ---------|
B|-----------------------------|-----------------------------|
G|-----------------------------|-----------------------------|
D|0----------------------------|-----------------------------|
A|0----------------------------|-----------------------------|
E|-----------------------------|-----------------------------|
  So                            I         lit       a



e|2-------- -----2--- 2--------|--------- 2-------- ---------|
B|3--------------3----3--------|3---------3------------------|
G|2--------------2----2--------|2---------2------------------|
D|0--------------0----0--------|0---------0------------------|
A|0--------------0----0--------|0---------0------------------|
E|-----------------------------|-----------------------------|

e|--------- 5-------- 5--------|--------- 5-------- 5--------|
B|-----------------------------|-----------------------------|
G|----------2---------2--------|----------2---------2--------|
D|0----------------------------|0----------------------------|
A|-----------------------------|-----------------------------|
E|-----------------------------|-----------------------------|
  fire                          isn't               it    



e|2-------- 2----2--- 2--------|--------- 0-------- ---------|
B|3---------3----3----3--------|----------3------------------|
G|2---------2----2----2--------|0---------0------------------|
D|0---------0----0----0--------|0---------0------------------|
A|0---------0----0----0--------|0---------0------------------|
E|-----------------------------|-----------------------------|

e|--------- 5-------- 5--------|--------- 5-------- ---------|
B|-----------------------------|-----------------------------|
G|----------2---------2--------|----------2------------------|
D|0----------------------------|0----------------------------|
A|-----------------------------|-----------------------------|
E|-----------------------------|-----------------------------|

e|--------- --------- ---------|--------- --------- ---------|
B|-----------------------------|-----------------------------|
G|-----------------------------|-----------------------------|
D|0----------------------------|-----------------------------|
A|0----------------------------|-----------------------------|
E|-----------------------------|-----------------------------|
  good                          norwegian



e|--------- 2----2--- -----2---|2-------- 2-------- 2--------|
B|----------3----3---------3---|3---------3---------3--------|
G|2---------2----2---------2---|2---------2---------2--------|
D|0---------0----0---------0---|0---------0---------0--------|
A|0---------0----0---------0---|0---------0---------0--------|
E|-----------------------------|-----------------------------|
  
e|--------- 5-------- 5--------|--------- --------- 5--------|
B|-----------------------------|-----------------------------|
G|----------2---------2--------|----------2---------2--------|
D|0----------------------------|0----------------------------|
A|-----------------------------|-----------------------------|
E|-----------------------------|-----------------------------|   
  wood


e|2-------- 2----2--- 2--------|2-------- --------- 0--------|    
B|3---------3----3----3--------|3-------------------3--------|    
G|2---------2----2----2--------|2--B-4----2---------0--------|
D|0---------0----0----0--------|0-------------------0--------|
A|0---------0----0----0--------|0-------------------0--------|
E|-----------------------------|-----------------------------|

e|5-------- --------- ---------|5H7------ 5-------- ---------|
B|-----------------------------|--------------------8--------|
G|-----------------------------|-----------------------------|
D|-----------------------------|-----------------------------|
A|-----------------------------|-----------------------------|
E|-----------------------------|-----------------------------|




e|2----2--- -----2--- 2--------|0-------- 0-------- ---------|
B|3----3---------3----3--------|3---------3------------------|
G|2----2---------2----2--------|0---------0------------------|
D|0----0---------0----0--------|2-------------------4--------|
A|0----0---------0----0--------|-----------------------------|
E|-----------------------------|-----------------------------|

e|--------- --------- ---------|--------- --------- ---------|
B|7----------------------------|5-------7B8---------7--------|
G|-----------------------------|-----------------------------|
D|-----------------------------|-----------------------------|
A|-----------------------------|-----------------------------|
E|-----------------------------|-----------------------------|




e|2-------- -----2--- 2--------|--------- 0-------- 0--------|
B|3--------------3----3--------|----------3---------3--------|
G|2--------------2----2--------|----------0---------0--------|
D|0--------------0----0--------|----------0---------0--------|
A|0--------------0----0--------|3-------------------2--------|
E|-----------------------------|-----------------------------|

e|--------- --------- ---------|--------- 3-------- ---------|
B|3----------------------------|-----------------------------|
G|----------------------------4B5-------------------4--------|
D|-----------------------------|-----------------------------|
A|-----------------------------|-----------------------------|
E|-----------------------------|-----------------------------|


 (.

e|2-------- --------- ---------|--------- --------- ---------|  
B|3----------------------------|-----------------------------|
G|2----------------------------|-----------------------------|
D|0----------------------------|-----------------------------|
A|0----------------------------|-----------------------------|
E|-----------------------------|-----------------------------|

e|--------- --------- ---------|--------- --------- ---------|
B|-----------------------------|-----------------------------|
G|2----------------------------|-----------------------------|
D|-----------------------------|-----------------------------|
A|-----------------------------|-----------------------------|
E|-----------------------------|-----------------------------|  






        B  Bend
        R  Release
        /  Slide up
        \  Slide down
        H  Hammer-on
        P  Pull-off
        ~  Vibrato
        +  Harmonic
        x  Mute note
        .  Play note like a dot in standard notation
        ^  Ties two notes together
        (. Pause




  ---------------------------------------------------------------

  THE BEATLES - YOU WON'T SEE ME (Lennon & McCartney) from RUBBER
                SOUL album. Released on 3rd December 1965.

  ---------------------------------------------------------------

  Tabbed by:PJVillanueva





  When I call you up
  Your line's engaged
  I have had enough
  So act your age
  We have lost the time
  That was so hard to find
  And I will lose my mind
  If you won't see me (You won't see me)
  You won't see me (You won't see me)


  I don't know why
  You should want to hide
  But I can't get through
  My hands are tied
  I won't want to stay
  I don't have much to say
  But I can't turn away
  And you won't see me (You won't see me)
  You won't see me (You won't see me)

  Time after time
  You refuse to even listen
  I wouldn't mind
  If I knew what I was missing


  Though the days are few
  They're filled with tears
  And since I lost you
  It feels like years
  Yes, it seems so long
  Girl, since you've been gone
  And I just can't go on
  If you won't see me (You won't see me)
  You won't see me (You won't see me)

  Time after time
  You refuse to even listen
  I wouldn't mind
  If I knew what I was missing


  Though the days are few
  They're filled with tears
  And since I lost you
  It feels like years
  Yes, it seems so long
  Girl, since you've been gone
  And I just can't go on
  If you won't see me (You won't see me)
  You won't see me (You won't see me) Yeah






                                   Verse

  D       A¨¨¨¨¨¨¨¨¨¨¨¨¨¨¨¨¨¨¨¨¨¨¨¨¨¨¨¨¨¨¨¨ A
E|--------------------|--------------------|--------------------|
B|3-------2-----------|--------------------|5----5----5-5----5--|
G|2----2--2-----------|--------------------|6----6----6-6----6--|
D|0--4----2-----------|--------------------|7----7----7-7----7--|
A|--------0-----------|--------------------|--------------------|
E|--------------------|-----4----2----0----|--------------------|
                                   When I call             you up 

E|--------------------|--------------------|-----9---------9----|
B|--------------------|--------------------|----10--------10----|
G|--------------------|--------------------|-----9---------9----|
D|--------------------|--------------------|--------------------|
A|--------------------|--------------------|--------------------|
E|--------------------|--------------------|--------------------|
     


       B           D                    A
E|--------------------|--------------------|--------------------|
B|-----4----2--4---3--|-----2----0--3---2--|-----------2-3-4-5--|
G|-----4----4--4---2--|-----2----2------2--|-----------2---2-6--|
D|-----4----4--4---0--|-----0----0------2--|-----------2---2-7--|
A|--------------------|--------------------|--------------------|
E|--------------------|--------------------|--------------------|
                Your line's            engaged          I have had 

E|----11---------11---|-----10--------10---|-----9---------9----|
B|----12---------12---|-----10--------10---|----10--------10----|
G|----11---------11---|-----11--------11---|-----9---------9----|
D|--------------------|--------------------|--------------------|
A|--------------------|--------------------|--------------------|
E|--------------------|--------------------|--------------------|



                            B           D                    A
E|--------------------|--------------------|--------------------|
B|-----5----5--5---5--|-----4----2--4---3--|-----2----0--3---2--|
G|-----6----6--6---6--|-----4----4--4---2--|-----2----2------2--|
D|-----7----7--7---7--|-----4----4--4---0--|-----0----0------2--|
A|--------------------|--------------------|--------------------|
E|--------------------|--------------------|--------------------|
                   enough             so act             your  age

E|-----9---------9----|-----11--------11---|-----10--------10---|
B|----10--------10----|-----12--------12---|-----10--------10---|
G|-----9---------9----|-----11--------11---|-----11--------11---|
D|--------------------|--------------------|--------------------|
A|--------------------|--------------------|--------------------|
E|--------------------|--------------------|--------------------|



                   A7                            D           Dm
E|------------0----3--|-----3----3--3---2--|-----2------2--2-1--|
B|----------2-2----2--|-----2----2--2---3--|-----3------3--3-3--|
G|----------2-2----2--|-----2----2--2---2--|-----2------2--2-2--|
D|----------2---------|--------------------|--------------------|
A|--------------------|--------------------|--------------------|
E|--------------------|--------------------|--------------------|
            We have lost              the time                that

E|-----9---------9----|-----12--------12---|-----10--------10---|
B|----10--------10----|-----10--------10---|-----10--------10---|
G|-----9---------9----|-----12--------12---|-----11--------11---|
D|--------------------|--------------------|--------------------|
A|--------------------|--------------------|--------------------|
E|--------------------|--------------------|--------------------|



                   A                         
E|-----1----1--1---0--|-----0----0---------|0----0----0--0---0--|
B|-----3----3--3---2--|-----2----2----2--2-|2----2----2--2---2--|
G|-----2----2--2---2--|-----2----2----2--2-|2----2----2--2---2--|
D|--------------------|---------------2--2-|--------------------|
A|--------------------|--------------------|--------------------|
E|--------------------|--------------------|--------------------|
  was so     hard to find        and I will lose           my mind

E|-----10--------10---|-----9---------9----|----9----------9----|
B|-----10--------10---|----10--------10----|---10---------10----|
G|-----10--------10---|-----9---------9----|----9----------9----|
D|--------------------|--------------------|--------------------|
A|--------------------|--------------------|--------------------|
E|--------------------|--------------------|--------------------|



       B               D      A¨¨¨¨¨¨¨¨¨¨¨¨¨¨¨¨¨¨¨¨¨¨¨¨¨¨¨¨¨¨¨¨¨¨
E|-----2----2--2------|--------------------|--------------------|
B|-----4----2--4------|3------2------------|--------------------|
G|-----4----4--4------|2----2-2------------|--------------------|
D|--------------------|0--4---2------------|--------------------|
A|--------------------|-------0------------|0-------------------|
E|--------------------|--------------------|-----4----2----0----|
                   If  you   won't see me   
                                            (You  won't see me)
E|-----11--------11---|--------------------|--------------------|
B|-----12--------12---|--------------------|--------------------|
G|-----11--------11---|--------------------|--------------------|
D|--------------------|--------------------|--------------------|
A|--------------------|--------------------|--------------------|
E|--------------------|--------------------|--------------------|


                             
                                    Verse

  D      A¨¨¨¨¨¨¨¨¨¨¨¨¨¨¨¨¨¨¨¨¨¨¨¨¨¨¨¨¨¨¨¨¨ A                B
E|--------------------|--------------------|-----------------2--|
B|3------2------------|--------------------|5----5----5--5---4--|
G|2----2-2------------|--------------------|6----6----6--6---4--|
D|0--4---2------------|--------------------|7----7----7--7------|
A|-------0------------|0-------------------|--------------------|
E|--------------------|-----4----2----0----|--------------------|
  You   won't see me                I don't know           why you
                       (You  won't see me)           ( Ooooooooo

                   D                    A  
E|-----2----2--2------|--------------------|--------------------|
B|-----4----2--4---3--|-----2----0--3---2--|-----2----2-3-4-5---|
G|-----4----4--4---2--|-----2----2------2--|-----2----2---2-6---|
D|-----------------0--|-----0----0------2--|-----2----2---2-7---|
A|--------------------|--------------------|--------------------|
E|--------------------|--------------------|--------------------|
                should want           to hide              But I 
  ooooolaaa la  la          Oooooooooooooooooooo0laaa la  la)

                            B           D                     A
E|--------------------|-----2-----2--2-----|--------------------|
B|-----5----5--5---5--|-----4-----2--4--3--|-----2----0--3----2-|
G|-----6----6--6---6--|-----4-----4--4--2--|-----2----2-------2-|
D|-----7----7--7---7--|-----------------0--|-----0----0-------2-|
A|--------------------|--------------------|--------------------|
E|--------------------|--------------------|--------------------|
  can't       get through            my hands             are tied
  (Oooooooooooooooooooooooooola   la  la      Oooooooooooooooooo

                    A7                  D                    Dm
E|---------------0--3-|-----3----3--3---2--|-----2----2--2---1--|
B|-----2------2--2--2-|-----2----2--2---3--|-----3----3--3---3--|
G|-----2------2--2--2-|-----2----2--2---2--|-----2----2--2---2--|
D|-----2------2-------|--------------------|--------------------|
A|--------------------|--------------------|--------------------|
E|--------------------|--------------------|--------------------|
             I don't want              to stay                 I
  ooooolaaa la  la     Oooooooooooooooooooooooooolaaa la  la

                   A        
E|-----1----1--1---0--|-----0----0--0---0--|0----0----0--0---0--|
B|-----3----3--3---2--|-----2----2--2---2--|2----2----2--2---2--|
G|-----2----2--2---2--|-----2----2--2---2--|2----2----2--2---2--|
D|--------------------|--------------------|--------------------|
A|--------------------|--------------------|--------------------|
E|--------------------|--------------------|--------------------|
  don't have much to say          But I can turn              away
  Oooooooooooooooooooooooooolaaa la  la     Oooooooooooooooooooo

  B                    D      A¨¨¨¨¨¨¨¨¨¨¨¨¨¨¨¨¨¨¨¨¨¨¨¨¨¨¨¨¨¨¨¨¨
E|2----2----2--2------|--------------------|--------------------|
B|4----4----2--4------|3------2------------|--------------------|
G|4----4----4--4------|2----2-2------------|--------------------|
D|--------------------|0--4---2------------|--------------------|
A|--------------------|-------0------------|0-------------------|
E|--------------------|--------------------|-----4----2----0----|
                   and you   won't see me   
  ooooolaaa la  la)                         (You  won't see me)



                                           Middle eight

  D      A¨¨¨¨¨¨¨¨¨¨¨¨¨¨¨¨¨¨¨¨¨¨¨¨¨¨¨¨¨¨¨¨ * Bm
E|--------------------|--------------------|--------------------|
B|3------2------------|--------------------|3----3----3----3----|
G|2----2-2------------|--------------------|4----4----4----4----|
D|0--4---2------------|--------------------|4----4----4----4----|
A|-------0------------|0-------------------|--------------------|
E|--------------------|-----4----2----0----|--------------------|
  You   won't see me                        Time        after time
                       (You won't see me)

E|--------------------|--------------------|-----7---------7----|
B|--------------------|--------------------|-----7---------7----|
G|--------------------|--------------------|-----7---------7----|
D|--------------------|--------------------|--------------------|
A|--------------------|--------------------|--------------------|
E|--------------------|--------------------|--------------------|



  Dm                                        A
E|1----1----1----1----|1----1----1----1----|0----0----0----0----|
B|3----3----3----3----|3----3----3----3----|2----2----2----2----|
G|2----2----2----2----|2----2----2----2----|2----2----2----2----|
D|--------------------|--------------------|--------------------|
A|--------------------|--------------------|--------------------|
E|--------------------|--------------------|--------------------|
            you   refuse       to  even  listen

E|-----10--------10---|-----10--------10---|-----9---------9----|
B|-----10--------10---|-----10--------10---|----10--------10----|
G|-----10--------10---|-----10--------10---|-----9---------9----|
D|--------------------|--------------------|--------------------|
A|--------------------|--------------------|--------------------|
E|--------------------|--------------------|--------------------|




  B                                         E7
E|2----2----2----2----|2----2----2----2----|0----0----0----0----|
B|4----4----4----4----|4----4----4----4----|3----3----3----3----|
G|4----4----4----4----|4----4----4----4----|1----1----1----1----|
D|--------------------|--------------------|--------------------|
A|--------------------|--------------------|--------------------|
E|--------------------|--------------------|--------------------|
  I        wouldn't mind          if  I  knew   what  I was missing

E|-----7---------7----|-----7---------7----|-----7---------7----|
B|-----7---------7----|-----7---------7----|-----7---------7----|
G|-----8---------8----|-----8---------8----|-----7---------7----|
D|--------------------|--------------------|--------------------|
A|--------------------|--------------------|--------------------|
E|--------------------|--------------------|--------------------|



  Verse
                       A                B                    D
E|0----0----0----0----|-----------------2--|-----2----2--2------|
B|3----3----3----3----|5----5----5--5---4--|-----4----2--4---3--|
G|1----1----1----1----|6----6----6--6---4--|-----4----4--4---2--|
D|--------------------|7----7----7--7------|-----------------0--|
A|--------------------|--------------------|--------------------|
E|--------------------|--------------------|--------------------|
          Though the days              are few         they're filled

E|--------------------|-----5---------5----|-----11--------11---|
B|-----5---------5----|-----5---------5----|-----12--------12---|
G|-----7---------7----|-----6---------6----|-----11--------11---|
D|-----6---------6----|-----7---------7----|--------------------|
A|-----7---------7----|-----7---------7----|--------------------|
E|--------------------|-----5---------5----|--------------------|

                      
                   A                                 
E|--------------------|--------------------|--------------------|
B|-----2----0--3---2--|-----2----2-3-4-5---|-----5----5--5---5--|
G|-----2----2------2--|-----2----2---2-6---|-----6----6--6---6--|
D|-----0----0------2--|-----2----2---2-7---|-----7----7--7---7--|
A|--------------------|--------------------|--------------------|
E|--------------------|--------------------|--------------------|
                with tears        and since I              lost you

E|-----10--------10---|-----9---------9----|-----9---------9----|
B|-----10--------10---|----10--------10----|----10--------10----|
G|-----11--------11---|-----9---------9----|-----9---------9----|
D|--------------------|--------------------|--------------------|
A|--------------------|--------------------|--------------------|
E|--------------------|--------------------|--------------------|


  
       B           D                    A                     A7
E|-----2----2--2------|--------------------|---------------0--3-|
B|-----4----2--4---3--|----2----0--3----2--|----2----2--2--2--2-|
G|-----4----4--4---2--|----2----2-------2--|----2----2--2--2--2-|
D|-----------------0--|----0----0-------2--|----2----2--2-------|
A|--------------------|--------------------|--------------------|
E|--------------------|--------------------|--------------------|
                it feels             like years         yes it seems

E|-----11--------11---|-----10--------10---|-----9---------9----|
B|-----12--------12---|-----10--------10---|----10--------10----|
G|-----11--------11---|-----11--------11---|-----9---------9----|
D|--------------------|--------------------|--------------------|
A|--------------------|--------------------|--------------------|
E|--------------------|--------------------|--------------------|


 
       D                                Dm                   A
E|-----3----3--3---2--|----2----2--2----1--|-----1----1--1---0--|
B|-----2----2--2---3--|----3----3--3----3--|-----3----3--3---2--|
G|-----2----2--2---2--|----2----2--2----2--|-----2----2--2---2--|
D|--------------------|--------------------|--------------------|
A|--------------------|--------------------|--------------------|
E|--------------------|--------------------|--------------------|
                 so long                   girl since you've been gone

E|-----12--------12---|-----10--------10---|-----10--------10---|
B|-----10--------10---|-----10--------10---|-----10--------10---|
G|-----12--------12---|-----11--------11---|-----10--------10---|
D|--------------------|--------------------|--------------------|
A|--------------------|--------------------|--------------------|
E|--------------------|--------------------|--------------------|


 
                                                 B
E|-----0----0--0---0--|0----0----0--0---0--|-----2----2--2------|
B|-----2----2--2---2--|2----2----2--2---2--|-----4----2--4------|
G|-----2----2--2---2--|2----2----2--2---2--|-----4----4--4------|
D|--------------------|--------------------|--------------------|
A|--------------------|--------------------|--------------------|
E|--------------------|--------------------|--------------------|
            And I just can't            go on               If

E|-----9---------9----|-----9---------9----|-----7---------7----|
B|----10--------10----|----10--------10----|-----7---------7----|
G|-----9---------9----|-----9---------9----|-----8---------8----|
D|--------------------|--------------------|--------------------|
A|--------------------|--------------------|--------------------|
E|--------------------|--------------------|--------------------|


  
  D      A¨¨¨¨¨¨¨¨¨¨¨¨¨¨¨¨¨¨¨¨¨¨¨¨¨¨¨¨¨¨¨¨¨ D      A¨¨¨¨¨¨¨¨¨¨¨¨
E|--------------------|--------------------|--------------------|
B|3------2------------|--------------------|3------2------------|
G|2----2-2------------|--------------------|2----2-2------------|
D|0--4---2------------|--------------------|0--4---2------------|
A|-------0------------|--------------------|-------0------------|
E|--------------------|--------------------|--------------------|
  You   won't see me   (you won't see  me)  You   won't see me

  ¨¨¨¨¨¨¨¨¨¨¨¨¨¨¨¨¨¨¨¨
E|--------------------|
B|--------------------|
G|--------------------|
D|--------------------|
A|--------------------|
E|--------------------| Go to *
  (You won't see  me) 
 
                   Yeah

  Ending

  A                B                    D                    A
E|-----------------2--|-----2----2--2------|--------------------|
B|5----5----5--5---4--|-----4----2--4---3--|-----2----0--3---2--|
G|6----6----6--6---4--|-----4----4--4---2--|-----2----2------2--|
D|7----7----7--7------|-----------------0--|-----0----0------2--|
A|--------------------|--------------------|--------------------|
E|--------------------|--------------------|--------------------|
  Oooooooooooooooooooooooooolaaa  la   la   Oooooooooooooooooooo

E|-----9---------9----|-----11--------11---|----10---------10---|
B|----10--------10----|-----12--------12---|----10---------10---|
G|-----9---------9----|-----11--------11---|----11---------11---|
D|--------------------|--------------------|--------------------|
A|--------------------|--------------------|--------------------|
E|--------------------|--------------------|--------------------|



                                            ....................
E|--------------------|--------------------|--------------------|
B|-----2----2-3-4-5---|-----5----5--5---5--|--------------------|
G|-----2----2---2-6---|-----6----6--6---6--|--------------------|
D|-----2----2---2-7---|-----7----7--7---7--|--------------------|
A|--------------------|--------------------|--------------------|
E|--------------------|--------------------|--------------------|

  ooooolaaa la   la    Oooooooooooooooooooo

E|-----9---------9----|-----9---------9----|--------------------|
B|----10--------10----|----10--------10----|--------------------|
G|-----9---------9----|-----9---------9----|--------------------|
D|--------------------|--------------------|--------------------|
A|--------------------|--------------------|--------------------|
E|--------------------|--------------------|--------------------|


  .....Fade................................






        B  Bend
        R  Release
        /  slide up
        \  slide down
        H  hammer-on
        P  pull-off
        ~  vibrato
        +  harmonic
        x  Mute note
        . - play note like a dot in standard notation
        ^ - ties two notes together
        (. Pause



  ---------------------------------------------------------------

  THE BEATLES - NOWHERE MAN (Lennon & McCartney) from RUBBER SOUL 
                album. Released December 3rd 1965.

  ---------------------------------------------------------------

  Tabbed by:PJVillanueva




  I had already tabbed this song a couple of years ago, but the
  format I used didn't make it justice, so here it is again with
  a better look and a few corrections.
  After I'M A LOSER  and HELP this is John's 3rd self confession.
  Although three Middle Eights seem a bit excessive, those vocal
  harmonies, that simple and glowing Stratocaster solo, Ringo's
  roll fills and Paul's playfull walking bass make it one of my 
  all time favourites. 
  



  He's a real Nowhere Man,
  Sitting in his Nowhere Land,
  Making all his nowhere plans for nobody.

  Doesn't kave a point of view,
  Knows not where he's going to,
  Isn't he a bit like you and me?

  Nowhere Man, please listen,
  You don't know what you're missing,
  Nowhere Man, the world is at your command.

     SOLO

  He's as blind as he can be,
  Just sees what he wants to see,
  Nowhere Man can you see me at all?

  Nowhere Man, don't worry,
  Take your time, don't hurry,
  Leave it all till somebody else
  lends you a hand.

  Doesn't have a point of view,
  Knows not where he's going to,
  Isn't he a bit like you and me?

  Middle eight
  Nowhere Man, please listen,
  You don't know what you're missing,
  Nowhere Man, the world is at your command.

  He's a real Nowhere Man,
  Sitting in his Nowhere Land,
  Making all his nowhere plans for nobody.
  Making all his nowhere plans for nobody.
  Making all his nowhere plans for nobody.




  Use a capo on the 2nd fret for rythm guitar



  INTRO

e|------- ------- ------- -------|------- ------- ------- -------|
B|-------------------------------|-------------------------------|
G|-------------------------------|-------------------------------|
D|-------------------------------|-------------------------------|
A|-------------------------------|-------------------------------|
E|-------------------------------|-------------------------------|
  He's    a       real            nowhere         man,


                                                              Em7
e|------- ------- ------- -------|------- ------- ------- ----0--|
B|-------------------------------|----------------------------3--|
G|-------------------------------|----------------------------0--|
D|-------------------------------|----------------------------2--|
A|-------------------------------|----------------------------2--|
E|-------------------------------|----------------------------0--|
  Sitting     in          his     nowhere         land,

  
  00:08                           Gm
e|------- 0------ 0---0-- 0------|3------ 3---3-- ----3-- 3------|
B|--------3-------3---3---3---0--|3-------3---3-------3---3------|
G|--------0-------0---0---0---0--|3-------3---3-------3---3------|
D|--------2-------2---2---2---0--|5-------5---5-------5---5------|
A|--------2-------2---2---2------|5-------5---5-------5---5------|
E|--------0-------0---0---0------|-------------------------------|     
  Making      all         his     nowhere         plans       for 


  D
e|2------ 2------ 2---2-- 2---2--|2------ 2------ ----2-- 2---2--|
B|3-------3-------3---3---3---3--|3-------3-----------3---3---3--|
G|2-------2-------2---2---2---2--|2-------2-----------2---2---2--|
D|0-------0-------0---0---0---0--|0-------0-----------0---0---0--|
A|-------------------------------|-------------------------------|
E|-------------------------------|-------------------------------|
  nobody.                         E7sus2
e|------- ------- ------- -------|2------ ------- ------- -------|
B|-------------------------------|3------------------------------|
G|-------------------------------|4-----------2-------1----------|
D|-------------------------------|2---------------------------2--|
A|-------------------------------|2------------------------------|
E|-------------------------------|-------------------------------|


  VERSE
  00:16                       A
e|2------ 2------ 2---2-- 2---0--|0------ 0---0-- ----0-- -------|
B|3-------3-------3---3---3---2--|2-------2---2-------2-------0--|
G|2-------2-------2---2---2---2--|2-------2---2-------2-------0--|     
D|0-------0-------0---0---0---2--|2-------2---2-------2-------0--|
A|----------------------------0--|0-------0---0-------0----------|
E|-------------------------------|-------------------------------|
  Doesn't     have        a       point       view,
                                      of
e|------- ------- ------- -------|------- ------- ------- -------|
B|-------------------------------|-------------------------------|
G|-------------------------------|-------------------------------|
D|-------------------------------|-------------------------------|
A|2------------------------------|-------------------------------|
E|-------------------------------|-------------------------------|



      G                           D                           Em
e|----3-- ----3-- ----3-- 3---3--|2------ 2---2-- 2---2-- 2---0--|
B|----3-------3-------3---3---3--|3-------3---3---3---3---3---0--|      
G|----0-------0-------0---0---0--|2-------2---2---2---2---2---0--|
D|----0-------0-------0---0---0--|0-------0---0---0---0---0---2--|
A|----2-------2-------2---2---2--|----------------------------2--|
E|----3-------3-------3---3---3--|----------------------------0--|
  Knows   not     where   he's    going       to,


              Em7                 Gm
e|0---0-- ----0-- ----0-- 0------|3---3-- 3---3-- 3---3-- 3------|
B|0---0-------3-------3---3------|3---3---3---3---3---3---3------|
G|0---0-------0-------0---0------|3---3---3---3---3---3---3------|
D|2---2-------2-------2---2------|5---5---5---5---5---5---5------|
A|2---2-------2-------2---2------|5---5---5---5---5---5---5------|
E|0---0-------0-------0---0------|3---3---3---3---3---3---3------|
  Isn't       he          a   bit     like    you         and 


  D                                                           F#m
e|2------ 2------ ----2-- ----2--|----2-- ----2-- ----2-- ----2--|
B|3-------3-----------3-------3--|----3-------3-------3-------2--|
G|2-------2-----------2-------2--|----2-------2-------2-------2--|
D|0-------0-----------0-------0--|----0-------0-------0-------4--|
A|-------------------------------|----------------------------4--|
E|-------------------------------|----------------------------2--|
  me?                                             Nowhere     man,
e|------- ------- ------- -------|------- ------- ------- -------|
B|-------------------------------|-------------------------------|
G|4-----------2-------1----------|-------------------------------|
D|2---------------------------2--|-------------------------------|
A|2------------------------------|2------------------------------|
E|-------------------------------|-------------------------------|


  MIDDLE EIGHT
  00:32                           G        
e|----2-- 2------ 2---2-- 2------|3------ 3---3-- ----3-- 3------|
B|----2---2-------2---2---2------|3-------3---3-------3---3------|
G|----2---2-------2---2---2------|0-------0---0-------0---0------|
D|----4---4-------4---4---4------|0-------0---0-------0---0------|
A|----4---4-------4---4---4------|2-------2---2-------2---2------|
E|----2---2-------2---2---2------|3-------3---3-------3---3------|
                      please      listen,         You don't   know 


  F#m                             G
e|2------ 2------ 2---2-- 2------|3---3-- 3------ ----3-- 3------|
B|2-------2-------2---2---2------|3---3---3-----------3---3------|
G|2-------2-------2---2---2------|0---0---0-----------0---0------|
D|4-------4-------4---4---4------|0---0---0-----------0---0------|
A|4-------4-------4---4---4------|2---2---2-----------2---2------|
E|2-------2-------2---2---2------|3---3---3-----------3---3------|
                  what you're     missing,            Nowhere


  F#m                             Em7
e|2------ 2------ 2---2-- 2------|0---0-- 0------ 0---0-- 0---0--|
B|2-------2-------2---2---2------|3---3---3-------3---3---3---3--|
G|2-------2-------2---2---2------|0---0---0-------0---0---0---0--|
D|4-------4-------4---4---4------|2---2---2-------2---2---2---2--|
A|4-------4-------4---4---4------|2---2---2-------2---2---2---2--|
E|2-------2-------2---2---2------|0---0---0-------0---0---0---0--|
  Man                         the world                       is


                                  A
e|----0-- 0------ 0------ 0---0--|0---0-- 0------ 0---0-- 0------|
B|----3---3-------3-------3---3--|2---2---2-------2---2---2------|
G|----0---0-------0-------0---0--|2---2---2-------2---2---2------|
D|----2---2-------2-------2---2--|2---2---2-------2---2---2------|
A|----2---2-------2-------2---2--|0---0---0-------0---0---0------|
E|----0---0-------0-------0---0--|-------------------------------|
  At  your    command 


  SOLO    (Remember that the solo guitar is not capoed)
  00:47
e|2------ 2---2-- 2---2-- 2---0--|0------ 0------ 0---0-- 0---3--|
B|3-------3---3---3---3---3---2--|2-------2-------2---2---2---3--|
G|2-------2---2---2---2---2---2--|2-------2-------2---2---2---0--|     
D|0-------0---0---0---0---0---2--|2-------2-------2---2---2---0--|
A|----------------------------0--|0-------0-------0---0---0---2--|
E|-------------------------------|----------------------------3--|

e|0------ ------- ------- -------|------- ----2-- ------- -------|
B|0-----------0------------------|4---5--------------------------|
G|1------------------------------|4------------------------------|
D|2------------------------------|4------------------------------|
A|-------------------------------|-------------------------------|
E|-------------------------------|-------------------------------|




e|----3-- ----3-- 3---3-- 3---3--|2------ 2---2-- ----2-- 2------|
B|----3-------3---3---3---3---3--|3-------3---3-------3---3------|      
G|----0-------0---0---0---0---0--|2-------2---2-------2---2------|
D|----0-------0---0---0---0---0--|0-------0---0-------0---0------|
A|----2-------2---2---2---2---2--|-------------------------------|
E|----3-------3---3---3---3---3--|-------------------------------|

e|0------ ------- ------- -------|------- ------- ------- -------|
B|2---2--------------------------|0---0-------0------------------|
G|2-----------2-----------2------|1---2-----/-4------------------|
D|2------------------------------|2---2-------6------------------|     
A|-------------------------------|-------------------------------|
E|-------------------------------|-------------------------------|




e|0---0-- ----0-- ----0-- 0------|3---3-- 3---3-- 3---3-- 3---3--|
B|3---3-------3-------3---3------|3---3---3---3---3---3---3---3--|
G|0---0-------0-------0---0------|3---3---3---3---3---3---3---3--|
D|2---2-------2-------2---2------|5---5---5---5---5---5---5---5--|
A|2---2-------2-------2---2------|5---5---5---5---5---5---5---5--|
E|0---0-------0-------0---0------|3---3---3---3---3---3---3---3--|

e|------- ------- ------- -------|------- ------- ------- -------|
B|-------------------------------|-------------------------------|
G|2---2--------------------------|2---2--------------------------|
D|2-----------4------------------|2------------------------------|
A|0------------------------------|0-----------3------------------|
E|-------------------------------|-------------------------------|




e|2------ 2---2-- 2---2-- ----2--|----2-- ----2-- 2---2-- 2---2--|
B|3-------3---3---3---3-------3--|----3-------3---3---3---3---3--|
G|2-------2---2---2---2-------2--|----2-------2---2---2---2---2--|
D|0-------0---0---0---0-------0--|----0-------0---0---0---0---0--|
A|-------------------------------|-------------------------------|
E|-------------------------------|-------------------------------|
                                          *
e|------- ------- ------- -------|------- 5------ ------- -------|
B|-------------------------------|-------------------------------|
G|-------------------------------|-------------------------------|
D|-------------------------------|-------------------------------|
A|3---2--------------------------|-------------------------------|
E|------------------------7-\----|0------------------------------|


  VERSE
  01:03
e|2------ 2------ 2---2-- 2------|0---0-- 0------ 0---0-- 0------|
B|3-------3-------3---3---3------|2---2---2-------2---2---2---0--|
G|2-------2-------2---2---2------|2---2---2-------2---2---2---0--|
D|0-------0-------0---0---0------|2---2---2-------2---2---2---0--|
A|-------------------------------|0---0---0-------0---0---0------|
E|-------------------------------|-------------------------------|
  He's    as      blind   as      he  can     be,


     
e|3---3-- 3------ 3---3-- ----3--|2---2-- 2---2-- ----2-- 2---0--|
B|3---3---3---3---3---3---3---3--|3---3---3---3-------3---3---0--|
G|0---0---0---0---0---0---0---0--|2---2---2---2-------2---2---0--|
D|0---0---0---0---0---0---0---0--|0---0---0---0-------0---0---2--|
A|2---2---2---2---2---2---2---2--|----------------------------2--|
E|3---3---3---3---3---3---3---3--|----------------------------0--|
  Just    sees    what    he      wants   to  see,


                             
e|----0-- ----0-- 0---0-- 0------|3---3-- 3---3-- 3---3-- 3------|
B|----0-------0---3---3---3------|3---3---3---3---3---3---3------|
G|----0-------0---0---0---0------|3---3---3---3---3---3---3------|
D|----2-------2---2---2---2------|5---5---5---5---5---5---5------|
A|----2-------2---2---2---2------|5---5---5---5---5---5---5------|
E|----0-------0---0---0---0------|3---3---3---3---3---3---3------|
  Nowhere     man         can     you     see     me     at  



e|2------ 2---2-- 2---2-- 2---2--|----2-- ----2-- ----2-- 2---2--|
B|3-------3---3---3---3---3---3--|----3-------3-------3---3---2--|
G|2-------2---2---2---2---2---2--|----2-------2-------2---2---2--|
D|0-------0---0---0---0---0---0--|----0-------0-------0---0---4--|
A|-------------------------------|----------------------------4--|
E|-------------------------------|----------------------------2--|
  all?                                            Nowhere     man,
e|------- ------- ------- -------|------- ------- ------- -------|
B|-------------------------------|-------------------------------|
G|4-----------2-------1----------|-------------------------------|
D|2---------------------------2--|2------------------------------|
A|-------------------------------|2------------------------------|
E|-------------------------------|-------------------------------|


  MIDDLE EIGHT
  01:19                                     
e|2------ 2---2-- 2---2-- 2---2--|----3-- ----3-- ----3-- 3------|
B|2-------2---2---2---2---2---2--|----3-------3-------3---3------|
G|2-------2---2---2---2---2---2--|----0-------0-------0---0------|
D|4-------4---4---4---4---4---4--|----0-------0-------0---0------|
A|4-------4---4---4---4---4---4--|----2-------2-------2---2------|
E|2-------2---2---2---2---2---2--|----3-------3-------3---3------|
                      don't       worry           take your   time,



e|2---2-- 2---2-- ------- 2------|3---3-- 3---3-- 3------ 3------|
B|2---2---2---2-----------2------|3---3---3---3---3-------3------|
G|2---2---2---2-----------2------|0---0---0---0---0-------0------|
D|4---4---4---4-----------4------|0---0---0---0---0-------0------|
A|4---4---4---4-----------4------|2---2---2---2---2-------2------|
E|2---2---2---2-----------2------|3---3---3---3---3-------3------|
                      don't       hurry               Leave   it      


  
e|2---2-- 2---2-- ----2-- 2------|----0-- ----0-- ----0-- 0---0--|
B|2---2---2---2-------2---2------|----3-------3-------3---3---3--|
G|2---2---2---2-------2---2------|----0-------0-------0---0---0--|
D|4---4---4---4-------4---4------|----2-------2-------2---2---2--|
A|4---4---4---4-------4---4------|----2-------2-------2---2---2--|
E|2---2---2---2-------2---2------|----0-------0-------0---0---0--|
  All                         till            else            lends
                                  somebody    
 
                              
e|0---0-- 0---0-- 0------ 0---0--|0------ 0---0-- 0---0-- 0------|
B|3---3---3---3---3-------3---3--|2-------2---2---2---2---2------|
G|0---0---0---0---0-------0---0--|2-------2---2---2---2---2------|
D|2---2---2---2---2-------2---2--|2-------2---2---2---2---2------|
A|2---2---2---2---2-------2---2--|0-------0---0---0---0---0------|
E|0---0---0---0---0-------0---0--|-------------------------------|
      you     a   hand
e|------- ------- ------- -------|------- ------- ------- -------|
B|-------------------------------|-------------------------------|
G|-------------------------------|-------------------------------|
D|-------------------------------|-------------------------------|
A|--------------------9---9---9--|9-------9---9---9---9---9---9--|
E|--------------------7---7---7--|7-------7---7---7---7---7---7--|


  VERSE
  01:35
e|2------ 2------ 2---2-- ----0--|----0-- 0---0-- ----0-- ----3--|
B|3-------3-------3---3-------2--|----2---2---2-------2-------3--|
G|2-------2-------2---2-------2--|----2---2---2-------2-------0--|
D|0-------0-------0---0-------2--|----2---2---2-------2-------0--|
A|----------------------------0--|----0---0---0-------0-------2--|
E|-------------------------------|----------------------------3--|
  Doesn't     have        a       point       view,
                                      of
e|------- ------- ------- -------|------- ------- ------- -------|
B|-------------------------------|-------------------------------|
G|-------------------------------|-------------------------------|
D|2------------------------------|-------------------------------|
A|2------------------------------|-------------------------------|
E|0------------------------------|-------------------------------|



      
e|----3-- 3---3-- ----3-- 3---3--|----2-- 2---2-- 2---2-- 2---0--|
B|----3---3---3-------3---3---3--|----3---3---3---3---3---3---0--|
G|----0---0---0-------0---0---0--|----2---2---2---2---2---2---0--|
D|----0---0---0-------0---0---0--|----0---0---0---0---0---0---2--|
A|----2---2---2-------2---2---2--|----------------------------2--|
E|----3---3---3-------3---3---3--|----------------------------0--|
  Knows   not     where   he's    going       to,


      
e|----0-- ----0-- ----0-- 0------|3---3-- 3---3-- 3---3-- 3------|
B|----3-------3-------3---3------|3---3---3---3---3---3---3---0--|
G|----0-------0-------0---0------|3---3---3---3---3---3---3---0--|
D|----2-------2-------2---2------|5---5---5---5---5---5---5---0--|   
A|----2-------2-------2---2------|5---5---5---5---5---5---5------|
E|----0-------0-------0---0------|3---3---3---3---3---3---3------|
  Isn't       he          a   bit     like    you         and 


  
e|2---2-- 2---2-- ----2-- ----2--|----2-- 2---2-- ----2-- 2---2--|
B|3---3---3---3-------3-------3--|----3---3---3-------3---3---2--|
G|2---2---2---2-------2-------2--|----2---2---2-------2---2---2--|
D|0---0---0---0-------0-------0--|----0---0---0-------0---0---4--|
A|-------------------------------|----------------------------4--|
E|-------------------------------|----------------------------2--|
  me?                                             Nowhere     man,
e|------- ------- ------- -------|------- ------- ------- -------|
B|-------------------------------|-------------------------------|
G|4-----------2-------1----------|-------------------------------|
D|----------------------------2--|2------------------------------|
A|-------------------------------|2------------------------------|
E|-------------------------------|-------------------------------|


  MIDDLE EIGHT
  01:51                                
e|------- 2------ 2---2-- 2---2--|3---3-- 3---3-- ----3-- 3------|
B|--------2-------2---2---2---2--|3---3---3---3-------3---3------|
G|--------2-------2---2---2---2--|0---0---0---0-------0---0------|
D|--------4-------4---4---4---4--|0---0---0---0-------0---0------|
A|--------4-------4---4---4---4--|2---2---2---2-------2---2------|
E|--------2-------2---2---2---2--|3---3---3---3-------3---3------|
                      please,     listen          You don't   know 

 

e|2---2-- ----2-- ----2-- 2---2--|3---3-- 3---3-- ----3-- 3------|
B|2---2-------2-------2---2---2--|3---3---3---3-------3---3------|
G|2---2-------2-------2---2---2--|0---0---0---0-------0---0------|
D|4---4-------4-------4---4---4--|0---0---0---0-------0---0------|
A|4---4-------4-------4---4---4--|2---2---2---2-------2---2------|      
E|2---2-------2-------2---2---2--|3---3---3---3-------3---3------|  
                  what you're     missing,        Nowhere     man


 
e|2---2-- 2------ 2---2-- 2------|0------ 0---0-- 0------ 0------|
B|2---2---2-------2---2---2------|3-------3---3---3-------3------|
G|2---2---2-------2---2---2------|0-------0---0---0-------0------|
D|4---4---4-------4---4---4------|2-------2---2---2-------2------|
A|4---4---4-------4---4---4------|2-------2---2---2-------2------|
E|2---2---2-------2---2---2------|0-------0---0---0-------0------|     
                              the world                       is


                                  
e|0---0-- 0------ 0---0-- 0---0--|0---0-- 0---0-- 0------ 0---0--|
B|3---3---3-------3---3---3---3--|2---2---2---2---2-------2---2--|
G|0---0---0-------0---0---0---0--|2---2---2---2---2-------2---2--|
D|2---2---2-------2---2---2---2--|2---2---2---2---2-------2---2--|
A|2---2---2-------2---2---2---2--|0---0---0---0---0-------0---0--|
E|0---0---0-------0---0---0---0--|-------------------------------|      
  At  your    command 
e|------- ------- ------- -------|------- ------- ------- -------|
B|-------------------------------|-------------------------------|
G|-------------------------------|-------------------------------|
D|-------------------------------|-------------------------------|
A|------------9---9---9---9---9--|9---9---9---9---9---9---9---9--|
E|------------7---7---7---7---7--|7---7---7---7---7---7---7---7--|


  CODA
  02:07
  D                           A
e|2------ 2------ 2---2-- 2---0--|0------ 0------ 0---0-- 0------|
B|3-------3-------3---3---3---2--|2-------2-------2---2---2---0--|
G|2-------2-------2---2---2---2--|2-------2-------2---2---2---0--|
D|0-------0-------0---0---0---2--|2-------2-------2---2---2---0--|
A|----------------------------0--|0-------0-------0---0---0------|
E|-------------------------------|-------------------------------|
  He's    a       real            nowhere         man
e|------- ------- ------- -------|------- ------- ------- -------|
B|-------------------------------|-------------------------------|
G|-------------------------------|-------------------------------|
D|2------------------------------|-------------------------------|
A|2------------------------------|-------------------------------|
E|0------------------------------|-------------------------------|



  G                               D                           Em
e|3------ 3------ 3---3-- 3---3--|2---2-- 2------ 2---2-- 2---0--|
B|3-------3-------3---3---3---3--|3---3---3-------3---3---3---0--|   
G|0------ 0------ 0---0-- 0---0--|2---2---2-------2---2---2---0--|
D|0------ 0------ 0---0-- 0---0--|0---0---0-------0---0---0---2--|
A|2-------2-------2---2---2---2--|----------------------------2--|
E|3-------3-------3---3---3---3--|----------------------------0--|
  Sitting     in          his     nowhere         land


      Em7                         Gm
e|----0-- ----0-- 0---0-- 0------|3---3-- 3---3-- 3---3-- 3------|
B|----3-------3---3---3---3------|3---3---3---3---3---3---3------|
G|----0------ 0---0-- 0---0------|3---3---3---3---3---3---3------|
D|----2-------2---2---2---2------|5---5---5---5---5---5---5------|
A|----2-------2---2---2---2------|5---5---5---5---5---5---5------|
E|----0------ 0---0-- 0---0------|3---3---3---3---3---3---3------|
  Making      all         his     nowhere         plans       for 


  D                                                           Em
e|2---2-- 2------ ----2-- 2---2--|2---2-- ----2-- ----2-- 0---0--|
B|3---3---3-----------3---3---3--|3---3-------3-------3---0---0--|
G|2---2---2-----------2---2---2--|2---2-------2-------2---0---0--|
D|0---0-- 0-----------0---0---0--|0---0-------0-------0-------2--|
A|-------------------------------|----------------------------2--|
E|-------------------------------|----------------------------0--|
  nobody.
e|------- ------- ------- -------|------- ------- ------- -------|
B|-------------------------------|-------------------------------|
G|-------------------------------|4-----------2-------1----------|
D|-------------------------------|----------------------------2--|
A|-------------------------------|-------------------------------|
E|-------------------------------|-------------------------------|



                  Em7             Gm
e|0------ 0------ 0---0-- 0---0--|3---3-- 3---3-- ----3-- 3---3--|
B|0-------0-------3---3---3---3--|3---3---3---3-------3---3---3--|
G|0-------0-------0---0---0---0--|3---3---3---3-------3---3---3--|
D|2-------2-------2---2---2---2--|5---5---5---5-------5---5---5--|
A|2-------2-------2---2---2---2--|5---5---5---5-------5---5---5--|
E|0-------0-------0---0---0---0--|3---3---3---3-------3---3---3--|
  Making      all         his     nowhere         plans       for
e|------- ------- ------- -------|------- ------- ------- -------|
B|-------------------------------|-------------------------------|
G|-------------------------------|2------------------------------|
D|4------------------------------|-------------------------------|
A|-------------------------------|-------------------------------|
E|-------------------------------|-------------------------------|

 

  D                                                           Em
e|2------ 2------ 2---2-- 2---2--|----2-- ----2-- ----2-- 2---0--|
B|3-------3-------3---3---3---3--|----3-------3-------3---3---0--|
G|2-------2-------2---2---2---2--|----2-------2-------2---2---0--|
D|0-------0-------0---0---0---0--|----0-------0-------0---0---2--|
A|-------------------------------|----------------------------2--|
E|-------------------------------|----------------------------0--|
  nobody.
e|------- ------- ------- -------|------- ------- ------- -------|
B|-------------------------------|-------------------------------|
G|4------------------------------|4-----------2-------1----------|
D|-------------------------------|----------------------------2--|
A|-------------------------------|-------------------------------|
E|-------------------------------|-------------------------------|


  02:31
                  Em7             Gm   
e|0------ 0------ 0---0-- 0------|3---3-- 3------ 3---3-- 3------|
B|0-------0-------3---3---3------|3---3---3-------3---3---3------|
G|0-------0-------0---0---0------|3---3---3-------3---3-- 3------|
D|2-------2-------2---2---2------|5---5---5-------5---5---5------|
A|2-------2-------2---2---2------|5---5---5-------5---5---5------|
E|0-------0-------0---0---0------|3---3---3-------3---3---3------|
  Making      all         his     nowhere     plans       for 
e|------- ------- ------- -------|------- ------- ------- -------|
B|-------------------------------|-------------------------------|
G|-------------------------------|2------------------------------|
D|4------------------------------|-------------------------------|
A|-------------------------------|-------------------------------|
E|-------------------------------|-------------------------------|



  D                              (.
e|2------ 2------ 2---2-- 2---2--|2------ ------- ------- -------|
B|3-------3-------3---3---3---3--|3------------------------------|
G|2-------2-------2---2---2---2--|2------------------------------|
D|0-------0-------0---0---0---0--|0------------------------------|
A|-------------------------------|0------------------------------|
E|-------------------------------|-------------------------------|
  nobody.                        (.
e|------- ------- ------- -------|------- ------- ------- -------|
B|-------------------------------|-------------------------------|
G|4-----------2-------1----------|-------------------------------|
D|----------------------------2--|-------------------------------|
A|-------------------------------|2------------------------------|
E|-------------------------------|0------------------------------|







        B  Bend
        R  Release
        /  slide up
        \  slide down
        H  hammer-on
        P  pull-off
        ~  vibrato
        *  harmonic
        x  Mute note
        . - play note like a dot in standard notation
        ^ - ties two notes together
        (. Pause


 

  -------------------------------------------------------------------

  THE BEATLES - THINK FOR YOURSELF (Harrison) Released on RUBBER SOUL
                album on 3rd December 1965.

  -------------------------------------------------------------------

  Tabbed by:PJVillanueva





 
  Paul recorded two basses for this song. One conventionally and
  another with his Epiphone Casino tuned down and played through 
  a fuzz box. To play that 2nd bass part you must tune down E, A,
  D and G strings (you can mute the 1st and 2nd strings - b, e to  
  avoid any unwanted noise).
  In standard tuning, put a barre on the third fret (G, C, F, Bb)
  and imagine this same four string tuning an octave down. That's 
  it! E (6th string) down to G, A (5th string) down to C, D (4th   
  string) down to F and G (3rd string) down to Bb. If you do want 
  to play that Casino part, all with the lowest notes heard on the 
  record, you must get that tuning.
  If you have a bass guitar you can see it at once comparing E on 
  the twelfth fret, which corresponds to the low E string on your
  guitar, and down to G on the third fret. This is the register 
  you must get on your guitar's low E string. Now barre your bass' 
  third fret (G, C, F, Bb) and you have all four notes for your 
  guitar tuning. If you haven't got a bass, barre your guitar on 
  the 3rd fret for the four notes, "hear" the notes and get them 
  one by one an octave down.       
       
      



  I've got a word or two
  To say about the things that you do
  You're telling all those lies
  About the good things that we can have
  If we close our eyes

  Do what you want to do
  And go where you're going to
  Think for yourself
 'Cause I won't be there with you

  I left you far behind
  The ruins of the life that you had in mind
  And though you still can't see
  I know your mind's made up
  You're gonna cause more misery

  Do what you want to do
  And go where you're going to
  Think for yourself
 'Cause I won't be there with you

  Although your mind's opaque
  Try thinking more if just for your own sake
  The future still looks good
  And you've got time to rectify
  All the things that you should

  Do what you want to do
  And go where you're going to
  Think for yourself
 'Cause I won't be there with you

  Do what you want to do
  And go where you're going to
  Think for yourself
 'Cause I won't be there with you
  Think for yourself
 'Cause I won't be there with you




                                     
                          x                           x       x
Bb------- ------- ------- -------|------- ------- ------- -------|
F|-------------------------------|-------------------------------|
C|7-------7-------7-------7------|7-------7-------7-----7-----8--|
G|-------------------------------|-------------------------------| 
          G7                                                           
e|------- 3---3-- ------- 3------|------- 3---3-- ------- -------|
B|--------6---6-----------6------|--------6---6------------------|
G|--------4---4-----------4------|--------4---4------------------|
D|--------3---3-----------3------|--------3---3------------------|
A|--------5---5-----------5------|--------5---5------------------|
E|--------3---3-----------3------|--------3---3------------------|

e|------- ------- ------- -------|------- ------- ------- -------|
B|-------------------------------|-------------------------------|
G|4-------4-------4-------4------|4-------4-------4-----4-----4--|
D|5-------5-------5-------5------|5-------5-------5-----5-----5--|
A|5-------5-------5-------5------|5-------5-------5-----5-----5--|
E|3-------3-------3-------3------|3-------3-------3-----3-----3--|



  x
Bb------- ------- ------- -------|------- ------- ------- -------|
F|-------------------------------|9-------------9H11----9-----7--|
C|9------------------------------|-------------------------------|
G|-------------------------------|-------------------------------| 
              I've got        a   word        or two
e|------- 5------ ------- 5------|------- 5------ ------- 5------|
B|--------5---------------5------|--------6---------------6------|
G|--------5---------------5------|--------7---------------7------|
D|--------7---------------7------|--------7---------------7------|
A|--------7---------------7------|--------5---------------5------|
E|--------5---------------5------|-------------------------------|
  Am                              Dm
e|5---5-- 5---5-- 5---5-- 5---5--|5---5-- 5---5-- 5---5-- 5---5--|
B|5---5---5---5---5---5---5---5--|6---6---6---6---6---6---6---6--|
G|5---5---5---5---5---5---5---5--|7---7---7---7---7---7---7---7--|
D|-------------------------------|-------------------------------|
A|-------------------------------|-------------------------------|
E|-------------------------------|-------------------------------|




Bb------- ------- ------- -------|------- ------- ------- -------|
F|5------------------------------|7---------------------------7--|
C|-------------------------------|-------------------------------|
G|-------------------------------|-------------------------------| 
              To  say     about       the     things  that    you 
e|------- 6------ ----6-- ----6--|------- 3------ ----3-- ----3--|
B|--------6-----------6-------6--|--------5-----------5-------5--|
G|--------7-----------7-------7--|--------5-----------5-------5--|
D|--------8-----------8-------8--|--------5-----------5-------5--|
A|--------8-----------8-------8--|--------3-----------3-------3--|
E|--------6-----------6-------6--|-------------------------------|
  Bb                              C
e|6---6-- 6---6-- 6---6-- 6---6--|3---3-- 3---3-- 3---3-- 3---3--|
B|6---6---6---6---6---6---6---6--|5---5---5---5---5---5---5---5--|
G|7---7---7---7---7---7---7---7--|5---5---5---5---5---5---5---5--|
D|-------------------------------|-------------------------------|
A|-------------------------------|-------------------------------|
E|-------------------------------|-------------------------------|




Bb------- ------- ------- -------|------- ------- ------- -------|
F|-------------------------------|-------------------------------|
C|7-------------------7----------|7---------------------7-----8--|
G|------------------------0------|-------------------------------| 
     do
e|------- 3---3-- ----3-- 3---3--|------- 3------ ----3-- 3---3--|
B|--------6---6-------6---6---6--|--------6-----------6---6---3--|
G|--------4---4-------4---4---4--|--------4-----------4---4---4--|
D|--------3---3-------3---3---3--|--------3-----------3---3---3--|
A|--------5---5-------5---5---5--|--------5-----------5---5---5--|
E|--------3---3-------3---3---3--|--------3-----------3---3---3--|
  G7
e|3---3-- 3---3-- 3---3-- 3---3--|3---3-- 3---3-- 3---3-- 3---3--|
B|6---6---6---6---6---6---6---6--|6---6---6---6---6---6---6---6--|
G|4---4---4---4---4---4---4---4--|4---4---4---4---4---4---4---4--|
D|-------------------------------|-------------------------------|
A|-------------------------------|-------------------------------|
E|-------------------------------|-------------------------------|




Bb------- ------- ------- -------|------- ------- ------- -------|
F|-------------------------------|9-------------9H11----9-----7--|
C|9---------------------------9--|-------------------------------|
G|-------------------------------|-------------------------------| 
             You're telling   all      those      lies
e|------- 5------ ------- 5------|------- 5------ ----5-- 5------|
B|--------5---------------5------|--------6-----------6---6------|
G|--------5---------------5------|--------7-----------7---7---7--|
D|--------7---------------7------|--------7-----------7---7---7--|
A|--------7---------------7------|--------5-----------5---5---5--|
E|--------5---------------5------|-------------------------------|
  Am                              Dm
e|5---5-- 5---5-- 5---5-- 5---5--|5---5-- 5---5-- 5---5-- 5---5--|
B|5---5---5---5---5---5---5---5--|6---6---6---6---6---6---6---6--|
G|5---5---5---5---5---5---5---5--|7---7---7---7---7---7---7---7--|
D|-------------------------------|-------------------------------|
A|-------------------------------|-------------------------------|
E|-------------------------------|-------------------------------|




Bb------- ------- ------- -------|------- ------- ------- -------|
F|5---------------------------5--|7---------------------------7--|
C|-------------------------------|-------------------------------|
G|-------------------------------|-------------------------------| 
              About       the good    things  that    we      can 
e|------- 6------ ------- 6------|------- 3------ ----3-- 3------|
B|--------6---------------6------|--------5-----------5---5------|
G|--------7---------------7------|--------5-----------5---5------|
D|--------8---------------8------|--------5-----------5---5------|
A|--------8---------------8------|--------3-----------3---3------|
E|--------6---------------6------|-------------------------------|
  Bb                              C
e|6---6-- 6---6-- 6---6-- 6---6--|3---3-- 3---3-- 3---3-- 3---3--|
B|6---6---6---6---6---6---6---6--|5---5---5---5---5---5---5---5--|
G|7---7---7---7---7---7---7---7--|5---5---5---5---5---5---5---5--|
D|-------------------------------|-------------------------------|
A|-------------------------------|-------------------------------|
E|-------------------------------|-------------------------------|



                                                          x x x
Bb------- ------- ------- -------|------- ------- ------- -------|
F|-------------------------------|-------------------------------|
C|7---------------------------7--|9---------------------------7--|
G|-------------------------------|-------------------------------| 
      have    if      we      close   our     eyes
e|------- 3------ ----3-- -------|------- 5------ ----5-- 5---3--|
B|--------3-----------3----------|--------5-----------5---5---3--|
G|--------4-----------4----------|--------5-----------5---5---4--|
D|--------5-----------5----------|--------7-----------7---7---5--|
A|--------5-----------5----------|--------7-----------7---7---5--|
E|--------3-----------3----------|--------5-----------5---5---3--|
  G                               Am
e|3---3-- 3---3-- 3---3-- 3---3--|5---5-- 5---5-- 5---5-- 5---5--|
B|3---3---3---3---3---3---3---3--|5---5---5---5---5---5---5---5--|
G|4---4---4---4---4---4---4---4--|5---5---5---5---5---5---5---5--|
D|-------------------------------|-------------------------------|
A|-------------------------------|-------------------------------|
E|-------------------------------|-------------------------------|



                                                          X x x
Bb------- ------- ------- -------|------- ------- ------- -------|
F|-------------------------------|--------5-------4--------------|
C|--------4-------7---7---4------|--------------------7---4-\-2--|
G|5------------------------------|5---5--------------------------| 
  Do     what you want to     do                              and
e|6---6-- 6---6-- ----6-- 6------|------- 6---6-- 6---6-- 6------|
B|5---5---5---5-------5---5------|--------5---5---5---5---5------|
G|3---3---3---3-------3---3------|--------3---3---3---3---3------|
D|5---5---5---5-------5---5------|--------5---5---5---5---5------|
A|3---3---3---3-------3---3------|--------3---3---3---3---3------|
E|-------------------------------|-------------------------------|
  C
e|3---3-- 3---3-- 3---3-- 3---3--|3---3-- 3---3-- 3---3-- 3---3--|
B|5---5---5---5---5---5---5---5--|5---5---5---5---5---5---5---5--|
G|5---5---5---5---5---5---5---5--|5---5---5---5---5---5---5---5--|
D|-------------------------------|-------------------------------|
A|-------------------------------|-------------------------------|
E|-------------------------------|-------------------------------|


                                              
                                     x      x     X     x     x
Bb------- ------- ------- -------|------- ------- ------- -------|
F|--------5-H-6-----------5H6----|-------------------------------|
C|7---7-----------7---7----------|-----5-------------------------|
G|-------------------------------|7---------7-----5----3-----0---| 
  go    where you're going    to
e|------- 3---3-- ----3-- ----3--|------- 3------ ------- 3------|
B|--------6---6-------6-------6--|--------6---------------6------|
G|--------4---4-------4-------4--|--------4---------------4------|
D|--------3---3-------3-------3--|--------3---------------3------|
A|--------5---5-------5-------5--|--------5---------------5------|
E|--------3---3-------3-------3--|--------3---------------3------|
  G7
e|3---3-- 3---3-- 3---3-- 3---3--|3---3-- 3---3-- 3---3-- 3---3--|
B|6---6---6---6---6---6---6---6--|6---6---6---6---6---6---6---6--|
G|4---4---4---4---4---4---4---4--|4---4---4---4---4---4---4---4--|
D|-------------------------------|-------------------------------|
A|-------------------------------|-------------------------------|
E|-------------------------------|-------------------------------|




Bb------- ------- ------- -------|------- ------- ------- -------|
F|-------------------------------|-------------------------------|
C|-------------------------------|----------------------------5--|
G|3---------------------------5--|7-------------------7----------| 
  Think   for yourself   'cause   I       won't be there  with you
e|------- 6------ ------- 6------|------- 5------ ------- 5------|
B|--------8---------------8------|--------7---------------7------|
G|--------8---------------8------|--------7---------------7------|
D|--------8---------------8------|--------7---------------7------|
A|--------6---------------6------|--------5---------------5------|
E|-------------------------------|-------------------------------|
  Eb                              D
e|3---3-- 3---3-- 3---3-- 3---3--|2---2-- 2---2-- 2---2-- 2---2--|
B|4---4---4---4---4---4---4---4--|3---3---3---3---3---3---3---3--|
G|3---3---3---3---3---3---3---3--|2---2---2---2---2---2---2---2--|
D|-------------------------------|-------------------------------|
A|-------------------------------|-------------------------------|
E|-------------------------------|-------------------------------|



                                                     xx       X
Bb------- ------- ------- -------|------- ------- ------- -------|
F|--------5----------------------|-------------------------------|
C|7------------------------------|----5-----7-----------7-----8--|
G|----------------------------7--|-------------------------------| 

e|------- 3------ ------- 3------|------- 3------ 3------ -------|
B|--------6---------------6------|--------6-------6--------------|
G|--------4---------------4------|--------4-------4--------------|
D|--------3---------------3------|--------3-------3--------------|
A|--------5---------------5------|--------5-------5--------------|
E|--------3---------------3------|--------3-------3--------------|
  G7
e|3---3-- 3---3-- 3---3-- 3---3--|3---3-- 3---3-- 3---3-- 3---3--|
B|6---6---6---6---6---6---6---6--|6---6---6---6---6---6---6---6--|
G|4---4---4---4---4---4---4---4--|4---4---4---4---4---4---4---4--|
D|-------------------------------|-------------------------------|
A|-------------------------------|-------------------------------|
E|-------------------------------|-------------------------------|



  X
Bb------- ------- ------- -------|------- ------- ------- -------|
F|-------------------------------|9-------------9H11---9-----7---|
C|9------------------------------|-------------------------------|
G|-------------------------------|-------------------------------| 
              I   left    you     far         behind
e|------- 5------ ------- 5------|------- 5------ ----5-- 5------|
B|--------5---------------5------|--------6-----------6---6------|
G|--------5---------------5------|--------7-----------7---7---7--|
D|--------7---------------7------|--------7-----------7---7---7--|
A|--------7---------------7------|--------5-----------5---5---5--|
E|--------5---------------5------|-------------------------------|
  Am                              Dm
e|5---5-- 5---5-- 5---5-- 5---5--|5---5-- 5---5-- 5---5-- 5---5--|
B|5---5---5---5---5---5---5---5--|6---6---6---6---6---6---6---6--|
G|5---5---5---5---5---5---5---5--|7---7---7---7---7---7---7---7--|
D|-------------------------------|-------------------------------|
A|-------------------------------|-------------------------------|
E|-------------------------------|-------------------------------|




Bb------- ------- ------- -------|------- ------- ------- -------|
F|5---------------------------5--|7---------------------------7--|
C|-------------------------------|-------------------------------|
G|-------------------------------|-------------------------------| 
              The ruins       of      the     life    that    you 
e|------- 6------ ----6-- 6------|------- 3------ ----3-- 3------|
B|--------6-----------6---6------|--------5-----------5---5------|
G|--------7-----------7---7------|--------5-----------5---5------|
D|--------8-----------8---8------|--------5-----------5---5------|
A|--------8-----------8---8------|--------3-----------3---3------|
E|--------6-----------6---6------|-------------------------------|
  Bb                              C
e|6---6-- 6---6-- 6---6-- 6---6--|3---3-- 3---3-- 3---3-- 3---3--|
B|6---6---6---6---6---6---6---6--|5---5---5---5---5---5---5---5--|
G|7---7---7---7---7---7---7---7--|5---5---5---5---5---5---5---5--|
D|-------------------------------|-------------------------------|
A|-------------------------------|-------------------------------|
E|-------------------------------|-------------------------------|




Bb------- ------- ------- -------|------- ------- ------- -------|
F|------------------------5------|------------5------------------|
C|7-------------------7----------|7---------------7-----7-----8--|
G|-------------------------------|-------------------------------| 
      had     in  mind
e|------- 3------ ------- 3---3--|------- 3------ 3------ 3---3--|
B|--------6---------------6---6--|--------6-------3-------6---3--|
G|--------4---------------4---4--|--------4-------4-------4---4--|
D|--------3---------------3---3--|--------3-------3-------3---3--|
A|--------5---------------5---5--|--------5-------5-------5---5--|
E|--------3---------------3---3--|--------3-------3-------3---3--|
  G7
e|3---3-- 3---3-- 3---3-- 3---3--|3---3-- 3---3-- 3---3-- 3---3--|
B|6---6---6---6---6---6---6---6--|6---6---6---6---6---6---6---6--|
G|4---4---4---4---4---4---4---4--|4---4---4---4---4---4---4---4--|
D|-------------------------------|-------------------------------|
A|-------------------------------|-------------------------------|
E|-------------------------------|-------------------------------|




Bb------- ------- ------- -------|------- ------- ------- -------|
F|-------------------------------|9-------------9H11---9-----7---|
C|9---------------------------9--|-------------------------------|
G|-------------------------------|-------------------------------| 
              And though  you     still       can see
e|------- 5------ ------- 5------|------- 5------ ------- 5------|
B|--------5---------------5------|--------6---------------6------|
G|--------5---------------5------|--------7---------------7---7--|
D|--------7---------------7------|--------7---------------7---7--|
A|--------7---------------7------|--------5---------------5---5--|
E|--------5---------------5------|-------------------------------|
  Am                              Dm
e|5---5-- 5---5-- 5---5-- 5---5--|5---5-- 5---5-- 5---5-- 5---5--|
B|5---5---5---5---5---5---5---5--|6---6---6---6---6---6---6---6--|
G|5---5---5---5---5---5---5---5--|7---7---7---7---7---7---7---7--|
D|-------------------------------|-------------------------------|
A|-------------------------------|-------------------------------|
E|-------------------------------|-------------------------------|




Bb------- ------- ------- -------|------- ------- ------- -------|
F|5---------------------------5--|7---------------------------7--|
C|-------------------------------|-------------------------------|
G|-------------------------------|-------------------------------| 
              I   know your   mind's  made    up      you're  gon..
e|------- 6------ ----6-- 6------|------- 3------ ----3-- 3------|
B|--------6-----------6---6------|--------5-----------5---5------|
G|--------7-----------7---7------|--------5-----------5---5------|
D|--------8-----------8---8------|--------5-----------5---5------|
A|--------8-----------8---8------|--------3-----------3---3------|
E|--------6-----------6---6------|-------------------------------|
  Bb                              C
e|6---6-- 6---6-- 6---6-- 6---6--|3---3-- 3---3-- 3---3-- 3---3--|
B|6---6---6---6---6---6---6---6--|5---5---5---5---5---5---5---5--|
G|7---7---7---7---7---7---7---7--|5---5---5---5---5---5---5---5--|
D|-------------------------------|-------------------------------|
A|-------------------------------|-------------------------------|
E|-------------------------------|-------------------------------|



                                                          X x x
Bb------- ------- ------- -------|------- ------- ------- -------|
F|-------------------------------|-------------------------------|
C|7---------------7-----------7--|9-----------9---------------7--|
G|-------------------------------|-------------------------------| 
  ....na      cause   more    misery
e|------- 3------ ----3-- -------|------- 5------ ----5-- ----3--|
B|--------3-----------3----------|--------5-----------5-------3--|
G|--------4-----------4----------|--------5-----------5-------4--|
D|--------5-----------5----------|--------7-----------7-------5--|
A|--------5-----------5----------|--------7-----------7-------5--|
E|--------3-----------3----------|--------5-----------5-------3--|
  G                               Am
e|3---3-- 3---3-- 3---3-- 3---3--|5---5-- 5---5-- 5---5-- 5---5--|
B|3---3---3---3---3---3---3---3--|5---5---5---5---5---5---5---5--|
G|4---4---4---4---4---4---4---4--|5---5---5---5---5---5---5---5--|
D|-------------------------------|-------------------------------|
A|-------------------------------|-------------------------------|
E|-------------------------------|-------------------------------|



                                                      x     x
Bb------- ------- ------- -------|------- ------- ------- -------|
F|-------------------------------|--------5-------4--------------|
C|--------4-------7---7---4------|--------------------7---4-\-2--|
G|5---5--------------------------|5---5--------------------------| 
  Do     what you want to     do                              and
e|6------ 6------ 6------ 6------|6------ 6---6-- ----6-- 6------|
B|5-------5-------5-------5------|5-------5---5-------5---5---3--|
G|3-------3-------3-------3------|3-------3---3-------3---3---3--|
D|5-------5-------5-------5------|5-------5---5-------5---5---3--|
A|3-------3-------3-------3------|3-------3---3-------3---3------|
E|-------------------------------|-------------------------------|
  C
e|3---3-- 3---3-- 3---3-- 3---3--|3---3-- 3---3-- 3---3-- 3---3--|
B|5---5---5---5---5---5---5---5--|5---5---5---5---5---5---5---5--|
G|5---5---5---5---5---5---5---5--|5---5---5---5---5---5---5---5--|
D|-------------------------------|-------------------------------|
A|-------------------------------|-------------------------------|
E|-------------------------------|-------------------------------|



                                                  x x   X XX
Bb------- ------- ------- -------|------- ------- ------- -------|
F|--------5-H-6-----------5-H-6--|-------------------------------|
C|7---7--------------------------|-----5-------------------------|
G|----------------7---7----------|7---------7-----5----3-----0---| 
  go    where you're going    to
e|------- 3---3-- ------- ----3--|------- 3------ ----3-- 3---3--|
B|--------6---6---------------6--|--------6-----------6---6---6--|
G|--------4---4---------------4--|--------4-----------4---4------|
D|--------3---3---------------3--|--------3-----------3---3------|
A|--------5---5---------------5--|--------5-----------5---5------|
E|--------3---3---------------3--|--------3-----------3---3------|
  G7
e|3---3-- 3---3-- 3---3-- 3---3--|3---3-- 3---3-- 3---3-- 3---3--|
B|6---6---6---6---6---6---6---6--|6---6---6---6---6---6---6---6--|
G|4---4---4---4---4---4---4---4--|4---4---4---4---4---4---4---4--|
D|-------------------------------|-------------------------------|
A|-------------------------------|-------------------------------|
E|-------------------------------|-------------------------------|




Bb------- ------- ------- -------|------- ------- ------- -------|
F|--------------------5----------|-------------------------------|
C|-------------------------------|-------------------------------|
G|3---------------------------5-/|7-----------7---7--------------| 
  Think   for yourself   'cause   I       won't be there  with you
e|------- 6------ ------- 6------|------- 5------ ------- 5------|
B|--------8---------------8------|--------7---------------7------|
G|--------8---------------8------|--------7---------------7------|
D|--------8---------------8------|--------7---------------7------|
A|--------6---------------6------|--------5---------------5------|
E|-------------------------------|-------------------------------|
  Eb                              D
e|3---3-- 3---3-- 3---3-- 3---3--|2---2-- 2---2-- 2---2-- 2---2--|
B|4---4---4---4---4---4---4---4--|3---3---3---3---3---3---3---3--|
G|3---3---3---3---3---3---3---3--|2---2---2---2---2---2---2---2--|
D|-------------------------------|-------------------------------|
A|-------------------------------|-------------------------------|
E|-------------------------------|-------------------------------|



                                                      x       x
Bb------- ------- ------- -------|------- ------- ------- -------|
F|--------5----------------------|-------------------------------|
C|7---------------------------5--|--------7-------7-----7-----8--|
G|------------------------7------|-------------------------------| 

e|------- 3------ 3---3-- ----3--|------- 3---3-- 3---3-- -------|
B|--------6-------6---6-------6--|--------6---6---6---3----------|
G|--------4-------4---4-------4--|--------4---4---4---4----------|
D|--------3-------3-----------3--|--------3---3---3---3----------|
A|--------5-------5-----------5--|--------5---5---5---5----------|
E|--------3-------3-----------3--|--------3---3---3---3----------| 
  G7
e|3---3-- 3---3-- 3---3-- 3---3--|3---3-- 3---3-- 3---3-- 3---3--|
B|6---6---6---6---6---6---6---6--|6---6---6---6---6---6---6---6--|
G|4---4---4---4---4---4---4---4--|4---4---4---4---4---4---4---4--|
D|-------------------------------|-------------------------------|
A|-------------------------------|-------------------------------|
E|-------------------------------|-------------------------------|
   


  x
Bb------- ------- ------- -------|------- ------- ------- -------|         
F|-------------------------------|9-------------9H11---9-----7---|
C|9------------------------------|-------------------------------|
G|-------------------------------|-------------------------------| 
              Although    your    mind's      opaque  
e|------- 5------ ------- 5------|------- 5------ ------- 5------|
B|--------5---------------5------|--------6---------------6------|
G|--------5---------------5------|--------7---------------7---7--|
D|--------7---------------7------|--------7---------------7---7--|
A|--------7---------------7------|--------5---------------5------|
E|--------5---------------5------|-------------------------------|
  Am                              Dm
e|5---5-- 5---5-- 5---5-- 5---5--|5---5-- 5---5-- 5---5-- 5---5--|
B|5---5---5---5---5---5---5---5--|6---6---6---6---6---6---6---6--|
G|5---5---5---5---5---5---5---5--|7---7---7---7---7---7---7---7--|
D|-------------------------------|-------------------------------|
A|-------------------------------|-------------------------------|
E|-------------------------------|-------------------------------|




Bb------- ------- ------- -------|------- ------- ------- -------|
F|5---------------------------5--|7---------------------------7--|
C|-------------------------------|-------------------------------|
G|-------------------------------|-------------------------------| 
              Try thinking    more    if      just    for     your 
e|------- 6------ ------- 6------|------- 3------ ------- 3------|
B|--------6---------------6------|--------5---------------5------|
G|--------7---------------7------|--------5---------------5------|
D|--------8---------------8------|--------5---------------5------|
A|--------8---------------8------|--------3---------------3------|
E|--------6---------------6------|-------------------------------|
  Bb                              C
e|6---6-- 6---6-- 6---6-- 6---6--|3---3-- 3---3-- 3---3-- 3---3--|
B|6---6---6---6---6---6---6---6--|5---5---5---5---5---5---5---5--|
G|7---7---7---7---7---7---7---7--|5---5---5---5---5---5---5---5--|
D|-------------------------------|-------------------------------|
A|-------------------------------|-------------------------------|
E|-------------------------------|-------------------------------|




Bb------- ------- ------- -------|------- ------- ------- -------|
F|-------------------------------|----------------5--------------|
C|7------------------------------|7-------------------7---7---8--|
G|-------------------------------|-------------------------------| 
      own     sake 
e|------- 3------ ------- 3---3--|------- 3------ 3---3-- 3------|
B|--------6---------------6---3--|--------6-------6---6---6------|
G|--------4---------------4---4--|--------4-------4---4---4------|   
D|--------3---------------3---3--|--------3-------3---3---3------|
A|--------5---------------5---5--|--------5-------5---5---5------|
E|--------3---------------3---3--|--------3-------3---3---3------|
  G7
e|3---3-- 3---3-- 3---3-- 3---3--|3---3-- 3---3-- 3---3-- 3---3--|
B|6---6---6---6---6---6---6---6--|6---6---6---6---6---6---6---6--|
G|4---4---4---4---4---4---4---4--|4---4---4---4---4---4---4---4--|
D|-------------------------------|-------------------------------|
A|-------------------------------|-------------------------------|
E|-------------------------------|-------------------------------|




Bb------- ------- ------- -------|------- ------- ------- -------|
F|-------------------------------|9-------------9H11---9-----7---|
C|9---------------------------9--|-------------------------------|
G|-------------------------------|-------------------------------| 
              The future          still      looks good
e|------- 5---5-- ------- 5---5--|5------ 5---5-- ----5-- 5------|
B|--------5---5-----------5---5--|6-------6---6-------6---6------|
G|--------5---5-----------5---5--|7-------7---7-------7---7------|
D|--------7---7-----------7---7--|7-------7---7-------7---7------|
A|--------7---7-----------7---7--|5-------5---5-------5---5------|
E|--------5---5-----------5---5--|-------------------------------|
  Am                              Dm
e|5---5-- 5---5-- 5---5-- 5---5--|5---5-- 5---5-- 5---5-- 5---5--|
B|5---5---5---5---5---5---5---5--|6---6---6---6---6---6---6---6--|
G|5---5---5---5---5---5---5---5--|7---7---7---7---7---7---7---7--|
D|-------------------------------|-------------------------------|
A|-------------------------------|-------------------------------|
E|-------------------------------|-------------------------------|




Bb------- ------- ------- -------|------- ------- ------- -------|
F|5---------------------------5--|7---------------------------7--|
C|-------------------------------|-------------------------------|
G|-------------------------------|-------------------------------| 
              And you've got  time        to rectify
e|------- 6------ 6------ 6------|------- 3------ ----3-- 3------|
B|--------6-------6-------6------|--------5-----------5---5------|
G|--------7-------7-------7------|--------5-----------5---5------|
D|--------8-------8-------8------|--------5-----------5---5------|
A|--------8-------8-------8------|--------3-----------3---3------|
E|--------6-------6-------6------|-------------------------------|
  Bb                              C
e|6---6-- 6---6-- 6---6-- 6---6--|3---3-- 3---3-- 3---3-- 3---3--|
B|6---6---6---6---6---6---6---6--|5---5---5---5---5---5---5---5--|
G|7---7---7---7---7---7---7---7--|5---5---5---5---5---5---5---5--|
D|-------------------------------|-------------------------------|
A|-------------------------------|-------------------------------|
E|-------------------------------|-------------------------------|



                                                          X x x
Bb------- ------- ------- -------|------- ------- ------- -------|
F|-------------------------------|-------------------------------|
C|7---------------------------7--|9---------------------------7--|
G|-------------------------------|-------------------------------| 
      all     the     things  that    you     should
e|------- 3------ ----3-- ----3--|------- 5---5-- ----5-- 5---3--|
B|--------6-----------6-------3--|--------5---5-------5---5---3--|
G|--------4-----------4-------4--|--------5---5-------5---5---4--|
D|--------3-----------3-------3--|--------7---7-------7---7---5--|
A|--------5-----------5-------5--|--------7---7-------7---7---5--|
E|--------3-----------3-------3--|--------5---5-------5---5---3--|
  G                               Am
e|3---3-- 3---3-- 3---3-- 3---3--|5---5-- 5---5-- 5---5-- 5---5--|
B|3---3---3---3---3---3---3---3--|5---5---5---5---5---5---5---5--|
G|4---4---4---4---4---4---4---4--|5---5---5---5---5---5---5---5--|
D|-------------------------------|-------------------------------|
A|-------------------------------|-------------------------------|
E|-------------------------------|-------------------------------|



                                                          X X
Bb------- ------- ------- -------|------- ------- ------- -------|
F|-------------------------------|--------5-------4--------------|
C|--------4-------7---7---4------|--------------------7---4-\-2--|
G|5------------------------------|5---5--------------------------| 
  Do     what you want to     do                              and
e|6------ 6------ 6------ 6------|------- 6------ ----6-- 6---6--|
B|5-------5-------5-------5------|--------5-----------5---5---5--|
G|3-------3-------3-------3------|--------3-----------3---3---3--|
D|5-------5-------5-------5------|--------5-----------5---5---5--|
A|3-------3-------3-------3------|--------3-----------3---3---3--|
E|-------------------------------|-------------------------------|
  C              
e|3---3-- 3---3-- 3---3-- 3---3--|3---3-- 3---3-- 3---3-- 3---3--|
B|5---5---5---5---5---5---5---5--|5---5---5---5---5---5---5---5--|
G|5---5---5---5---5---5---5---5--|5---5---5---5---5---5---5---5--|
D|-------------------------------|-------------------------------|
A|-------------------------------|-------------------------------|
E|-------------------------------|-------------------------------|



                                     x      x     XX    x     x
Bb------- ------- ------- -------|------- ------- ------- -------|
F|--------5----------------------|-------------------------------|
C|7---7-----------7---7---7------|-----5-------------------------|
G|-------------------------------|7---------7-----5-----3-----0--| 
  go    where you're going    to
e|------- 3---3-- ------- -------|3------ 3------ ------- 3------|
B|--------6---6------------------|6-------6---------------6------|
G|--------4---4------------------|4-------4---------------4------|
D|--------3---3------------------|3-------3---------------3------|
A|--------5---5------------------|5-------5---------------5------|
E|--------3---3------------------|3-------3---------------3------|
  G7
e|3---3-- 3---3-- 3---3-- 3---3--|3---3-- 3---3-- 3---3-- 3---3--|
B|6---6---6---6---6---6---6---6--|6---6---6---6---6---6---6---6--|
G|4---4---4---4---4---4---4---4--|4---4---4---4---4---4---4---4--|
D|-------------------------------|-------------------------------|
A|-------------------------------|-------------------------------|
E|-------------------------------|-------------------------------|




Bb------- ------- ------- -------|------- ------- ------- -------|
F|-------------------------------|-------------------------------|
C|-------------------------------|------------------------5---6--|
G|3---------------------------5--|7-------------------7----------| 
  Think   for yourself   'cause   I       won't be there  with you
e|6------ 6------ 6------ 6------|5------ 5------ ------- 5------|
B|8-------8-------8-------8------|7-------7---------------7------|
G|8-------8-------8-------8------|7-------7---------------7------|
D|8-------8-------8-------8------|7-------7---------------7------|
A|6-------6-------6-------6------|5-------5---------------5------|
E|-------------------------------|-------------------------------|
  Eb                              D
e|3---3-- 3---3-- 3---3-- 3---3--|2---2-- 2---2-- 2---2-- 2---2--|
B|4---4---4---4---4---4---4---4--|3---3---3---3---3---3---3---3--|
G|3---3---3---3---3---3---3---3--|2---2---2---2---2---2---2---2--|
D|-------------------------------|-------------------------------|
A|-------------------------------|-------------------------------|
E|-------------------------------|-------------------------------|



                                                      x      XX
Bb------- ------- ------- -------|------- ------- ------- -------|
F|-------------------------------|-------------------------------|
C|7-------7----------------------|7-------7-------7P5------------|
G|----------------------------7--|--------------------7---5---3--| 

e|------- 3---3-- ------- 3------|------- 3------ ----3-- 3---3--|
B|--------6---6-----------6------|--------6-----------6---6---3--|
G|--------4---4-----------4------|--------4-----------4---4---4--|
D|--------3---3-----------3------|--------3-----------3---3---3--|
A|--------5---5-----------5------|--------5-----------5---5---5--|
E|--------3---3-----------3------|--------3-----------3---3---3--| 
  G7
e|3---3-- 3---3-- 3---3-- 3---3--|3---3-- 3---3-- 3---3-- 3---3--|
B|6---6---6---6---6---6---6---6--|6---6---6---6---6---6---6---6--|
G|4---4---4---4---4---4---4---4--|4---4---4---4---4---4---4---4--|
D|-------------------------------|-------------------------------|
A|-------------------------------|-------------------------------|
E|-------------------------------|-------------------------------|
      


  X                                                  x x  x x X
Bb------- ------- ------- -------|------- ------- ------- -------|
F|-------------------------------|----5---------5P4--------------|
C|-------------------------------|--------------------7---4-\-2--|
G|3---5-----------3---5---5---3--|5------------------------------| 
  Do     what you want to     do                              and
e|------- 6------ 6---6-- 6------|6------ 6------ 6---6-- 6------|
B|--------5-------5---5---5------|5-------5-------5---5---5---3--|
G|--------3-------3---3---3------|3-------3-------3---3---3---3--|
D|--------5-------5---5---5------|5-------5-------5---5---5---3--|
A|--------3-------3---3---3------|3-------3-------3---3---3------|
E|-------------------------------|-------------------------------|
  C  
e|3---3-- 3---3-- 3---3-- 3---3--|3---3-- 3---3-- 3---3-- 3---3--|
B|5---5---5---5---5---5---5---5--|5---5---5---5---5---5---5---5--|
G|5---5---5---5---5---5---5---5--|5---5---5---5---5---5---5---5--|
D|-------------------------------|-------------------------------|
A|-------------------------------|-------------------------------|
E|-------------------------------|-------------------------------|



                                          xx      xx      X
Bb------- ------- ------- -------|------- ------- ------- -------|
F|--------5H6-------------5H6----|-------------------------------|
C|7---7--------------------------|-----5-------------------------|
G|----------------7---7----------|7---------7-----5-----3-----0--| 
  go    where you're going   to
e|------- 3------ ----3-- ----3--|------- 3------ ----3-- 3------|
B|--------6-----------6-------6--|--------6-----------6---6------|
G|--------4-----------4-------4--|--------4-----------4---4------|
D|--------3-----------3-------3--|--------3-----------3---3------|
A|--------5-----------5-------5--|--------5-----------5---5------|
E|--------3-----------3-------3--|--------3-----------3---3------|
  G7
e|3---3-- 3---3-- 3---3-- 3---3--|3---3-- 3---3-- 3---3-- 3---3--|
B|6---6---6---6---6---6---6---6--|6---6---6---6---6---6---6---6--|
G|4---4---4---4---4---4---4---4--|4---4---4---4---4---4---4---4--|
D|-------------------------------|-------------------------------|
A|-------------------------------|-------------------------------|
E|-------------------------------|-------------------------------|




Bb------- ------- ------- -------|------- ------- ------- -------|
F|-------------------------------|-------------------------------|
C|-------------------------------|-------------------------------|
G|3-----------3---3-----------5--|7-------7-------7---7-------7--| 
  Think   for yourself   'cause   I      won't be there   with you
e|6------ 6------ 6------ -------|5------ 5------ 5------ 5------|
B|8-------8-------8--------------|7-------7-------7-------7------|
G|8-------8-------8--------------|7-------7-------7-------7------|
D|8-------8-------8--------------|7-------7-------7-------7------|
A|6-------6-------6--------------|5-------5-------5-------5------|
E|-------------------------------|-------------------------------|
  Eb                              D
e|3---3-- 3---3-- 3---3-- 3---3--|2---2-- 2---2-- 2---2-- 2---2--|
B|4---4---4---4---4---4---4---4--|3---3---3---3---3---3---3---3--|
G|3---3---3---3---3---3---3---3--|2---2---2---2---2---2---2---2--|
D|-------------------------------|-------------------------------|
A|-------------------------------|-------------------------------|
E|-------------------------------|-------------------------------|



                                                      X X X X X
Bb------- ------- ------- -------|------- ------- ------- -------|
F|-------------------------------|-------------------------------|
C|-------------------------------|7-------7-------7---7----------|
G|5-------5-------5---5-------5--|----------------------------7--| 

e|3------ 3------ ----3-- -------|------- 3---3-- ----3-- 3------|
B|5-------5-----------5----------|--------6---6-------6---6------|
G|3-------3-----------3----------|--------4---4-------4---4------|
D|5-------5-----------5----------|--------3---3-------3---3------|
A|3-------3-----------3----------|--------5---5-------5---5------|
E|-------------------------------|--------3---3-------3---3------|
  C                               G7
e|3---3-- 3---3-- 3---3-- 3---3--|3---3-- 3---3-- 3---3-- 3---3--|    
B|5---5---5---5---5---5---5---5--|6---6---6---6---6---6---6---6--|
G|5---5---5---5---5---5---5---5--|4---4---4---4---4---4---4---4--|
D|-------------------------------|-------------------------------|
A|-------------------------------|-------------------------------|
E|-------------------------------|-------------------------------|
      



Bb------- ------- ------- -------|------- ------- ------- -------|
F|-------------------------------|-------------------------------|
C|-------------------------------|-------------------------------|
G|3-------------------3-------5--|7-------7-------7---7-------7--| 
  Think   for yourself   'cause   I      won't be there   with you
e|6------ 6------ ----6-- 6------|5------ ------- 5------ 5------|
B|8-------8-----------8---8------|7---------------7-------7------|
G|8-------8-----------8---8------|7---------------7-------7------|
D|8-------8-----------8---8------|7---------------7-------7------|
A|6-------6-----------6---6------|5---------------5-------5------|
E|-------------------------------|-------------------------------|
  Eb                              D
e|3---3-- 3---3-- 3---3-- 3---3--|2---2-- 2---2-- 2---2-- 2---2--|
B|4---4---4---4---4---4---4---4--|3---3---3---3---3---3---3---3--|
G|3---3---3---3---3---3---3---3--|2---2---2---2---2---2---2---2--|
D|-------------------------------|-------------------------------|
A|-------------------------------|-------------------------------|
E|-------------------------------|-------------------------------|



                                  X   x   x   X
Bb------- ------- ------- -------|------- ------- ------- -------|
F|--------5-------5-------5------|-------------------------------|
C|7------------------------------|7-------5---7------------------|
G|-------------------------------|----7--------------------------| 

e|6------ 6------ ----6-- 6---6--|3---3-- 3---3-- ------- -------|
B|5-------5-----------5---5---5--|6---6---6---6------------------|
G|3-------3-----------3---3---3--|4---4---4---4------------------|
D|5-------5-----------5---5---5--|3---3---3---3------------------|
A|3-------3-----------3---3---3--|5---5---5---5------------------|
E|-------------------------------|3---3---3---3------------------|
  C                               G7
e|3---3-- 3---3-- 3---3-- 3---3--|3---3-- 3---3-- ------- -------|
B|5---5---5---5---5---5---5---5--|6---6---6---6------------------|
G|5---5---5---5---5---5---5---5--|4---4---4---4------------------|
D|-------------------------------|-------------------------------|
A|-------------------------------|-------------------------------|
E|-------------------------------|-------------------------------|







        B  Bend
        R  Release
        /  Slide up
        \  Slide down
        H  Hammer-on
        P  Pull-off
        ~  Vibrato
        +  Harmonic
        x  Mute note
        .  Play note like a dot in standard notation
        ^  Ties two notes together
        (. Pause



    ------------------------------------------------------------

    THE BEATLES - THE WORD (Lennon & McCartney) From RUBBER SOUL
                  album. Released on December, 3rd, 1965.

    ------------------------------------------------------------

    Tabbed by:PJVillanueva





    Some authors have commented that THE WORD has a four bar 
    middle. It doesn't sound as a middle to me, but a short
    verse, with a clear expositive quality to it. The lyrics
    all but confirm that idea. The song has a twelve bar minor 
    structure, with long choruses with slight lyric variations 
    and short verses, interlude and coda. Paul is playing from 
    the beginning a D major chord in the studio Steinway while
    John's D7#9 guitar chord contains the minor third, #9 in 
    John's chord (only one and a half steps, not two steps up
    the tonic, as his piano D chord). It sounds bizarre to say 
    the least, but the fact is that they kept it going through 
    the whole number: 
       

                D       Dm      D       Dm
              e|------- ------- 5------ 5------|
              B|---------------(7)-----(6)-----|
              G|2-------2-------7-------7------|
              D(4)-----(3)---------------------|
              A|5-------5----------------------|
              E|-------------------------------|
                   D major and minor triads

            
    Sure George Martin had an opinion on this issue. Maybe he 
    thought it was heavy enough to let ambiguity play a rol in 
    the song too. John also uses the minor third in his lead 
    vocal, backed by Paul who sings the fifth, which reinforces 
    the idea that it is a minor key:
  

  e|------- ------- ------- -------|5------ ------- Paul--- -------|
  B|------------------------6---8--(6)--------------John-----------|
  G|------------------------7---9--|-------------------------------|
  D|-------------------------------|-------------------------------|
  A|-------------------------------|-------------------------------|
  E|-------------------------------|-------------------------------|
                            Say the word ....


    The two part harmony changes to three part, although a fourth
    voice can be heard while singing "sunshine" (maybe an end of
    the double tracked Lennon lead) when singing the syncopated:


  e|------- ------- ------- -------|------- ------- ------- -------|
  B|-------------------------------|-------------------------------|
  G|-------------------------------|----------------------------7--|
  D|-------------------------------|----------------------------9--|
  A|-------------------------------|-------------------------------|
  E|-------------------------------|-------------------------------|
                                                                It's

  e|7------ ----5-- ------- ----5--|5------ ----3-- ------- Paul---|
  B|8-----------5------------------|6-----------3-----------George-|
  G|7-----------6---------------5--|5-----------4-----------John---|
  D|----------------------------7--(5-----------5)-----------------|
  A|-------------------------------|-------------------------------|
  E|-------------------------------|-------------------------------|
    so         fine             It's 
                                    sunshine

   
    It sounds really good (John's chromatic descending line is  
    just fine). John's solo lines are brief, but very confident. 
    His doubling vocal track sounds like an echo to the right.
    The "I mean to show everybody the light" line persuasively
    leads to a climactic vocal harmony that is topped by a doubled 
    falsetto (01:38), that adds a dramatic effect and gives way to 
    the interlude. George Martin plays harmonium, giving a wink at 
    the major/minor song key, using D, D5, D, Dsus4 and Dm to close 
    it and lead to the coda (02:10-02:14). The falsetto harmony 
    reappears to say goodbye.
    Paul's bass part is nothing less than great and the same can 
    be said of Ringo's drumming, which is extremely intuitive, with 
    open hi-hat fours on the verses, some first class fills and 
    bass drum work, and always syncronized with the bass. The drums 
    sound may be considered a great achievement for that time and 
    place. (Paul and George play also maracas). George's guitar, 
    probably his Gretsch Tennessian, has a deep, clear tone and was 
    doubled in the verses. As a whole, a great song with a "message" 
    and a paradox on Macca's account, very telling on future things 
    to come. 




       
    Say the word and you'll be free
    Say the word and be like me
    Say the word I'm thinking of
    Have you heard? The word is love
    It's so fine, it's sunshine
    It's the word, Love.
  
    In the beginning I misunderstood,
    But now I got it, the word is good.

    Spread the word and you'll be free
    Spread the word and be like me
    Spread the word I'm thinking of
    Have you heard? The word is love
    It's so fine, it's sunshine
    It's the word, Love.

    Everywhere I go I hear it said
    In the good and the bad books that I have read.

    Say the word and you'll be free
    Say the word and be like me
    Say the word I'm thinking of
    Have you heard? The word is love
    It's so fine, it's sunshine
    It's the word, Love.

    Now that I know that for you must be right
    I mean to show everybody the light.
                                         
    Give the word a chance to say
    That the word is just the way
    It's the word I'm thinking of
    And the only word is love
    It's so fine, It's sunshine
    It's the word, love

    Say the word, love 
    Say the word, love 
    Say the word, love 
    Say the word, love.




                                                    G            G7
  e|------- ------- ------- -------|------- ------- 7------ -------|
  B|-------------------------------|----------------8-------8-----6|
  G|-------------------------------|------------------------7-----7|
  D|-------------------------------|-------------------------------|
  A|-------------------------------|-------------------------------|
  E|-------------------------------|-------------------------------|
                                                    



    D
  e|------- ------- ------- 5---5--|------- 5---5-- ------- 5---5--|
  B|--------7---------------7---7--|--------7---7-----------7---7--|
  G|7-------7---------------7---7--|--------7---7-----------7---7--|
  D|-------------------------------|0---0--------------------------|
  A|----------------0---0----------|----------------0--------------|
  E|-------------------------------|-------------------------------|
                                                            Say the
  e|------- ------- ------- -------|------- ------- ------- -------|
  B|--------6-----------6----------|--------6-----------6----------|
  G|--------5-----------5----------|--------5-----------5----------|
  D|--------4-----------4----------|--------4-----------4----------|
  A|--------5-----------5----------|--------5-----------5----------|
  E|-------------------------------|-------------------------------|


    CHORUS
    00:05

  e|------- 5---5-- ------- 5---5--|------- 5---5-- ------- 5---5--|
  B|--------7---7-----------7---7--|--------7---7-----------7---7--|
  G|--------7---7-----------7---7--|--------7---7-----------7---7--|
  D|0---0--------------------------|0---0--------------------------|
  A|----------------0---0----------|----------------0--------------|
  E|-------------------------------|-------------------------------|
    word                and you'll  free                    say the
                                be 
  e|------- ------- ------- -------|------- ------- ------- -------|
  B|--------6-----------6----------|--------6-----------6----------|
  G|--------5-----------5----------|--------5-----------5----------|
  D|--------4-----------4----------|--------4-----------4----------|
  A|--------5-----------5----------|--------5-----------5----------|
  E|-------------------------------|-------------------------------|





  e|------- 5---5-- ------- 5---5--|------- 5---5-- ------- 5---5--|
  B|--------7---7-----------7---7--|--------7---7-----------7---7--|
  G|--------7---7-----------7---7--|--------7---7-----------7---7--|
  D|0---0--------------------------|0---0--------------------------|
  A|----------------0---0----------|----------------0--------------|
  E|-------------------------------|-------------------------------|
    word                and be      me                      say the
                                like
  e|------- ------- ------- -------|------- ------- ------- -------|
  B|--------6-----------6----------|--------6-----------6----------|
  G|--------5-----------5----------|--------5-----------5----------|
  D|--------4-----------4----------|--------4-----------4----------|
  A|--------5-----------5----------|--------5-----------5----------|
  E|-------------------------------|-------------------------------|
            D7#9



    G7
  e|------- 3---3-- ------- 3---3--|------- 3---3-- ------- 3---3--|
  B|--------6---6-----------6---6--|--------6---6-----------6---6--|
  G|--------4---4-----------4---4--|--------4---4-----------4---4--|
  D|5---5--------------------------|5---5--------------------------|
  A|----------------5---5----------|----------------5---5---3------|
  E|-------------------------------|----------------------------5--|
    word                I'm thinking                        Have
                                  of                            you
  e|------- 3------ ----3-- -------|------- 3------ ----3-- -------|
  B|--------6-----------6----------|--------6-----------6----------|
  G|--------4-----------4----------|--------4-----------4----------|
  D|--------x-----------x----------|--------x-----------x----------|
  A|--------5-----------5----------|--------5-----------5----------|
  E|--------3-----------3----------|--------3-----------3----------|




    D
  e|------- 5---5-- ------- 5---5--|------- 5---5-- ------- 5------|
  B|--------7---7-----------7---7--|--------7---7-----------7------|
  G|--------7---7-----------7---7--|--------7---7-----------7------|
  D|0---0--------------------------|0---0--------------------------|
  A|----------------0--------------|----------------0--------------|
  E|-------------------------------|-------------------------------|
    heard?              the word    love                        It's
                                is
  e|------- ------- ------- -------|------- ------- ------- -------|
  B|--------6-----------6----------|--------6-----------6----------|
  G|--------5-----------5----------|--------5-----------5----------|
  D|--------4-----------4----------|--------4-----------4----------|
  A|--------5-----------5----------|--------5-----------5----------|
  E|-------------------------------|-------------------------------|



    00:21
    G           A                   F           G
  e|7------ ----5-- ------- -------|5------ ----3-- ------- -------|
  B|8-----------5------------------|6-----------3------------------|
  G|7-----------6------------------|5-----------4------------------|
  D|-------------------------------|-------------------------------|
  A|-------------------------------|-------------------------------|
  E|-------------------------------|-------------------------------|
    so          fine                sunshine                It's
                                it's                            the
  e|------- ------- ------- -------|------- ------- ------- -------|
  B|-------------------------------|-------------------------------|
  G|7-----------6------------------|5-----------4------------------|
  D|-------------------------------|-------------------------------|
  A|-------------------------------|-------------------------------|
  E|-------------------------------|-------------------------------|




    D
  e|------- 5------ ------- 5---5--|------- 5------ 5---5-- 5------|
  B|--------7---------------7---7--|--------7-------7---7---7------|
  G|--------7---------------7---7--|--------7-------7---7---7------|
  D|0------------------------------|0---0--------------------------|
  A|----------------0---0----------|----------------0---0----------|
  E|-------------------------------|-------------------------------|
    word                            Love.
  e|------- ------- ------- -------|------- ------- ------- -------|
  B|--------6-----------6----------|--------6-----------6----------|
  G|--------5-----------5----------|--------5-----------5----------|
  D|--------4-----------4----------|--------4-----------4----------|
  A|--------5-----------5----------|--------5-----------5----------|
  E|-------------------------------|-------------------------------|


    VERSE
    00:28
    D                               C
  e|5------ 5------ 5------ 5------|3------ 3------ 3------ 3------|
  B|7-------7-------7-------7------|5-------5-------5-------5------|
  G|7-------7-------7-------7------|5-------5-------5-------5------|
  D|-------------------------------|-------------------------------|
  A|-------------------------------|-------------------------------|
  E|-------------------------------|-------------------------------|
        In  the beginning       I   misunderstood,
  e|------- ------- ------- -------|------- ------- ------- -------|
  B|-------------------------------|-------------------------------|
  G|-------------------------------|-------------------------------|
  D|0------------------------------|0------------------------------|
  A|--------3-------0-------3-3----|--------3-------0-------3-3----|
  E|-------------------------------|-------------------------------|




    F5                              G5
  e|------- ------- ------- -------|------- ------- ------- -------|
  B|-------------------------------|-------------------------------|
  G|-------------------------------|0-------0-------0-------0------|
  D|3-------3-------3-------3------|0-------0-------0-------0------|
  A|3-------3-------3-------3------|5-------5-------5-------5------|
  E|1-------1-------1-------1------|3-------3-------3-------3------|
        but now I   got it      the word        good.       Spread
                                        is                      the
  e|------- ------- ------- -------|------- ------- ------- -------|
  B|-------------------------------|-------------------------------|
  G|-------------------------------|-------------------------------|
  D|0------------------------------|0------------------------------|
  A|--------3-------0-------3-3----|--------3-------0-------0-3----|
  E|-------------------------------|-------------------------------|


    CHORUS
    00:36

  e|------- 5------ ------- 5---5--|------- 5------ ------- 5---5--|
  B|--------7---------------7---7--|--------7---------------7---7--|
  G|--------7---------------7---7--|--------7---------------7---7--|
  D|0------------------------------|0---------------------------0--|
  A|----------------0---0----------|----------------0--------------|
  E|-------------------------------|-------------------------------|
    word                and you'll  free                    spread 
                                be                              the
  e|------- ------- ------- -------|------- ------- ------- -------|
  B|--------6-----------6----------|--------6-----------6----------|
  G|--------5-----------5----------|--------5-----------5----------|
  D|--------4-----------4----------|--------4-----------4----------|
  A|--------5-----------5----------|--------5-----------5----------|
  E|-------------------------------|-------------------------------|





  e|------- 5---5-- ------- 5---5--|------- 5---5-- ------- 5---5--|
  B|--------7---7-----------7---7--|--------7---7-----------7---7--|
  G|--------7---7-----------7---7--|--------7---7-----------7---7--|
  D|0---0-------0------------------|0---0-------0------------------|
  A|----------------0---0-------0--|----------------0---0----------|
  E|-------------------------------|-------------------------------|
    word                and be      me                      spread
                                like                            the
  e|------- ------- ------- -------|------- ------- ------- -------|
  B|--------6----------------------|--------6-----------6----------|
  G|--------5----------------------|--------5-----------5----------|
  D|--------4----------------------|--------4-----------4----------|
  A|--------5----------------------|--------5-----------5----------|
  E|-------------------------------|-------------------------------|





  e|------- 3---3-- ------- 3---3--|------- 3---3-- ------- 3---3--|
  B|--------6---6-----------6---6--|--------6---6-----------6---6--|
  G|--------4---4-----------4---4--|--------4---4-----------4---4--|
  D|5---5-----------------------3--|5---5-----------------------5--|
  A|----------------5---5----------|----------------5---5----------|
  E|-------------------------------|-------------------------------|
    word                I'm thinking                        Have
                                    of                          you
  e|------- 3------ ----3-- -------|------- 3------ ----3-- -------|
  B|--------6-----------6----------|--------6-----------6----------|
  G|--------4-----------4----------|--------4-----------4----------|
  D|--------x-----------x----------|--------x-----------x----------|
  A|--------5-----------5----------|--------5-----------5----------|
  E|--------3-----------3----------|--------3-----------3----------|





  e|------- 5---5-- ------- 5---5--|------- 5---5-- ------- 5------|
  B|--------7---7-----------7---7--|--------7---7-----------7------|
  G|--------7---7-----------7---7--|--------7---7-----------7------|
  D|0---0--------------------------|0---0--------------------------|
  A|----------------0---0----------|----------------0--------------|
  E|-------------------------------|-------------------------------|
    heard?              the word    love                        It's
                                is
  e|------- ------- ------- -------|------- ------- ------- -------|
  B|--------6-----------6----------|--------6-----------6----------|
  G|--------5-----------5----------|--------5-----------5----------|
  D|--------4-----------4----------|--------4-----------4----------|
  A|--------5-----------5----------|--------5-----------5----------|
  E|-------------------------------|-------------------------------|



    00:52

  e|7------ ----5-- ------- -------|5------ ----3-- ------- -------|
  B|8-----------5------------------|6-----------3------------------|
  G|7-----------6------------------|5-----------4------------------|
  D|-------------------------------|-------------------------------|
  A|-------------------------------|-------------------------------|
  E|-------------------------------|-------------------------------|
    so          fine                sunshine                It's
                                it's                            the
  e|------- ------- ------- -------|------- ------- ------- -------|
  B|------------5------------------|-------------------------------|
  G|7------------------------------|5-----------4------------------|
  D|-------------------------------|-------------------------------|
  A|-------------------------------|-------------------------------|
  E|-------------------------------|-------------------------------|





  e|------- 5------ ------- 5---5--|------- 5---5-- ------- -------|
  B|--------7---------------7---7--|--------7---7------------------|
  G|--------7---------------7---7--|--------7---7------------------|
  D|0------------------------------|0---0--------------------------|
  A|----------------0--------------|-------------------------------|
  E|-------------------------------|-------------------------------|
    word                            Love.
  e|------- ------- ------- -------|------- ------- ------- -------|
  B|--------6-----------6----------|--------6-----------6----------|
  G|--------5-----------5----------|--------5-----------5----------|
  D|--------4-----------4----------|--------4-----------4----------|
  A|--------5-----------5----------|--------5-----------5----------|
  E|-------------------------------|-------------------------------|


    VERSE
    00:59

  e|5------ 5------ 5------ 5------|3------ 3------ 3------ 3------|
  B|7-------7-------7-------7------|5-------5-------5-------5------|
  G|7-------7-------7-------7------|5-------5-------5-------5------|
  D|-------------------------------|-------------------------------|
  A|-------------------------------|-------------------------------|
  E|-------------------------------|-------------------------------|
        Everywhere  go          I   hear        said
                I                       it
  e|------- ------- ------- -------|------- ------- ------- -------|
  B|-------------------------------|-------------------------------|
  G|-------------------------------|-------------------------------|
  D|0------------------------------|0------------------------------|
  A|--------3-------0-------3-3----|--------3-------0-------3-3----|
  E|-------------------------------|-------------------------------|





  e|------- ------- ------- -------|------- ------- ------- -------|
  B|-------------------------------|-------------------------------|
  G|-------------------------------|0-------0-------0-------0------|
  D|3-------3-------3-------3------|0-------0-------0-------0------|
  A|3-------3-------3-------3------|5-------5-------5-------5------|
  E|1-------1-------1-------1------|3-------3-------3-------3------|
        In  good the    books   that    have    read.       Say the
          the and   bad             I
  e|------- ------- ------- -------|------- ------- ------- -------|
  B|-------------------------------|-------------------------------|
  G|-------------------------------|-------------------------------|
  D|0------------------------------|0------------------------------|
  A|--------3-------0-------3-3----|--------3----------------------|
  E|-------------------------------|----------------5-3-5-3-5-3-1B-|


    CHORUS
    01:07

  e|------- 5------ ----5-- 5---5--|------- 5------ ------- 5---5--|
  B|--------7-----------7---7---7--|--------7---------------7---7--|
  G|--------7-----------7---7---7--|--------7---------------7---7--|
  D|0------------------------------|0------------------------------|
  A|----------------0--------------|----------------0---0----------|
  E|-------------------------------|-------------------------------|
    word                and you'll  free                    say the
                                be 
  e|------- ------- ------- -------|------- ------- ------- -------|
  B|--------6-----------6----------|--------6-----------6----------|
  G|--------5-----------5----------|--------5-----------5----------|
  D|--------4-----------4----------|--------4-----------4----------|
  A|--------5-----------5----------|--------5-----------5----------|
  E|-------------------------------|-------------------------------|





  e|------- 5---5-- ------- 5---5--|------- 5---5-- ------- 5---5--|
  B|--------7---7-----------7---7--|--------7---7-----------7---7--|
  G|--------7---7-----------7---7--|--------7---7-----------7---7--|
  D|0---0--------------------------|0---0--------------------------|
  A|----------------0---0----------|----------------0--------------|
  E|-------------------------------|-------------------------------|
    word                and be      me                      say the
                                like  
  e|------- ------- ------- -------|------- ------- ------- -------|
  B|--------6-----------6----------|--------6-----------6----------|
  G|--------5-----------5----------|--------5-----------5----------|
  D|--------4-----------4----------|--------4-----------4----------|
  A|--------5-----------5----------|--------5-----------5----------|
  E|-------------------------------|-------------------------------|





  e|------- 3---3-- ------- 3---3--|------- 3---3-- ------- 3---3--|
  B|--------6---6-----------6---6--|--------6---6-----------6---6--|
  G|--------4---4-----------4---4--|--------4---4-----------4---4--|
  D|5------------------------------|5---5-------5---------------5--|
  A|----------------5---5----------|----------------5--------------|
  E|-------------------------------|-------------------------------|
    word                I'm thinking                        Have
                                  of                            you
  e|------- 3------ ----3-- -------|------- 3------ ----3-- -------|
  B|--------6-----------6----------|--------6-----------6----------|
  G|--------4-----------4----------|--------4-----------4----------|
  D|--------x-----------x----------|--------x-----------x----------|
  A|--------5-----------5----------|--------5-----------5----------|
  E|--------3-----------3----------|--------3-----------3----------|





  e|------- 5---5-- ------- 5---5--|------- 5---5-- ------- 5------|
  B|--------7---7-----------7---7--|--------7---7-----------7------|
  G|--------7---7-----------7---7--|--------7---7-----------7------|
  D|0---0--------------------------|0---0--------------------------|
  A|----------------0---0----------|----------------0--------------|
  E|-------------------------------|-------------------------------|
    heard?              the word    love                        It's
                                is
  e|------- ------- ------- -------|------- ------- ------- -------|
  B|--------6-----------6----------|--------6-----------6----------|
  G|--------5-----------5----------|--------5-----------5----------|
  D|--------4-----------4----------|--------4-----------4----------|
  A|--------5-----------5----------|--------5-----------5----------|
  E|-------------------------------|-------------------------------|



    01:23

  e|7------ ----5-- ------- -------|5------ ----3-- ------- -------|
  B|8-----------5------------------|6-----------3------------------|
  G|7-----------6------------------|5-----------4------------------|
  D|-------------------------------|-------------------------------|
  A|-------------------------------|-------------------------------|
  E|-------------------------------|-------------------------------|
    so          fine                sunshine                It's
                                it's                            the
  e|------- ------- ------- -------|------- ------- ------- -------|
  B|-------------------------------|-------------------------------|
  G|7-----------6------------------|5-----------4------------------|
  D|-------------------------------|-------------------------------|
  A|-------------------------------|-------------------------------|
  E|-------------------------------|-------------------------------|





  e|------- 5------ ------- 5---5--|------- 5---5-- ------- 5------|
  B|--------7---------------7---7--|--------7---7-----------7------|
  G|--------7---------------7---7--|--------7---7-----------7------|
  D|0------------------------------|0---0--------------------------|
  A|----------------0--------------|----------------0--------------|
  E|-------------------------------|-------------------------------|
    word                            Love.
  e|------- ------- ------- -------|------- ------- ------- -------|
  B|--------6-----------6----------|--------6-----------6----------|
  G|--------5-----------5----------|--------5-----------5----------|
  D|--------4-----------4----------|--------4-----------4----------|
  A|--------5-----------5----------|--------5-----------5----------|
  E|-------------------------------|-------------------------------|


    VERSE
    01:31
    Now that I know that for you must be right
    I mean to show everybody the light.

    CHORUS
    01:38                                         
    Give the word a chance to say
    That the word is just the way
    It's the word I'm thinking of
    And the only word is love
    It's so fine, It's sunshine
    It's the ....


    01:58

  e|------- 5------ ------- 5---5--|------- 5---5-- ------- -------|
  B|--------7---------------7---7--|--------7---7------------------|
  G|--------7---------------7---7--|--------7---7------------------|
  D|0------------------------------|0---0--------------------------|
  A|----------------0---0----------|-------------------------------|
  E|-------------------------------|-------------------------------|
    word                            Love.
  e|------- ------- ------- -------|------- ------- ------- -------|
  B|--------6-----------6----------|--------6-----------6----------|
  G|--------5-----------5----------|--------5-----------5----------|
  D|--------4-----------4----------|--------4-----------4----------|
  A|--------5-----------5----------|--------5-----------5----------|
  E|-------------------------------|-------------------------------|

  e|------- ------- ------- -------|------- ------- 8------ 4\3---1|
  B|-------------------------------|-------------------------------|
  G|-------------------------------|----------------5-------1P0----|
  D|-------------------------------|-------------------------------|
  A|-------------------------------|-------------------------------|
  E|-------------------------------|-------------------------------|
                                                    Harmonium

    INTERLUDE
    02:02

  e|5------ 5------ 5------ 5------|3------ 3------ 3------ 3------|
  B|7-------7-------7-------7------|5-------5-------5-------5------|
  G|7-------7-------7-------7------|5-------5-------5-------5------|
  D|-------------------------------|-------------------------------|
  A|-------------------------------|-------------------------------|
  E|-------------------------------|-------------------------------|
       
  e|------- ------- ------- -------|------- ------- ------- -------|
  B|-------------------------------|-------------------------------|
  G|-------------------------------|-------------------------------|
  D|0------------------------------|0------------------------------|
  A|--------3-------0-------3-3----|--------3-------0-------3-3----|
  E|-------------------------------|-------------------------------|

  e|------- ------- ------- -------|------- ------- ------- -------|
  B|3------------------------------|3------------------------------|
  G|2------------------------------|2------------------------------|
  D|0------------------------------|0------------------------------|
  A|-------------------------------|3------------------------------|
  E|-------------------------------|-------------------------------|
    D5                              D7




  e|------- ------- ------- -------|------- ------- ------- -------|
  B|-------------------------------|-------------------------------|
  G|-------------------------------|0-------0-------0-------0------|
  D|3-------3-------3-------3------|0-------0-------0-------0------|
  A|3-------3-------3-------3------|5-------5-------5-------5------|
  E|1-------1-------1-------1------|3-------3-------3-------3------|
     I
  e|------- ------- ------- -------|------- ------- ------- -------|
  B|-------------------------------|-------------------------------|
  G|-------------------------------|-------------------------------|
  D|0------------------------------|0------------------------------|
  A|--------3-------0-------3-3----|--------3----------------------|
  E|-------------------------------|----------------5-3-5-3-5-3-1B-|

  e|1------ ------- ------- -------|3------ ------- ------- -------|
  B|3------------------------------|3------------------------------|
  G|2------------------------------|0------------------------------|
  D|3------------------------------|0------------------------------|
  A|-------------------------------|-------------------------------|
  E|-------------------------------|-------------------------------|
    F6                              G5


    02:10 
    D
  e|------- 5------ ------- 5---5--|------- 5------ ------- 5---5--|
  B|--------7---------------7---7--|--------7---------------7---7--|
  G|--------7---------------7---7--|--------7---------------7---7--|
  D|0------------------------------|0------------------------------|
  A|----------------0--------------|----------------0---0----------|
  E|-------------------------------|-------------------------------|
                                                            Say the
  e|------- ------- ------- -------|------- ------- ------- -------|
  B|--------6-----------6----------|--------6-----------6----------|
  G|--------5-----------5----------|--------5-----------5----------|
  D|--------4-----------4----------|--------4-----------4----------|
  A|--------5-----------5----------|--------5-----------5----------|
  E|-------------------------------|-------------------------------|

  e|2------ ------- 2------ -------|3------ 3------ 1------ -------|
  B|3-------3----------------------|-------------------------------|
  G|2------------------------------|-------------------------------|
  D|0------------------------------|-------------------------------|
  A|-------------------------------|-------------------------------|
  E|-------------------------------|-------------------------------|
    D       D5      D               Dsus4           Dm


    CODA
    02:14

  e|------- 5------ ------- 5---5--|------- 5------ ------- 5---5--|
  B|--------7---------------7---7--|--------7---------------7---7--|
  G|--------7---------------7---7--|--------7---------------7---7--|
  D|0------------------------------|0------------------------------|
  A|----------------0--------------|----------------0---0----------|
  E|-------------------------------|-------------------------------|
    word                            Love                    Say the
  e|------- ------- ------- -------|------- ------- ------- -------|
  B|--------6-----------6----------|--------6-----------6----------|
  G|--------5-----------5----------|--------5-----------5----------|
  D|--------4-----------4----------|--------4-----------4----------|
  A|--------5-----------5----------|--------5-----------5----------|
  E|-------------------------------|-------------------------------|





  e|------- 3------ ------- 3---3--|------- 3------ ------- 3---3--|
  B|--------6---------------6---6--|--------6---------------6---6--|
  G|--------4---------------4---4--|--------4---------------4---4--|
  D|5------------------------------|5------------------------------|
  A|----------------5---5----------|----------------5---5----------|
  E|-------------------------------|-------------------------------|
    word                            Love                    Say the
  e|------- 3------ ----3-- -------|------- 3------ ----3-- -------|
  B|--------6-----------6----------|--------6-----------6----------|
  G|--------4-----------4----------|--------4-----------4----------|
  D|--------x-----------x----------|--------x-----------x----------|
  A|--------5-----------5----------|--------5-----------5----------|
  E|--------3-----------3----------|--------3-----------3----------|





  e|------- 5------ ------- 5---5--|------- 5------ ------- 5------|
  B|--------7---------------7---7--|--------7---------------7------|
  G|--------7---------------7---7--|--------7---------------7------|   
  D|0------------------------------|0------------------------------|
  A|----------------0---0----------|----------------0--------------|
  E|-------------------------------|-------------------------------|
    word                            Love                    Say the
  e|------- ------- ------- -------|------- ------- ------- -------|
  B|--------6-----------6----------|--------6-----------6----------|
  G|--------5-----------5----------|--------5-----------5----------|
  D|--------4-----------4----------|--------4-----------4----------|
  A|--------5-----------5----------|--------5-----------5----------|
  E|-------------------------------|-------------------------------|





  e|7------ ----5-- ------- -------|5------ ----3-- ------- -------|
  B|8-----------5------------------|6-----------3------------------|
  G|7-----------6------------------|5-----------4------------------|
  D|-------------------------------|-------------------------------|
  A|-------------------------------|-------------------------------|
  E|-------------------------------|-------------------------------|
    word
  e|------- ------- ------- -------|------- ------- ------- -------|
  B|-------------------------------|-------------------------------|
  G|7-----------6------------------|5-----------4------------------|
  D|-------------------------------|-------------------------------|
  A|-------------------------------|-------------------------------|
  E|-------------------------------|-------------------------------|





  e|------- 5------ ------- 5---5--|------- 5------ ------- -------|
  B|--------7---------------7---7--|--------7----------------------|
  G|--------7---------------7---7--|--------7----------------------|   
  D|0------------------------------|0------------------------------|
  A|----------------0---0----------|-------------------------------|
  E|-------------------------------|-------------------------------|
    Love                  
  e|------- ------- ------- -------|------- ------- ------- -------|
  B|--------6-----------6----------|--------6-----------6----------|
  G|--------5-----------5----------|--------5-----------5----------|
  D|--------4-----------4----------|--------4-----------4----------|
  A|--------5-----------5----------|--------5-----------5----------|
  E|-------------------------------|-------------------------------|

  e|------- ------- ------- -------|------- ------- 8------ 4\3---1|
  B|-------------------------------|-------------------------------|
  G|-------------------------------|----------------5-------1P0----|
  D|-------------------------------|-------------------------------|
  A|-------------------------------|-------------------------------|
  E|-------------------------------|-------------------------------|



    02:34

  e|5------ 5------ 5------ 5------|3------ 3------ 3------ 3------|
  B|7-------7-------7-------7------|5-------5-------5-------5------|
  G|7-------7-------7-------7------|5-------5-------5-------5------|
  D|-------------------------------|-------------------------------|
  A|-------------------------------|-------------------------------|
  E|-------------------------------|-------------------------------|
       
  e|------- ------- ------- -------|------- ------- ------- -------|
  B|-------------------------------|-------------------------------|
  G|-------------------------------|-------------------------------|
  D|0------------------------------|0------------------------------|
  A|--------3-------0-------3-3----|--------3-------0-------3-3----|
  E|-------------------------------|-------------------------------|

  e|------- ------- ------- -------|------- ------- ------- -------|
  B|3------------------------------|3------------------------------|
  G|2------------------------------|2------------------------------|
  D|0------------------------------|0------------------------------|
  A|-------------------------------|3------------------------------|
  E|-------------------------------|-------------------------------|
    ........................... Fade out ..........................





  e|------- ------- ------- -------|------- ------- ------- -------|
  B|-------------------------------|-------------------------------|
  G|-------------------------------|-------------------------------|
  D|3-------3-------3-------3------|-------------------------------|
  A|3-------3-------3-------3------|-------------------------------|
  E|1-------1-------1-------1------|-------------------------------|
     I
  e|------- ------- ------- -------|------- ------- ------- -------|
  B|-------------------------------|-------------------------------|
  G|-------------------------------|-------------------------------|
  D|0------------------------------|-------------------------------|
  A|--------3-------0-------3-3----|-------------------------------|
  E|-------------------------------|-------------------------------|

  e|1------ ------- ------- -------|------- ------- ------- -------|
  B|3------------------------------|-------------------------------|
  G|2------------------------------|-------------------------------|
  D|3------------------------------|-------------------------------|
  A|-------------------------------|-------------------------------|
  E|-------------------------------|-------------------------------|
    ...............................







        B  Bend
        R  Release
        /  Slide up
        \  Slide down
        H  Hammer-on
        P  Pull-off
        ~  Vibrato
        +  Harmonic
        x  Mute note
        .  Play note like a dot in standard notation
        ^  Ties two notes together
        (. Pause



  ----------------------------------------------------------

  THE BEATLES - MICHELLE (Lennon & McCartney) From RUBBER SOUL 
                album. Released on December, 3rd, 1965.

  ----------------------------------------------------------

  Tabbed by:PJVillanueva





  The rythm guitars in this song were recorded with a capo on
  the fifth fret.(The F chord will then be played as if it was
  a C chord)




  Chords: 5th fret
           ------
  F        332010
  Bbm7     133044
  Eb       x13331
  D-       xx1212
  C        320033
  Fm       x35543
  Ab7      x11 10 11 9 
  Db       466544
  C+5      xx5443
  Fm7      x35343
  Fm6      xx5243 
  Bbm9     133113
  Bm       133111
  Bbm      131114



  Chorus


  F        Bbm7
  Michelle, my belle,

      Eb                 D-        C    D-      C
  This are words that go together well, my Michelle

  F        Bbm7
  Michelle, my belle,

       Eb                D-          C    
  Sont les mots qui vont tres bien ensemble,

  D-          C
  Tres bien ensemble




  Fm                                 Ab7
  I love you, I love you, I love you

                       Db
  That's all I want to say

  C               Fm
  Until I find a way

         Fm      C+5  Fm7     Fm6     
  I will say the only words I know

       Bbm9   Bbm Bbm7 C
  That you'll understand.





  F        Bbm7
  Michelle, my belle

   Eb               D-               C
  Sont les mots qui vont tres bien ensemble

  D-          C
  Tres bien ensemble





  Fm                                 Ab7
  I need you, I need you, I need you

                     Db
  I need to make you see

  C                   Fm
  Oh what you mean to me

  Fm      C+5    Fm7    Fm6     Bbm9 Bbm Bbm7 C   F        
  Until I do I'm hoping you will know what I mean



          I love you.
  Solo   F        Bbm7     Eb     D-                                     
         C   D-   C

         


  Fm                                 Ab7
  I want you, I want you, I want you

                      Db
  I think you know by now

  C                   Fm
  I'll get to you somehow

  Fm      C+5    Fm7       Fm6   Bbm9 Bbm Bbm7 C
  Until I do I'm telling you so you'll understand



  F       Bbm7
  Michelle, my belle

  Eb                D-               C
  Sont les mots qui vont tres bien ensemble

  D-          C
  Tres bien ensemble

             Fm      C+5  Fm7     Fm6
  And I will say the only words I know

        Bbm9 Bbm Bbm7 C        F (Ending solo) Bbm7
  That you'll understand, my Michelle.

   
  Eb D- C D- C    F   Bbm7.......





  Intro
                                     
  
e|------ 8----- ------ 8-----|------ 8------ ------ 8----|
B|-------9-------------9-----|-------9--------------9----|
G|10------------9------------|8--------------7-----------|
D|---------------------------|---------------------------|
A|---------------------------|---------------------------|
E|---------------------------|---------------------------|

  
e|------ 8----- 6----- ----/-|8----- 8---/- 8----8 8-----|
B|-------6------6------9---/-|8------8---/--8----8-8-----|
G|6-------------6------6-----|5-------------5------------|
D|---------------------------|---------------------------|
A|---------------------------|---------------------------|
E|---------------------------|---------------------------|



  Solo

  
e|------ ------ ------ ------|------ ------ ------ ------|
B|---------------------------|---------------------------|
G|---------------------------|---------------------------|
D|-----------5--7--------8-10|11---\--------6------------|
A|8--------8-----------------|---------------------------|
E|---------------------------|---------------------------|

  
e|------ ------ ------ ------|------ ------ ------ ------|
B|---------------------------|---------------------------|
G|---------------------------|---------------------------|
D|5--------5--6--8-----------|------------5--6-----------|
A|---------------------6-----|8--------8-----------0-----|
E|---------------------------|---------------------------|

                           
e|------ ------ ------ ------|------ ------ ------ ------|
B|---------------------------|---------------------------|
G|---------------------------|--------------------------0|
D|------------------1--------|---------------------2--3--|
A|2-------------0--------3---|2-----------------0--------|
E|---------------------------|----------------3----------|


e|------ ------ ------ ------|
B|---------------------------|
G|---------------------------|
D|1--------------------------|
A|---------------------------|
E|---------------------------|



  Ending

e|------ ------ ------ ------|------ ------ ------ ------|
B|---------------------------|---------------------------|
G|---------------------------|---------------------------|
D|-----------5--7--------8-10|11---\--------6------------|
A|8--------8-----------------|---------------------------|
E|---------------------------|---------------------------|


 
e|------ ------ ------ ------|------ ------ ------ ------|
B|---------------------------|---------------------------|
G|---------------------------|---------------------------|
D|5--------5--6--8-----------|------------5--6-----------|
A|---------------------6-----|8--------8-----------0-----|
E|---------------------------|---------------------------|

                             
e|------ ------ ------ ------|------ ------ ------ ------|
B|---------------------------|---------------------------|
G|---------------------------|--------------------------0|
D|------------------1--------|---------------------2--3--|
A|2-------------0--------3---|2-----------------0--------|
E|---------------------------|----------------3----------


e|------ ------ ------ ------|------ ------ ------ ------|
B|---------------------------|---------------------------|
G|---------------------------|---------------------------|
D|-----------5--7--------8-10|11---\--------6------------|
A|8--------8-----------------|---------------------------|
E|---------------------------|---------------------------|
 
  Fading       
e|------ ------ ------ ------|------ ------ ------ ------|
B|---------------------------|---------------------------|
G|---------------------------|---------------------------|
D|5--------5--6--8-----------|------------5--6-----------|
A|---------------------6-----|8--------8-----------0-----|
E|---------------------------|---------------------------|




  Rythm guitar ending

 (capo on 5th fret) 
  V                           
e|3----- 3----- 3----- 3-----|------ 4----- 4----- 4-----|
B|1------1------1------1-----|-------4------4------4-----|
G|0------0------0------0-----|-------1------1------1-----|
D|2------2------2------2-----|-------1------1------1-----|
A|3------3------3------3-----|-------3------3------3-----|
E|---------------------------|-------1------1------1-----|


  
e|------ 3----- ------ ------|------ ------ ------ ------|
B|3------3------3------------|1-/----4------7-\----4-----|
G|3------3------3------3-----|2-/----5------8-\----5-----|
D|3------3------3------3-----|1-/----4------7-\----4-----|
A|1------1------1------1-----|---------------------------|
E|---------------------------|---------------------------|


  
e|3----- 3----3 2----- 2----2|3----- 3----3 3----- ------|
B|3------3----0-1------1----1|3------3----3-3------------|
G|0------0----0-2------2----2|0------0----0-0------------|
D|--------------1------1----1|---------------------------|
A|---------------------------|---------------------------|
E|---------------------------|---------------------------|

 Fading.....
  
e|3------ ----3- 3----- 3----|------ 4----- ------ 4-----|
B|1-----------1--1------1----|-------4-------------4-----|
G|0-----------0--0------0----|-------1-------------1-----|
D|2-----------2--2------2----|-------1-------------1-----|
A|3-----------3--3------3----|-------3-------------3-----|
E|---------------------------|-------1-------------1-----|

 





        B  Bend
        R  Release
        /  Slide up
        \  Slide down
        H  Hammer-on
        P  Pull-off
        ~  Vibrato
        +  Harmonic
        x  Mute note
        .  Play note like a dot in standard notation
        ^  Ties two notes together
        (. Pause



  ----------------------------------------------------------------

  THE BEATLES - WHAT GOES ON (Lennon & McCartney) from RUBBER SOUL 
                album. Released 3rd December 1965.

  ----------------------------------------------------------------

  Tabbed by:PJVillanueva




  Chorus
  What goes on in your heart?
  What goes on in your mind?
  You are tearing me apart
  When you treat me so unkind
  What goes on in your mind

  Verse
  The other day I saw you
  As I walked along the road
  But when I saw him with you
  I could feel my future fold
  It's so easy for a girl like you to lie
  Tell me why

  Chorus

  Verse
  I met you in the morning
  waiting for the tides of time
  But now the tide is turning
  I can see that I was blind
  It's so easy for a girl like you to lie
  Tell me why
  What goes on in your heart?

  Solo

  I used to think of no on else
  But you were just the same
  You didn't even think of me
  As someone with a name
  Did you mean to break my heart and watch me die
  Tell me why

  Chorus
  In your mind
  In your mind


  ...............................................


  The first are a couple of examples about how rythm guitar goes and 
  then there's the intro and the solo guitar part along with the words


  E
E|--------------------|--------------------|--------------------|
B|--------------------|--------------------|--------------------|
G|--------------------|--------------------|--------------------|
D|-------------2------|-------------2------|-------------2------|
A|-------------2------|-------------2------|-------------2------|
E|0-------3/4---------|0-------3/4---------|0-------3/4-----4---|x2

  A
E|--------------------|--------------------|
B|--------------------|--------------------|
G|-------------2------|-------------2------|
D|-------------2------|-------------2------|
A|0-------3/4---------|0-------3/4---------|
E|--------------------|--------------------|

  E
E|--------------------|--------------------|--------------------|
B|--------------------|--------------------|--------------------|
G|--------------------|--------------------|--------------------|
D|-------------2------|-------------2------|-------------2------|
A|-------------2------|-------------2------|-------------2------|
E|0-------3/4---------|0-------3/4---------|0-------3/4---------|x2

  A                                         B
E|--------------------|--------------------|--------------------|
B|--------------------|--------------------|--------------------|
G|-------------2------|-------------2------|-------------4------|
D|-------------2------|-------------2------|-------------4------|
A|0-------3/4---------|0-------3/4-------/-|2-------5/6-------6\|
E|--------------------|--------------------|--------------------|

                       E
E|--------------------|--------------------|--------------------|
B|--------------------|--------------------|--------------------|
G|-------------4------|-------------2------|2-------2-----2-----|
D|-------------4------|-------------2------|2-------2-----2-----|
A|2-------5/6---------|--------------------|--------------------|
E|--------------------|0-------3/4---------|0---------(0)-------|






  E
E|--------------------|--------------------|--------------------|
B|--------------------|--------------------|--------------------|
G|--------------------|--------------------|--------------------|
D|-------------2------|-------------2------|-------------2------|
A|-------------2------|-------------2------|-------------2------|
E|0-------3/4---------|0-------3/4---------|0-------3/4---------|x2

  A
E|--------------------|--------------------|
B|--------------------|--------------------|
G|-------------2------|-------------2------|
D|-------------2------|-------------2------|
A|0-------3/4---------|0-------3/4---------|
E|--------------------|--------------------|

  E
E|--------------------|--------------------|--------------------|
B|--------------------|--------------------|--------------------|
G|--------------------|--------------------|--------------------|
D|-------------2------|-------------2------|-------------2------|
A|-------------2------|-------------2------|-------------2------|
E|0-------3/4---------|0-------3/4---------|0-------3/4---------|x2

  A                                         B
E|--------------------|--------------------|--------------------|
B|--------------------|--------------------|--------------------|
G|-------------2------|-------------2------|--------4----4------|
D|-------------2------|-------------2------|--------4----4------|
A|0-------3/4---------|0-------3/4---------|--------------------|
E|--------------------|--------------------|--------------------|

                       E
E|--------------------|--------------------|--------------------|
B|--------------------|--------------------|--------------------|
G|--------4----4------|-------------2------|2-------4-----4-----|
D|--------5----5------|-------------2------|2-------5-----5-----|
A|--------------------|--------------------|--------------------|
E|--------------------|0-------3/4---------|0-------------------|








  Intro

                       E                    B
E|-----0---------3----|-----4--------------|--------------------|
B|--------------------|--------------------|--4-------4---------|
G|-----1----2----3----|4-------------------|--------------------|
D|--------------------|--------------------|4------4-----5R4----|
A|--------------------|--------------------|--------------------|
E|--------------------|--------------------|--------------------|

                                 Chorus
  E                               
E|-----0--------------|0-------------------|--------------------|
B|------------0-------|--------------------|------------0-------|
G|--------------------|--------------------|--------------------|
D|2-------------------|--------------------|--------------------|
A|--------------------|--------------------|--------------------|
E|--------------------|--------------------|--------------------|
                                 What goes on


E|0-------------------|-----0--------------|0------------0------|
B|--------------------|-------------0------|-------0------------|
G|--------------------|--------------------|--------------------|
D|--------------------|--------------------|--------------------|
A|--------------------|--------------------|--------------------|
E|--------------------|--------------------|--------------------|
            in your heart?                            What goes on

                                            A
E|--------------------|--------------------|-----0------------0-|
B|--------------------|--------------------|------------2-------|
G|--------------------|--------------------|---------------0----|
D|--------------------|--------------------|2-------------------|
A|--------------------|--------------------|--------------------|
E|--------------------|--------------------|--------------------|
                                 in your mind?

                       E
E|---------0----------|--------------------|--------------------|
B|---2---------2------|--------------------|--------------------|
G|------0---------0---|--------------------|--------------------|
D|--------------------|--------------------|--------------------|
A|--------------------|--------------------|--------------------|
E|--------------------|--------------------|--------------------|
           you are tea...........................ring me a....part


E|-----0------------0-|--------------------|------0-------------|
B|--------------------|--------3-----0-----|--------------------|
G|-------------1------|--------------------|--------------------|
D|--------------------|--------------------|--------------------|
A|--------------------|--------------------|--------------------|
E|--------------------|--------------------|--------------------|
                                 When you   tre.................

                       A
E|--------------------|--------------------|0------0------------|
B|--------------------|-----2--------------|---2----------------|
G|--------------------|------------0-------|--------------------|
D|--------------------|--------------------|--------------------|
A|--------------------|--------------------|--------------------|
E|--------------------|--------------------|--------------------|
  ..at  me so un....kind                              What goes on

  B                                         E
E|--------------------|--------------------|-----0--------------|
B|-----------------0--|--------------------|--------------------|
G|--------------------|--------------------|------------1-------|
D|--------------------|--------------------|--------------------|
A|--------------------|--------------------|--------------------|
E|--------------------|--------------------|--------------------|
                                 in your mind?



                       Verse
                       
E|0-------------------|--------------------|--------------------|
B|--------------------|-----0--------------|--------------------|
G|--------------------|-----1------1-------|-----1------1-------|
D|--------------------|-----2------2-------|-----2------2-------|
A|--------------------|--------------------|--------------------|
E|--------------------|--------------------|--------------------|
                   The other   day    I    saw    you  As I 

  A                                         E
E|--------------------|------------0-------|--------------------|
B|-----1--------------|-----1------1-------|------------0-------|
G|-----2-------2----2-|-----2------2-------|----1---------------|
D|-----2-------2------|-----2------2-------|----2---------------|
A|--------------------|--------------------|--------------------|
E|--------------------|--------------------|--------------------|
  walked  along  the road               But when  I  saw  him with 

                       A
E|--------------------|-----0--------------|-----0------0-------|
B|--------------------|-----1-------0---0--|-----1------1-------|
G|-----1-------1------|-----2--------------|-----2------2-------|
D|-----2-------2------|-----2--------------|-----2------2-------|
A|--------------------|--------------------|--------------------|
E|--------------------|--------------------|--------------------|
       you  I  could  feel   my  future  fold         it's  so

                       B                    E
E|-----0--------------|---------------2----|-----0--------------|
B|-----1-----------0--|-----0---------0----|-------------3------|
G|-----2-------2------|---------2-----2----|------------------0-H
D|-----2--------------|---------------1----|--------------------|
A|--------------------|--------------------|--------------------|
E|--------------------|--------------------|--------------------|
  ea...sy   for  a  girl    like  you to lie 



                                            Chorus
                       B
E|---0----------------|--------------------|--------------------|
B|--------3-----0-----|------------0-------|---0----------0-----|
G|1-------------------|-----2-------------3/4--------3----------|
D|--------------------|--------------------|--------------------|
A|--------------------|--------------------|--------------------|
E|--------------------|--------------------|--------------------|
           tell  me  why                              What goes on 

  E
E|--------------------|--------------------|----0------------0--|
B|--------------------|--------------------|-----------3--------|
G|--------------------|--------------------|--------------------|
D|--------------------|--------------------|--------------------|
A|--------------------|--------------------|--------------------|
E|--------------------|--------------------|--------------------|
                                 in your heart


E|--------0-----------|-------------0------|--------------0-----|
B|--------------------|-------3------------|--------3-----------|
G|---1----------------|--------------------|--------------------|
D|--------------------|--------------------|--------------------|
A|--------------------|--------------------|--------------------|
E|--------------------|--------------------|--------------------|
            What goes on                              in your mind

  A
E|------------5-------|---5----------------|--------------------|
B|-----5--------------|----------8---------|--------------------|
G|--------------------|6-------------------|--------------------|
D|--------------------|--------------------|--------------------|
A|--------------------|--------------------|--------------------|
E|--------------------|--------------------|--------------------|
                                 You are  tea...................

  E
E|--------------------|--------------------|--------------------|
B|--------------------|-----3-----3-P-0----|--------------------|
G|--------------------|1-------------------|0-H-1---------------|
D|--------------------|--------------------|--------------------|
A|--------------------|--------------------|--------------------|
E|--------------------|--------------------|--------------------|
  .....ring  me  a...part                            When you treat

                                            A
E|--------------------|--------------------|--------------------|
B|-----3-------0------|--------------------|--------------------|
G|--------------------|0-------1-----------|-----0--------------|
D|--------------------|--------------------|--------------------|
A|--------------------|--------------------|--------------------|
E|--------------------|--------------------|--------------------|
                            me  so  un...kind    

                       B
E|0-------------------|--------------------|--------------------|
B|--------------------|--------------------|--------------------|
G|---------0----------|--------------------|--------------------|
D|--------------------|--------------------|--------------------|
A|--------------------|--------------------|--------------------|
E|--------------------|--------------------|--------------------|
           What goes on                               in your mind




                       Verse
  E
E|-----0-------------0|--------------------|-----0--------------|
B|--------------------|--------------------|-------------0------|
G|------------1-------|---------1----------|--------------------|
D|--------------------|--------------------|--------------------|
A|--------------------|--------------------|--------------------|
E|--------------------|--------------------|--------------------|
                                         I  met  you  in the mor.. 

                       A
E|--------------------|-----0--------0-----|-----0------0-------|
B|--------------------|-----1--------1-----|-----1------1-------|
G|-----1-------1------|-----2--------2-----|-----2--0-2-2----0--|
D|--------------------|-----2--------2-----|-----2------2-------|
A|--------------------|--------------------|--------------------|
E|--------------------|--------------------|--------------------|
  .....ning  wai..ting for the tides of  time                 But 
  E                                         A
E|--------------------|--------------------|-----0--------0-----|
B|--------------------|--------------------|-----1--------1-----|
G|-----2------0-------|----2------0------2-|-----2--------2-----|
D|--------------------|--------------------|-----2--------2-----|
A|--------------------|--------------------|--------------------|
E|--------------------|--------------------|--------------------|
  now the tide is tur.......ning  I   can   see     that I was blind         

                                            B
E|-----0--------0-----|-----0--------0-----|-----2--------------|
B|-----1--------1-----|-----1--------1-----|-----0--------------|
G|-----2--------2-----|-----2--------2-----|-----2--------------|
D|-----2--------2-----|-----2--------2-----|-----1--------------|
A|--------------------|--------------------|--------------------|
E|--------------------|--------------------|---------------3-B-4|
           it's  so    ea....sy  for  a  girl   like you   to  lie


                                                      
  E                                         B
E|---------------0----|---0----0-----------|--------------------|
B|-----0------------3-|--------------------|---------------0----|
G|------------1-------|--------------------|-----2----2-------2-H
D|--------------------|--------------------|--------------------|
A|--------------------|--------------------|--------------------|
E|0-------------------|--------------------|--------------------|
                                 Tell  me  why                              


                       E                     
E|--------------------|-----0--------------|0-----------0-------|
B|---0----------0----0|------------3-------|--------------------|
G|4--------3-------3--|--------------------|--------------------|
D|--------------------|--------------------|--------------------|
A|--------------------|--------------------|--------------------|
E|--------------------|--------------------|--------------------|
           What goes on                              in your heart?



  Solo


E|-----7--------------|7------7----7-------|----12--------------|
B|--------------------|--0-----------------|----------12--------|
G|-----------7--------|---------------7----|--------------------|
D|--------------------|--------------------|--------------------|
A|--------------------|--------------------|--------------------|
E|--------------------|--------------------|--------------------|


                       A
E|12-----12-----------|-----9--------------|9-----------9-------|
B|--12--------12------|------------10------|-------10-----------|
G|--------------------|--------------------|--------------------|
D|--------------------|--------------------|--------------------|
A|--------------------|--------------------|--------------------|
E|--------------------|--------------------|--------------------|


  E
E|-----0--------------|--0-----------------|--------------------|
B|------------3-------|-------3----0-------|-----0------0-------|
G|-------------------0H1---------------1---|--------------------|
D|--------------------|------------------/-|6-------------------|
A|--------------------|--------------------|--------------------|
E|--------------------|--------------------|--------------------|



E|0------0---------0--|-----0--------------|0-------------------|
B|--0---------0-------|------------3-------|-------3----0-----0-|
G|--------------------|--------------------|---------------1----|
D|--------------------|--------------------|--------------------|
A|--------------------|--------------------|--------------------|
E|--------------------|--------------------|--------------------|


  A                                         B
E|-----0-------------0|---------0---------0|----2--------2------|
B|--------------------|---2---------2------|-----------------0--|
G|-------0---0---0----|------0---------0---|-------2------------|
D|2-------------------|--------------------|--------------------|
A|--------------------|--------------------|--------------------|
E|--------------------|--------------------|--------------------|



                                            Verse
                       E
E|--------------------|-----0--------------|0-------------------|
B|------0------0----0-|------------3-------|-------3------------|
G|3-------------------|--------------------|--------------------|
D|--------------------|--------------------|--------------------|
A|--------------------|--------------------|--------------------|
E|--------------------|--------------------|--------------------|
                                                               I

                                            A
E|--------------------|--------------------|--------------------|
B|------------0-------|------------0-------|--------------------|
G|----1---------------|----1--------------0H2----2-------2------|
D|--------------------|--------------------|--------------------|
A|--------------------|--------------------|--------------------|
E|--------------------|--------------------|--------------------|
  used to think of  no    one  else  but  you   were just the same

                       E
E|0-----------0-------|-----7--------------|--------------------|
B|1-----------1-------|--------------------|-----7--------------|
G|2-----2-----2-------|------------7-------|-----7--------------|
D|2-----------2-------|--------------------|-----6--------------|
A|--------------------|--------------------|-----7--------------|
E|--------------------|--------------------|--------------------|
                   You didn't e.....ven think   of   me   as

  A
E|--------------------|--------------------|--------------------|
B|-----1------1-------|1----1------1-------|----1-------1-------|
G|-----2------2-------|2----2------2-------|----2-------2-------|
D|-----2------2-------|2----2------2-------|----2-------2-------|
A|--------------------|--------------------|--------------------|
E|--------------------|--------------------|--------------------|
  someone  with  a  name         Did you mean   to break my  heart

  B                    E
E|-----2------2-------|------7-------------|--------------------|
B|-----0------0-------|--------------------|--------------------|
G|-----2------2-------|--------------------|--------------------|
D|-----1------1-------|--------------------|--------------------|
A|--------------------|--------------------|--------------------|
E|--------------------|--------------------|--------------------|
       and watch me die                               Tell  me why



                       Chorus
  B                                         E
E|--------------------|--------------------|-----0--------------|
B|--0----------0------|--------------------|-------------3------|
G|----------4-------2-|--------------------|--------------------|
D|--------------------|--------------------|--------------------|
A|--------------------|--------------------|--------------------|
E|--------------------|--------------------|--------------------|
                                 What goes on


E|0-----------0-------|-----0--------------|0-------------------|
B|--3-----------------|------------3-------|------0-------------|
G|--------------------|--------------------|------2-B-4-R-2-0---|
D|--------------------|--------------------|------------------2-|
A|--------------------|--------------------|--------------------|
E|--------------------|--------------------|--------------------|
           in your heart?                             What goes on

                                            A
E|--------------------|--------------------|--------------------|
B|--------------------|--------------------|--------------------|
G|------------0-------|-------------0------|----2--------2---0--|
D|--------------------|--------------------|--------------------|
A|--------------------|--------------------|-------3-H-4--------|
E|--------------------|--------------------|--------------------|
                                 in your mind                   
                       E
E|--------------------|--------------------|--------------------|
B|--------------------|--------------------|--------------------|
G|--------------------|--------------------|--------------------|
D|--------------------|2----2----2----2----|2----2----2----2----|
A|--------------------|2----4----2----4----|2----4----2----4----|
E|--------------------|0----0--4-0----0----|0----0----0----0----|
           You are tea..................... .....ring   me a...part                            

E|-----0------------0-|---0----------------|--------------------|
B|------------3-------|3-----------3-B-4---|--------------------|
G|--------------------|--------------------|--------------------|
D|--------------------|--------------------|--------------------|
A|--------------------|--------------------|--------------------|
E|--------------------|--------------------|--------------------|
                                 When you treat
                          
                       A
E|--------------------|-----5--------------|--------------------|
B|------------5-------|--------------------|---8-----8----------|
G|--------------------|--------------------|--------------------|
D|--------------------|--------------------|--------------------|
A|--------------------|--------------------|--------------------|
E|--------------------|--------------------|--------------------|
        me so un....kind                              What goes on                              

  B                                         E                                   
E|--------------------|---2----------------|--------------------|
B|--------------------|--------------------|------------0-------|
G|--------------------|--------------------|----1-------1-------|
D|--------------------|--------------------|----2-------2-------|
A|--------------------|--------------------|--------------------|
E|--------------------|--------------------|--------------------|
                                 in your mind

               E7
E|0-------0-----------|----0-------0-------|0-----0-----0-------|
B|0-------0-----------|----3-------3-------|3-----3-----3-------|
G|1-------1----1------|----1-------1-------|1-----1-----1-------|
D|2-------2----2------|----2-------2-------|2-----2-----2-----0-|
A|--------------------|--------------------|--------------------|
E|--------------------|--------------------|--------------------|
           in your mind                               in your mind

                              E5
                             (.
E|--------------------|-------0------------|--------------------|
B|--------------------|-------0------------|--------------------|
G|----0----3\2-0------|-------x------------|--------------------|
D|2--------------2----|2------2------------|--------------------|
A|--------------------|-------2------------|--------------------|
E|--------------------|0------0------------|--------------------|







        B  Bend
        R  Release
        /  slide up
        \  slide down
        H  hammer-on
        P  pull-off
        ~  vibrato
        +  harmonic
        x  Mute note
        . - play note like a dot in standard notation
        ^ - ties two notes together
        (. Pause



  --------------------------------------------------------

  THE BEATLES - GIRL (Lennon & McCartney) From RUBBER SOUL 
                album. Released on 3rd December 1965.)

  --------------------------------------------------------

  Tabbed by:PJVillanueva




  This song was recorded using a capo in the eighth fret
  The corresponding chords to that position are written 
  over the lyrics. 
  Below there is an uncappoed version.(Maybe it works 
  better for those who find a little difficult putting 
  their fingers on small frets.)



  Chords:

  Em     022000
  B7     x21202
  Em7    020030
  Am     x02210
  C6     x32210
  G      320033
  Bm     x24432
  D7     xx0212
  E      022100
  C      332010



  Verse 1

           Em          B7            Em  Em7
  Is there anybody going to listen to my story

  Am           C6               G    B7
  All about a girl who came to stay

            Em                B7               Em       Em7
  She's the kind of girl you want so much it makes you sorry

  Am                 C6           Em
  Still you don't regret a single day



  Chorus

      G Bm Am D7      G Bm Am D7
  Ah, girl............girl



  Verse 2

          Em                 B7               Em         Em7
  When I think of all the times I've tried so hard to leave her

  Am                C6             G     B7
  She will turn to me and start to cry

          Em             B7             Em     Em7
  And she promises the earth to me and I believe her

  Am             C6                Em   
  After all this time I don't know why



  Chorus



  Middle

  Am                                  E
  She's the kind of girl who puts you down

                                     Am     E
  when friends are there, you feel a fool

  Am
  When you say she's looking good

      E                                Am     C
  She acts as if it's understood she's cool



  Chorus



  Verse 3

  Was she told when she was young 
  That fame would lead to pleasure?
  Did she understand it when they said
  That a man must break his back
  To earn his day of leisure?
  Will she still believe it when he's dead?



  Chorus





          ..........................................

                  


  12/8 time



  Verse
                                     
  
e|-8---- -8---- 10---- 10----|-8---- -8---- -8---- -8----|
B|-8------8------8------8----|-8------8--8--11-----11--8-|
G|-8------8-----10-----10----|-8------8--8---8------8--8-|
D|10-----10------9------9----|10-----10-10---8------8--8-|
A|10-----10------------------|10-----10-10--10-----10-10-|
E|-8------8------------------|-8------8--8---8------8--8-|
  Cm             G7           Cm            Cm7


  
e|-8---8 -8---8 -8---8 -8----|-6---6 -6---8 10--10 -----8-|
B|-9---9--9---9--9---9--9---8|-8---8--8---8--8---8------8-|
G|10--10-10--10-10--10-10---8|-8---8--8---8-10--10------8-|
D|10--10-10--10-10--10-10---8|-8---8--8------9---9-----10-|
A|-8---8--8---8--8---8--8----|-6---6--6----------------10-|
E|-------------------------- |--------------------------8-|
  Fm                          Eb             G7        Cm


  
e|-----8 -8---8 10--10 10---8|-----8 -8---- -8---8 ------|
B|-----8--8---8--8---8--8---8|-----8--8---8 11--11-11--8-|
G|-----8--8---8-10--10-10---8|-----8--8---8--8---8--8--8-|
D|----10-10--10--9---9--9--10|----10-10--10--8---8--8--8-|
A|----10-10--10------------10|----10-10--10-10--10-10-10-|
E|-----8---8--8-------------8|-----8--8---8--8---8--8--8-|
                 G7        Cm               Cm7


  
e|-8---8 -8---8 -8---8 -8---8|-8---- 8----- 8----- 8----8|
B|-9---9--9---9--9---9--9---8|-8-----8------8------8----8|
G|10--10-10--10-10--10-10---8|-8-----8------8------8----8|
D|10--10-10--10-10--10-10---8|10----10-----10-----10---10|
A|-8---8--8---8--8---8--8----|10----10-----10-----10---10|
E|---------------------------|-8-----8------8------8----8|
  Fm                          Cm





  Chorus
  
e|11---- 11---- 10--10 10--10|-8---8 -8---8 10--10 10----|
B|11-----11-----11--11-11--11|-9---9--9---9--9---9--9---8|
G|12-----12-----12--12-12--12|10--10-10--10-10--10-10---8|
D|13-----13-----12--12-12--12|10--10-10--10--8---8--8---8|
A|13-----13-----10--10-10--10|-8---8--8---8--------------|
E|11-----11------------------|---------------------------|
  Eb            Gm            Fm             Bb


e|11--11 11--11 10--10 10--10|-8---8 -8---8 10--10 10---8|
B|11--11-11--11-10--10-10--10|-9---9--9---9--9---9--9---8|
G|12--12-12--12-12--12-12--12|10--10-10--10-10--10-10---8|
D|13--13-13--13-12--12-12--12|10--10-10--10--8---8--8---8|
A|13--13-13--13-10--10-10--10|-8---8--8---8--------------|
E|11--11-11--11--------------|---------------------------|
  Eb            Gm             Fm            Bb






  Middle
  
e|-8---- -8---- -8---- -8----|-8---- -8---- -8---- -8----|
B|-9------9------9------9----|-8------8------8------8----|
G|10-----10-----10-----10----|-9------9------9------9----|
D|10-----10-----10-----10----|10-----10-----10-----10----|
A|-8------8------8------8----|10-----10-----10-----10----|
E|---------------------------|-8------8------8------8----|3 times
  Fm                          C
  .......


e|-8---- -8---- -8---- -8----|-8---- -8---- -8---- ------|
B|-9------9------9------9----|-9------9------9-----------|
G|10-----10-----10-----10----|-8------8------8-----------|
D|10-----10-----10-----10----|10-----10-----10-----------|
A|-8------8------8------8----|11-----11-----11-----------|
E|---------------------------|---------------------------|
  Fm                          A




  Ending


  First guitar

e|------ ------ ------ ------|------ ------ ------ ------|
B|---------------------------|8-------------9------8-----|
G|8-------------10-----7-----|-------8-------------------|
D|-------10------------------|---------------------------|
A|---------------------------|---------------------------|
E|---------------------------|---------------------------|

  
e|------ ------ ------ ------|------ ------ ------ ------|
B|-------9------8------------|---------------------------|
G|10-------------------10----|8------10-----8------7-----|
D|---------------------------|---------------------------|
A|---------------------------|---------------------------|
E|---------------------------|---------------------------|2 times



 Second guitar
  
e|------ ------ ------ ------|------ ------ ------ ------|
B|8--8----------9--9---------|11-11---------13-13--11-11-|
G|-------8--8----------10-10-|-------12-12---------------|
D|---------------------------|---------------------------|
A|---------------------------|---------------------------|
E|---------------------------|---------------------------|

  
e|------ ------ ------ ------|------ ------ ------ ------|
B|9--9---13-13--11-11--9--9--|8--8---9--9---8--8---------|
G|---------------------------|---------------------10-10-|
D|---------------------------|---------------------------|
A|---------------------------|---------------------------|
E|---------------------------|---------------------------|2 times








        B  Bend
        R  Release
        /  slide up
        \  slide down
        H  hammer-on
        P  pull-off
        ~  vibrato
        +  harmonic
        x  Mute note
        . - play note like a dot in standard notation
        ^ - ties two notes together
        (.  Pause



-----------------------------------------------------------------

  THE BEATLES - I'M LOOKING THROUGH YOU (Lennon & McCartney) From 
                RUBBER SOUL album. Released 3rd December 1965.
 
-----------------------------------------------------------------

  Tabbed by:PJVillanueva





                  (Use a capo on the first fret) 


  Intro                                    
  G                           D
e|7------ 7------ 7--7--- 7-\-5--|---5--- 5------ 5------ -------|
B|8-------8-------8--8----8-\-7--|---7----7-------7-------0------|
G|7-------7-------7--7----7-\-7--|---7----7-------7-------0------|
D|0-------0-------0--0----0------|---0----0-------0-------0------|
A|-------------------------------|-------------------------------|
E|-------------------------------|-------------------------------|


  G               C               G               C
e|3------ 3------ 3--3--- 3--3---|3------ 3------ 3--3--- 3--3---|
B|0-------0-------1--1----1--0---|0-------0-------1--1----1--0---|
G|0-------0-------0--0----0--0---|0-------0-------0--0----0--0---|
D|0-------0-------2--2----2--0---|0-------0-------2--2----2--0---|
A|2-------2-------3--3----3------|2-------2-------3--3----3------|
E|3-------3----------------------|3-------3----------------------|

                                  Verse
  G               C               G               C       Em
e|3------ 3------ 3--3--- 3--3---|3------ 3------ ------- -------|
B|0-------0-------1--1----1--0---|0-------0-------1-------0------|
G|0-------0-------0--0----0--0---|0-------0-------0-------0------|
D|0-------0-------2--2----2--0---|0-------0-------2-------2------|
A|2-------2-------3--3----3------|2-------2-------3-------2------|
E|3-------3----------------------|3-------3----------------------|
                                          I'm      looking


  Am                              Em
e|0------ 0------ 0--0--- 0------|------- 3------ 3--3--- 3------|
B|1-------1-------1--1----1------|--------0-------0--0----0------|
G|2-------2-------2--2----2------|0-------0-------0--0----0------|
D|2-------2-------2--2----2------|2-------2-------2--2----2------|
A|0-------0-------0-------0------|2-------2-------2--2----2------|
E|-------------------------------|0-------0-------0-------0------|
  through     you                         where   did     you  go


  D                         Dsus4 G               C       Em
e|2------ 2------ 2--2--- 2--3---|3------ 3------ ------- -------|
B|3-------3-------3--3----3--3---|0-------0-------1-------0------|
G|2-------2-------2--2----2--2---|0-------0-------0-------0------|
D|0-------0-------0-------0------|0-------0-------2-------2------|
A|-------------------------------|2-------2-------3-------2------|
E|-------------------------------|3-------3----------------------|
                                          I       thought  I


  Am                              Em
e|0------ 0--0--- 0--0--- 0--0---|0------ 0--0--- 0--0--- 0------|
B|1-------1--1----1--1----1--0---|0-------0--0----0--0----0------|
G|2-------2--2----2--2----2--0---|0-------0--0----0--0----0------|
D|2-------2--2----2--2----2--0---|2-------2--2----2--2----2------|
A|0-------0-------0-------0------|2-------2--2----2--2----2------|
E|-------------------------------|0-------0-------0-------0------|
   knew      you,                         what     did I     know


  D                               Em7
e|2------ 2--2--- 2--2--- 2------|------- ------- ------- -------|
B|3-------3--3----3--3----3------|0-------3--3----3--3----3------|
G|2-------2--2----2--2----2------|0-------0--0----0--0----0------|
D|0-------0-------0-------0------|2-------2--2----2--2----2------|
A|-------------------------------|2-------2--2----2--2----2------|
E|-------------------------------|0-------0-------0-------0------|
                                          You  don't   look 


  Asus4           Am              G
e|------- ------- ------- -------|------- 3------ 3--3--- 3------|
B|3-------3-------1--1----1------|--------3-------3--3----3------|
G|2-------2-------2--2----2------|0-------0-------0--0----0------|
D|2-------2-------2--2----2------|0-------0-------0--0----0------|
A|0-------0-------0-------0------|2-------2-------2--2----2------|
E|-------------------------------|3-------3-------3--3----3------|
  different,              but     you             have       changed


  D                               G               C       Em
e|2------ 2------ 2--2--- 2------|------- 3------ ------- -------|
B|3-------3-------3--3----3------|--------3-------1-------0------|
G|2-------2-------2--2----2------|0-------0-------0-------0------|
D|0-------0-------0-------0------|0-------0-------2-------2------|
A|-------------------------------|2-------2-------3-------2------|
E|-------------------------------|3-------3----------------------|
                                           I'm    looking
 

  Am                              C
e|0------ 0--0--- 0--0--- 0------|3------ 3--3--- 3--3--- 3--3---|
B|1-------1--1----1--1----1------|1-------1--1----1--1----1--1---|
G|2-------2--2----2--2----2------|0-------0--0----0--0----0--0---|
D|2-------2--2----2--2----2------|2-------2--2----2--2----2--2---|
A|0-------0-------0-------0------|3-------3--3----3--3----3--3---|
E|-------------------------------|-------------------------------|
  through     you,                        you're   not    the  same


  G               C               G               C 
e|3------ 3------ 3--3--- 3--3---|3------ 3------ 3--3--- 3--3---|
B|3-------3-------1--1----1--0---|3-------3-------1--1----1--0---|
G|0-------0-------0--0----0--0---|0-------0-------0--0----0--0---|
D|0-------0-------2--2----2--0---|0-------0-------2--2----2--0---|
A|2-------2-------3--3----3------|2-------2-------3--3----3------|
E|3-------3----------------------|3-------3----------------------|

e|3------ 3------ 1-R-0-- -------|3------ 3------ 1-R-0-- -------|
B|3-------3-------------3--------|3-------3-------------3--------|
G|------------------------3--4---|------------------------3--4---|
D|-------------------------------|-------------------------------|
A|-------------------------------|-------------------------------|
E|-------------------------------|-------------------------------|


                                  Verse
  G               C               G               C       Em
e|3------ 3------ 3--3--- 3--3---|3------ 3------ ------- -------|
B|3-------3-------1--1----1--0---|3-------3-------1-------0------|
G|0-------0-------0--0----0--0---|0-------0-------0-------0------|
D|0-------0-------2--2----2--0---|0-------0-------2-------2------|
A|2-------2-------3--3----3------|2-------2-------3-------2------|
E|3-------3----------------------|3-------3----------------------|
                                          Your    lips    are 
e|3------ 3------ 1-R-0-- -------|3------ ------- ------- -------|
B|3-------3-------------3--------|3------------------------------|
G|------------------------3--4---|-------------------------------|
D|-------------------------------|-------------------------------|
A|-------------------------------|-------------------------------|
E|-------------------------------|-------------------------------|



  Am                              Em      
e|0------ 0------ 0--0--- 0------|------- 3------ 3--3--- 3------|
B|1-------1-------1--1----1------|--------0-------0--0----0------|
G|2-------2-------2--2----2------|0-------0-------0--0----0------|
D|2-------2-------2--2----2------|2-------2-------2--2----2------|
A|0-------0-------0-------0------|2-------2-------2--2----2------|
E|-------------------------------|0-------0-------0-------0------|
  mo.........ving,                        I       cannot      hear


  D                         Dsus4 G               C       Em
e|2------ 2--2--- 2--3--- ---3---|3------ 3------ ------- -------|
B|3-------3--3----3--3-------3---|0-------0-------1-------0------|
G|2-------2--2----2--2-------2---|0-------0-------0-------0------|
D|0-------0-------0-------0------|0-------0-------2-------2------|
A|-------------------------------|2-------2-------3-------2------|
E|-------------------------------|3-------3----------------------|
                                          Your    voice   is 


  Am                              Em
e|0------ 0--0--- 0--0--- 0--0---|0------ 0--0--- 0--0--- 0--0---|
B|1-------1--1----1--1----1--0---|0-------0--0----0--0----0--0---|
G|2-------2--2----2--2----2--0---|0-------0--0----0--0----0--0---|
D|2-------2--2----2--2----2--0---|2-------2--2----2--2----2--2---|
A|0-------0-------0-------0------|2-------2--2----2--2----2--2---|
E|-------------------------------|0-------0-------0-------0------|
  soo........thing,                       but the words   aren't 


  D                  Dsus4        Em      Em7
e|2------ 2--2--- 2--3--- -------|------- ------- ------- -------|
B|3-------3--3----3--3----3------|0-------3--3----3--3----3--3---|
G|2-------2--2----2--2----2------|0-------0--0----0--0----0--0---|
D|0-------0-------0-------0------|2-------2--2----2--2----2--2---|
A|-------------------------------|2-------2--2----2--2----2--2---|
E|-------------------------------|0-------0-------0-------0------|
  clear                                   You  don't  sound 


  Asus4           Am              G
e|------- ------- ------- -------|------- 3------ 3--3--- 3------|
B|3-------3-------1--1----1------|--------3-------3--3----3------|
G|2-------2-------2--2----2------|0-------0-------0--0----0------|
D|2-------2-------2--2----2------|0-------0-------0--0----0------|
A|0-------0-------0-------0------|2-------2-------2--2----2------|
E|-------------------------------|3-------3-------3--3----3------|
  di.........fferent,     I've    learned         the          game


  D                  Dsus4        G               C       Em
e|2------ 2------ 2--3--- ---3---|------- 3------ ------- -------|
B|3-------3-------3--3----3--3---|--------3-------1-------0------|
G|2-------2-------2--2----2--2---|0-------0-------0-------0------|
D|0-------0-------0-------0------|0-------0-------2-------2------|
A|-------------------------------|2-------2-------3-------2------|
E|-------------------------------|3-------3----------------------|
                                          I'm     looking 


  Am                              C
e|0------ 0--0--- 0--0--- 0------|3------ 3--3--- 3--3--- 3------|
B|1-------1--1----1--1----1------|1-------1--1----1--1----1------|
G|2-------2--2----2--2----2------|0-------0--0----0--0----0------|
D|2-------2--2----2--2----2------|2-------2--2----2--2----2------|
A|0-------0-------0-------0------|3-------3--3----3--3----3------|
E|-------------------------------|-------------------------------|
  through     you,                         you're  not    the  same


  G               C               G               C
e|3------ 3------ 3--3--- 3--3---|3------ 3------ 3--3--- 3--3---|
B|3-------3-------1--1----1--0---|3-------3-------1--1----1--0---|
G|0-------0-------0--0----0--0---|0-------0-------0--0----0--0---|
D|0-------0-------2--2----2--0---|0-------0-------2--2----2--0---|
A|----------------3--3----3------|2-------2-------3--3----3------|
E|3-------3----------------------|3-------3----------------------|

e|3------ 3------ 1-R-0-- -------|3------ 3------ 1-R-0-- -------|
B|3-------3-------------3--------|3-------3-------------3--------|
G|------------------------3--4---|------------------------3--4---|
D|-------------------------------|-------------------------------|
A|-------------------------------|-------------------------------|
E|-------------------------------|-------------------------------|



  G               C               G               C
e|3------ 3------ 3--3--- 3--3---|3------ 3------ 3--3--- 3--3---|
B|3-------3-------1--1----1--0---|3-------3-------1--1----1--0---|
G|0-------0-------0--0----0--0---|0-------0-------0--0----0--0---|
D|0-------0-------2--2----2--0---|0-------0-------2--2----2--0---|
A|2-------2-------3--3----3------|2-------2-------3--3----3------|
E|3-------3----------------------|3-------3----------------------|

e|3------ 3------ 1-R-0-- -------|3------ 3------ 1-R-0-- -------|
B|3-------3-------------3--------|3-------3-------------3--------|
G|------------------------3--4---|------------------------3--4---|
D|-------------------------------|-------------------------------|
A|-------------------------------|-------------------------------|
E|-------------------------------|-------------------------------|



  Bridge
  C       
e|3------ 3--3--- 3--3--- 3------|3------ 3--3--- 3--3--- 3------|
B|1-------1--1----1--1----1------|1-------1--1----1--1----1------|
G|0-------0--0----0--0----0------|0-------0--0----0--0----0------|
D|2-------2--2----2--2----2------|2-------2--2----2--2----2------|
A|3-------3--3----3--3----3------|3-------3--3----3--3----3------|
E|-------------------------------|-------------------------------|
  Why,            tell    me   why,       did you    not 


  G
e|3------ 3------ 3--3--- 3------|3------ 3------ 3--3--- 3--3---|
B|3-------3-------3--3----3------|3-------3-------3--3----3--3---|
G|0-------0-------0--0----0------|0-------0-------0--0----0--0---|
D|0-------0-------0--0----0------|0-------0-------0--0----0--0---|
A|2-------2-------2-------2------|2-------2-------2-------2------|
E|3-------3-------3-------3------|3-------3-------3-------3------|
  treat   me  right? 


  C
e|3------ 3--3--- 3--3--- 3------|3------ 3--3--- 3--3--- 3------|
B|1-------1--1----1--1----1------|1-------1--1----1--1----1------|
G|0-------0--0----0--0----0------|0-------0--0----0--0----0------|
D|2-------2--2----2--2----2------|2-------2--2----2--2----2------|
A|3-------3--3----3--3----3------|3-------3--3----3--3----3------|
E|-------------------------------|-------------------------------|
  Love            has     a   nas.........ty ha.......bit of 


  Dsus4                           D
e|3------ 3------ 3--3--- 3--3---|2------ 2--2--- 2--2--- 2------|
B|3-------3-------3--3----3--3---|3-------3--3----3--3----3------|
G|2-------2-------2--2----2--2---|2-------2--2----2--2----2------|
D|0-------0-------0-------0------|0-------0-------0-------0------|
A|-------------------------------|-------------------------------|
E|-------------------------------|-------------------------------|
  disa.......ppea.........ring    over........night





  Verse
  G      C   Em   Am    Em             D
  You're thinking of me, the same old way
  G   C   Em Am    Em            D
  You were above me, but not today
  Em       Am            G           D
  The only difference is you're down there
  G   C    Em Am           C             G  C  G  C  G  C  G  
  I'm looking through you, any other way


  Bridge
  C                             G
  Why, tell me why, did you not treat me right?
  C                         Dsus4        D
  Love has a nasty habit of disappearing overnight


  Verse
  G   C    Em Am         Em               D
  I'm looking through you, where did you go
  G C      Em Am       Em            D
  I thought I knew you, what did I know
  Em7           Asus4 Am        G        D
  You don't look different, but you have changed
  G   C    Em Am           C              *  G  C  G  C  G  C  G  C
  I'm looking through you, you're not the same
                                             G  C  G  C  G  C  G  C

                                             G  C  G  C




  *  Coda

  G               C               G               C
e|3------ 3------ 3--3--- 3--3---|3------ 3------ 3--3--- 3--3---|
B|3-------3-------1--1----1--0---|3-------3-------1--1----1--0---|
G|0-------0-------0--0----0--0---|0-------0-------0--0----0--0---|
D|0-------0-------2--2----2--0---|0-------0-------2--2----2--0---|
A|----------------3--3----3------|2-------2-------3--3----3------|
E|3-------3----------------------|3-------3----------------------|
                             Yeah            Oh  baby  you've changed
e|3------ 3------ 1-R-0-- -------|3------ 3------ 1-R-0-- -------|
B|3-------3-------------3--------|3-------3-------------3--------|
G|------------------------3--4---|------------------------3--4---|
D|-------------------------------|-------------------------------|
A|-------------------------------|-------------------------------|
E|-------------------------------|-------------------------------|


  G               C               G               C
e|3------ 3------ 3--3--- 3--3---|3------ 3------ 3--3--- 3--3---|
B|3-------3-------1--1----1--0---|3-------3-------1--1----1--0---|
G|0-------0-------0--0----0--0---|0-------0-------0--0----0--0---|
D|0-------0-------2--2----2--0---|0-------0-------2--2----2--0---|
A|2-------2-------3--3----3------|2-------2-------3--3----3------|
E|3-------3----------------------|3-------3----------------------|
                                          Ah          I'm  looking
e|3------ 3------ 1-R-0-- -------|3------ 3------ 1-R-0-- -------|
B|3-------3-------------3--------|3-------3-------------3--------|
G|------------------------3--4---|------------------------3--4---|
D|-------------------------------|-------------------------------|
A|-------------------------------|-------------------------------|
E|-------------------------------|-------------------------------|


  G               C               G               C
e|3------ 3------ 3--3--- 3--3---|3------ 3------ 3--3--- 3--3---|
B|3-------3-------1--1----1--0---|3-------3-------1--1----1--0---|
G|0-------0-------0--0----0--0---|0-------0-------0--0----0--0---|
D|0-------0-------2--2----2--0---|0-------0-------2--2----2--0---|
A|----------------3--3----3------|2-------2-------3--3----3------|
E|3-------3----------------------|3-------3----------------------|
  through you               yeah                     I'm  looking
e|3------ 3------ 1-R-0-- -------|3------ 3------ 1-R-0-- -------|
B|3-------3-------------3--------|3-------3-------------3--------|
G|------------------------3--4---|------------------------3--4---|
D|-------------------------------|-------------------------------|
A|-------------------------------|-------------------------------|
E|-------------------------------|-------------------------------|


  G               C               G               C
e|3------ 3------ 3--3--- 3--3---|3------ 3------ 3--3--- 3--3---|
B|3-------3-------1--1----1--0---|3-------3-------1--1----1--0---|
G|0-------0-------0--0----0--0---|0-------0-------0--0----0--0---|
D|0-------0-------2--2----2--0---|0-------0-------2--2----2--0---|
A|2-------2-------3--3----3------|2-------2-------3--3----3------|
E|3-------3----------------------|3-------3----------------------|
  Through you                                        Ah  you've changed
e|3------ 3------ 1-R-0-- -------|3------ 3------ 1-R-0-- -------|
B|3-------3-------------3--------|3-------3-------------3--------|
G|------------------------3--4---|------------------------3--4---|
D|-------------------------------|-------------------------------|
A|-------------------------------|-------------------------------|
E|-------------------------------|-------------------------------|


  G               C               G               C
e|3------ 3------ 3--3--- 3--3---|3------ 3------ 3--3--- 3--3---|
B|3-------3-------1--1----1--0---|3-------3-------1--1----1--0---|
G|0-------0-------0--0----0--0---|0-------0-------0--0----0--0---|
D|0-------0-------2--2----2--0---|0-------0-------2--2----2--0---|
A|2-------2-------3--3----3------|2-------2-------3--3----3------|
E|3-------3----------------------|3-------3----------------------|
         you've changed  you've changed
e|3------ 3------ 1-R-0-- -------|3------ 3------ 1-R-0-- -------|
B|3-------3-------------3--------|3-------3-------------3--------|
G|------------------------3--4---|------------------------3--4---|
D|-------------------------------|-------------------------------|
A|-------------------------------|-------------------------------|
E|-------------------------------|-------------------------------|

.............................. Fade ..............................







        B  Bend
        R  Release
        /  slide up
        \  slide down
        H  hammer-on
        P  pull-off
        ~  vibrato
        +  harmonic
        x  Mute note
        . - play note like a dot in standard notation
        ^ - ties two notes together
        (. Pause



  --------------------------------------------------------------

  THE BEATLES - IN MY LIFE (Lennon & McCartney) From RUBBER SOUL 
                album. Released on 3rd December 1965. 

  --------------------------------------------------------------

  Tabbed by:PJVillanueva





  I have included the great piano solo by George Martin. I think it is
  not too difficult to master and can be played as two different guitar
  parts (treble and bass). It may be a little help explaining the last
  measure of the solo, in which the third beat contains an 8th note  
  along with a sextet of 32nd notes that run into the last note on the 
  fourth beat of the measure. 
  It's really fast and it was recorded at half speed and speeded up
  later giving it more precission and that fine harpsichord tone, but
  I think that it can be played using a chain of five pull offs with 
  just two hammer ons. 





  There are places I'll remember
  All my life though some have changed
  Some forever not for better
  Some have gone and some remain
  All these places have their moments
  With lovers and friends I still can recall
  Some are dead and some are living
  In my life I've loved them all

  But of all these friends and lovers
  There is no one compares with you
  And these memories lose their meaning
  When I think of love as something new
  Though I know I'll never lose affection
  For people and things that went before
  I know I'll often stop and think about them
  In my life I love you more

  Though I know I'll never lose affection
  For people and things that went before
  I know I'll often stop and think about them
  In my life I love you more
  In my life I love you more


  4/4 

  A5                             E5
e|-------- -------- -------- --------|-------- -------- -------- --------|
B|-----------------------------------|-----------------------------------|
G|2--------2--------2----------------|-----------------------------------|
D|2--------2--------2------------2---|---------2--------2--------2---2---|
A|0--------0--------0------------2---|---------2--------2--------2---2---|
E|-------------------------------0---|---------0--------0--------0---0---|

e|-------- 5------- -------- 0---4---|-------- -------- -------- --------|
B|2-----------------2-H-3------------|-----------------------------------|
G|-----------------------------------|-----------------------------------|
D|-----------------------------------|-----------------------------------|
A|-----------------------------------|-----------------------------------|
E|-----------------------------------|-----------------------------------|




  A5                             E5
e|-------- -------- -------- --------|-------- -------- -------- --------|
B|-----------------------------------|-----------------------------------|
G|2--------2--------2----------------|-----------------------------------|
D|2--------2--------2------------2---|---------2--------2--------2-------|
A|0--------0--------0------------2---|---------2--------2--------2-------|
E|-------------------------------0---|---------0--------0--------0-------|
                                                                 There are 
e|-------- 5------- -------- 0---4---|-------- -------- -------- --------|
B|2-----------------2-H-3------------|-----------------------------------|
G|-----------------------------------|-----------------------------------|
D|-----------------------------------|-----------------------------------|
A|-----------------------------------|-----------------------------------|
E|-----------------------------------|-----------------------------------|




  A                 E                 F#m                   A7
e|-------- -------- -------- --------|2------- -------- ----0--- 0-------| 
B|-------------2---------------------|2---------------------2----2-------|
G|---------2-------------------------|2---------------------0----0-------|
D|-------2----------2--------2-------|4---------------------2----2-------|
A|0---0-------------2--------2-------|4---------------------0----0-------|
E|------------------0--------0-------|2----------------------------------|
  places            I'll     remember                            all my


 
  D                 Dm                A
e|-------- 2------- -------- 1-------|-------- -------- -------- --------|
B|-------3-----3-----------3---------|-------------2---------------------|
G|----2----------------2-------------|---------2------------2--------2---|
D|0-----------------0----------------|-------2---------------------------|
A|-----------------------------------|0---0------------------------------|
E|-----------------------------------|-----------------------------------|
  life                          though some have   changed       Some fo..




                    E                 F#m          A7
e|-------- -------- -------- --------|-------- -------- -------- --------|
B|---------2-----------------0-------|2----------------------------------|
G|-------2-----2-----------1---------|2----------------------------------|
D|----2-----------------2------------|4----------------------------------|
A|0----------------------------------|4------------0-------------0-------|
E|------------------0----------------|2-----------------3----------------|
  rever             not      for      better                     Some have 



  D                 D(m)              A
e|-------- -------- -------- --------|-------- -------- -------- --------|
B|---------3-----------------3-------|---------2------------2------------|
G|-------2-----2-----------2-----2---|---------2------------2------------|
D|0---0-------------0---0------------|---------2------------2------------|
A|-----------------------------------|0----------------------------------|
E|-----------------------------------|-----------------------------------|
  gone                           and  some     remain            All these



  F#m                                 D
e|2------- -------- -------- --------|2------- ----2--- 2------- 2-------|
B|2----------------------------------|3------------3----3--------3-------|
G|2----------------------------------|2------------2----2--------2-------|
D|4----------------------------------|0------------0----0--------0-------|
A|4----------------------------------|0------------0----0--------0-------|
E|2----------------------------------|-----------------------------------|
  places             have    their    moments



  G                                   A
e|3------- 3---3--- 3---3--- 3-------|5---5--- ----5--- -------- 5-------|
B|3--------3---3----3---3----3-------|5---5--------5-------------5-------|
G|4--------4---4----4---4----4-------|6---6--------6-------------6-------|
D|5--------5---5----5---5----5-------|7---7--------7-------------7-------|
A|5--------5---5----5---5----5-------|7---7--------7-------------7-------|
E|3--------3---3----3---3----3-------|5---5--------5-------------5-------|
  lovers and  friends            I    still can recall           Some are



  F#m                                 B5
e|-------- -------- -------- --------|-------- -------- -------- --------|
B|-----------------------------------|-----------------------------------|
G|2----------------------------------|4------------4----4--------4-------|
D|4----------------------------------|4------------4----4--------4-------|
A|4----------------------------------|2------------2----2--------2-------|
E|2----------------------------------|-----------------------------------|
  dead     and      some     are      living                         In



  D                 D(m)              A
e|-------- -------- -------- --------|-------- ----0--- -------- --------|
B|---------3-----------------3-------|---------2-------------------------|
G|-------2-----2-----------2-----2---|-------2---------------------------|
D|0---0-------------0---0------------|----2------------------------------|
A|-----------------------------------|0----------------------------------|
E|-----------------------------------|-----------------------------------|
  my                life         I've loved  them  all



  A5                             E5
e|-------- -------- -------- --------|-------- -------- -------- --------|
B|-----------------------------------|-----------------------------------|
G|2--------2--------2----------------|-----------------------------------|
D|2--------2--------2------------2---|---------2--------2--------2-------|
A|0--------0--------0------------2---|---------2--------2--------2-------|
E|-------------------------------0---|---------0--------0--------0-------|
                                                                 But of
e|-------- 5------- -------- 0---4---|-------- -------- -------- --------|
B|2-----------------2-H-3------------|-----------------------------------|
G|-----------------------------------|-----------------------------------|
D|-----------------------------------|-----------------------------------|
A|-----------------------------------|-----------------------------------|
E|-----------------------------------|-----------------------------------|




  A                 E                 F#m         A7
e|-------- -------- -------- --------|-------- -------- -------- --------|
B|---2-------------------------------|2-----------2--------------2-------|
G|--2---------------1----------------|2-----------0--------------0-------|
D|-2----------------2----------------|4-----------2--------------2-------|
A|0-----------------2----------------|4-----------0--------------0-------|
E|------------------0----------------|2----------------------------------|
  all      these    friends  and      lovers                     there is



  D                 D(m)              A
e|-------- -------- -------- --------|-------- -------- -------- --------|
B|---------3---3-------------3-------|----2--------2----2---2--------2---|
G|-------2-----------------2-----2---|----2--------2----2---2--------2---|
D|0---0-------------0---0------------|----2--------2----2---2--------2---|
A|-----------------------------------|0------------0----0---0--------0---|
E|-----------------------------------|-----------------------------------|
  no                one          compared      with you          And these



                    E                 F#m          A7
e|-------- -------- -------- --------|-------- -------- -------- --------|
B|---------2-------------------------|2--------2---2----2--------2-------|
G|-------2-----2----1----------------|2--------2---0----0--------0-------|
D|----2-------------2----------------|4--------4---2----2--------2-------|
A|0-----------------2----------------|4--------4---0----0--------0-------|
E|------------------0----------------|2--------2-------------------------|
  memories          lose     their    meaning                    when I



  D                 D(m)              A
e|-------- -------- -------- --------|-------- -------- -------- --------|
B|---------3-----------------3-------|2------------2--------2------------|
G|-------2-----2-----------2-----2---|2------------2--------2------------|
D|0---0-------------0---0------------|2------------2--------2------------|
A|-----------------------------------|0------------0--------0------------|
E|-----------------------------------|-----------------------------------|
  think        of   love         as   something    new           Tough I



  F#m                                 D
e|-------- -------- -------- --------|2------- ----2--- 2------- --------|
B|2--------2---------------------2---|3------------3----3----------------|
G|2--------2---------------------2---|2------------2----2----------------|
D|4--------4---------------------4---|0------------0----0----------------|
A|4--------4---------------------4---|0------------0----0----------------|
E|2--------2---------------------2---|-----------------------------------|
  know     I'll     never    lose affection                          for



  G                                   A
e|3------- 3---3--- 3------- 3---3---|5------- ----5--- ----5--- 5-------|
B|3--------3---3----3--------3---3---|5------------5--------5----5-------|
G|4--------4---4----4--------4---4---|6------------6--------6----6-------|
D|5--------5---5----5--------5---5---|7------------7--------7----7-------|
A|5--------5---5----5--------5---5---|7------------7--------7----7-------|
E|3--------3---3----3--------3---3---|5------------5--------5----5-------|
  people  and  things            that went  before                   I



  F#m                                 B5
e|-------- -------- -------- --------|-------- -------- -------- --------|
B|2---------------------2------------|-----------------------------------|
G|2---------------------2------------|4------------4-------------4-------|
D|4---------------------4------------|4------------4--------4------------|
A|4---------------------4------------|2------------2----2----------------|
E|2---------------------2------------|-----------------------------------|
  know I'll often   stop and think about  them                       In



  D                 D(m)              A
e|-------- -------- -------- --------|-------- -------- -------- --------|
B|---------3-----------------3-------|2---2----2--------2---2-----2------|
G|-------2-----2-----------2-----2---|2---2----2--------2---2-----2------|
D|0---0-------------0---0------------|2---2----2--------2---2-----2------|
A|-----------------------------------|0---0----0--------0---0-----0------|
E|-----------------------------------|-----------------------------------|
  my                life




  Piano solo
                    E                 F#m          A7
e|-------- -------- -------- --------|-------- -------- -------- --------|
B|---------2-----------------0-------|2------------2-------------2-------|
G|-------2-----2-----------1---------|2------------0-------------0-------|
D|-----2-----------------2-----------|4------------2-------------2-------|
A|0----------------------------------|4------------0-------------0-------|
E|------------------0----------------|2----------------------------------|
                                            
e|-------- 9------- 121012-- --------|-------- -------- -------- 12--15--|
B|----1012-----10---------12-----12--|------------141214----15-----------|
G|---------------------------9-------|----1113-14------------------------|
D|-----------------------------------|-----------------------------------|
A|-----------------------------------|-----------------------------------|
E|-----------------------------------|-----------------------------------|

e|-------- -------- -------- --------|-------- -------- -------- --------|
B|-----------------------------------|-----------------------------------|
G|-------------4---------------------|----------------------6-4----------|
D|7--------------7--6--------7---6---|4------------5-------------7-5-3---|
A|----------------------7------------|---------------------------------7-|
E|-----------------------------------|-----------------------------------|





  D                 Dm                A
e|-------- ----2--- -------- ----1---|-------- ----0--- -------- --------|
B|---------3-----------------3-------|2--------2------------2------------|
G|-------2-----------------2---------|2------2-----------------------2---|
D|0---0-------------0---0------------|2----2-----------------------------|
A|-----------------------------------|0---0------------------------------|
E|-----------------------------------|-----------------------------------|
                                                      
e|--141214 --14--14 ---131213--------|--121012 --12--12 ---121012--------|
B|---------15--14---12-------15--12--|---------14--12---10-------14--12--|
G|-----------------------------------|-----------------------------------|
D|-----------------------------------|-----------------------------------|
A|-----------------------------------|-----------------------------------|
E|-----------------------------------|-----------------------------------|

e|-------- -------- -------- --------|-------- -------- -------- --------|
B|-----------------------------------|-----------------------------------|
G|-----------------------------------|--------------------6---6----6---6-|
D|---------7----------7-6-7----7---7-|---------7------------9----7---6---|
A|5-----------------5--------9---7---|4-----------------7----------------|
E|-----------------------------------|-----------------------------------|





                    E                 F#m                        A7
e|-------- -------- -------- --------|-------- -------- -------- --------|
B|---------2-----------------0-------|2--------2-----------------2-------|
G|-------2-----2-----------1-----1---|2-------2------------------0-------|
D|-----2-----------------2-----------|4------4-------------------2-------|
A|0----------------------------------|4-----4--------------------0-------|
E|------------------0----------------|2----2-----------------------------|
                                            
e|-------- 9------- 121012-- --------|-------- -------- -------- 12--15--|
B|----1012-----10---------12-----12--|------------141214----15-----------|
G|---------------------------9-------|----1113-14------------------------|
D|-----------------------------------|-----------------------------------|
A|-----------------------------------|-----------------------------------|
E|-----------------------------------|-----------------------------------|
                                                                 
e|-------- -------- -------- --------|-------- -------- -------- --------|
B|-----------------------------------|-----------------------------------|
G|-------------4---------------------|----------------------6-4----------|
D|7--------------7--6--------7---6---|4------------5-------------7-5-3---|
A|----------------------7------------|---------------------------------7-|
E|-----------------------------------|-----------------------------------|  





  D                 D(m)              A
e|-------- -------- -------- --------|-------- -------- -------- --------|
B|---------3-----------------3-------|2--------2---2-------------2-------|
G|-------2-----2-----------2-----2---|2-------2----2-------------0-------|
D|0---0-------------0---0------------|2------2-----2-------------2-------|
A|-----------------------------------|0-----0------0-------------0-------|
E|-----------------------------------|-----------------------------------|
                     
e|--141214 --14--14 ---131213--------|12-91012 9---0-4- 5-420--- --------|
B|---------15--14---12-------15--12--|-----------10----------320---------|
G|-----------------------------------|---------------------------2-------|
D|-----------------------------------|-----------------------------------|
A|-----------------------------------|-----------------------------------|
E|-----------------------------------|-----------------------------------|
                                                                 Though I
e|-------- -------- -------- --------|-------- -------- -------- --------|
B|-----------------------------------|-----------------------------------|
G|-----------------------------------|-----------------------------------|
D|---------7----------7-6-7----7---7-|---------7--------7--64------------|
A|5-----------------5--------9---7---|4------------7---------754---------|
E|-----------------------------------|--------------------------75-------|




  F#m                                 D
e|2------- -------- -------- --------|----2--- -------- -------- --------|
B|2----------------------------------|---3-------------------------------|
G|2----------------------------------|--2--------------------------------|
D|4----------------------------------|-0---------------------------------|
A|4----------------------------------|0----------------------------------|
E|2----------------------------------|-----------------------------------|
  know     I'll     never    lose affection                          for



  G                                   A
e|3------- 3---3--- 3------- 3---3---|5------- 5------- 5------ ---------|
B|3--------3---3----3--------3---3---|5--------5--------5----------------|
G|4--------4---4----4--------4---4---|6--------6--------6----------------|
D|5--------5---5----5--------5---5---|7--------7--------7----------------|
A|5--------5---5----5--------5---5---|7--------7--------7----------------|
E|3--------3---3----3--------3---3---|5--------5--------5----------------|
  people  and  things            that went  before                   I



  F#m F#5                                 B5
e|-------- -------- -------- --------|-------- -------- -------- --------|
B|2----------------------------------|-----------------------------------|
G|2----------------------------------|----4--------4---------------------|
D|4---4--------4--------4--------4---|----4--------4----4--------4-------|
A|4---4--------4--------4--------4---|----2--------2--------2------------|
E|2---2--------2--------2--------2---|-----------------------------------|
  know I'll often   stop and think about  them                       In



  D                 Dm                A
e|-------- 2------- -------- 1-------|-------- -------- -------- --------|
B|-------3-----------------3---------|2--------2---2-------------2-------|
G|------2------2----------2----------|2------2-----2-------------2-------|
D|0---0-------------0---0------------|2-----2------2-------------2-------|
A|-----------------------------------|0---0--------0-------------0-------|
E|-----------------------------------|-----------------------------------|
  my                life         I    love     you more



  A5                             E5
e|-------- -------- -------- --------|-------- -------- -------- --------|
B|-----------------------------------|-----------------------------------|
G|2--------2--------2----------------|-----------------------------------|
D|2--------2--------2------------2---|---------2--------2--------2-------|
A|0--------0--------0------------2---|---------2--------2--------2-------|
E|-------------------------------0---|---------0--------0--------0-------|
                                                                     In
e|-------- 5------- -------- 0---4---|-------- -------- 4---2--- 4-------|
B|2-----------------2-H-3------------|-----------------3-----------------|
G|-----------------------------------|----------------4------------------|
D|-----------------------------------|-----------------------------------|
A|-----------------------------------|-----------------------------------|
E|-----------------------------------|-----------------------------------|



 (.
  Dm
e|1------- -------- -------- --------|-------- --------|
B|3----------------------------------|-----------------|
G|2----------------------------------|-----------------|
D|0----------------------------------|-----------------|
A|0----------------------------------|-----------------|
E|-----------------------------------|-----------------|
  my                life         I    love     you 



  A5                             E5
e|-------- -------- -------- --------|-------- -------- -------- --------|
B|-----------------------------------|-----------------------------------|
G|2--------2--------2----------------|-----------------------------------|
D|2--------2--------2------------2---|---------2--------2---2--------2---|
A|0--------0--------0------------2---|---------2--------2---2--------2---|
E|-------------------------------0---|---------0--------0---0--------0---|
  more                                                 E7 E7sus2 E7
e|-------- 5------- -------- 0---4---|-------- -------- 4---2--- 4-------|
B|2-----------------2-H-3------------|-----------------3-----------------|
G|-----------------------------------|----------------4------------------2
D|-----------------------------------|-----------------------------------|
A|-----------------------------------|-----------------------------------|
E|-----------------------------------|-----------------------------------|



 (.
  A
e|0------- -------- -------- --------|-------- -------- -------- --------|
B|2----------------------------------|-----------------------------------|
G|2----------------------------------|-----------------------------------|
D|2----------------------------------|-----------------------------------|
A|0----------------------------------|-----------------------------------|
E|-----------------------------------|-----------------------------------|

e|5------- -------- -------- --------|-------- -------- -------- --------|
B2-----------------------------------|-----------------------------------|
G|-----------------------------------|-----------------------------------|
D|-----------------------------------|-----------------------------------|
A|-----------------------------------|-----------------------------------|
E|-----------------------------------|-----------------------------------|







        B  Bend
        R  Release
        /  Slide up
        \  Slide down
        H  Hammer-on
        P  Pull-off
        ~  Vibrato
        +  Harmonic
        x  Mute note
        .  Play note like a dot in standard notation
        ^  Ties two notes together
        (.  Pause
     


  ---------------------------------------------------------------

  THE BEATLES - WAIT (Lennon & McCartney) From RUBBER SOUL album.
                Released on 3rd December 1965.

  ---------------------------------------------------------------

  Tabbed by:PJVillanueva






  It's been a long time 
  Now I'm coming back home 
  I've been away now 
  Oh how I've been alone 
  Wait till I come back to your side 
  We'll forget the tears we've cried 

  But if your heart breaks 
  Don't wait, turn me away 
  And if your heart's strong 
  Hold on, I won't delay 
  Wait till I come back to your side 
  We'll forget the tears we've cried 

  I feel as though 
  You ought to know 
  That I've been good 
  As good as I can be 
  And if you do 
  I'll trust in you 
  And know that you 
  Will wait for me 

  It's been a long time 
  Now I'm coming back home 
  I've been away now 
  Oh how I've been alone 
  Wait till I come back to your side 
  We'll forget the tears we've cried 

  I feel as though 
  You ought to know 
  That I've been good 
  As good as I can be 
  And if you do 
  I'll trust in you 
  And know that you 
  Will wait for me 

  It's been a long time 
  Now I'm coming back home 
  I've been away now 
  Oh how I've been alone 
  Wait till I come back to your side 
  We'll forget the tears we've cried 

  It's been a long time 
  Now I'm coming back home 
  I've been away now 
  Oh, how I've been alone 




     Use a capo on the 2nd fret for 
     the 1st guitar.(Not the 2nd.)

     
   

                                                     It's been a 

          x               x   x           x               x   x                                  
e|------- ------- ------- -------|------- ------- ------- -------|
B|3-----------2------------------|1-----------0------------------|
G|4-----------2------------------|2-----------0------------------|
D|-------------------------------|-------------------------------|
A|-------------------------------|-------------------------------|
E|-------------------------------|-------------------------------|
  long time                       Now         I'm 



                                          x           x
          x               x   x   X   X   X   X   X   X   X   X                
e|------- ------- ------- -------|------- ------- ------- -------|
B|0------------------------------|3----------2-------------------|
G|2-----------0------------------|4----------2-------------------|
D|1-----------2------------------|-------------------------------|
A|-------------------------------|-------------------------------|
E|-------------------------------|-------------------------------|
  coming  back home   I've been away          now 




          x               x               x           x   XXXXXX    
  X   X   X   X   X   X   X   X   X   X   X   X   X   X   X                            
e|------- ------- ------- -------|------- ------- ------- -------|
B|1-----------0------------------|0------------------------------|
G|2-----------0------------------|2-----------0------------------|
D|-------------------------------|1-----------2------------------|
A|-------------------------------|-------------------------------|
E|-------------------------------|-------------------------------|
  Oh          how                 I've been alone 

 
  Chorus

  G6
e|------- 3------ ----3-- 3---3--|--------3------ ----3-- 3---3--|  1
B|--------5-----------5---5---5--|--------5-----------5---5---5--|
G|--------4-----------4---4---4--|--------4-----------4---4---4--|
D|5-------3-----------3---3---3--|--------3-----------3---3---3--|
A|5-------5-----------5---5---5--|--------5-----------5---5---5--|
E|3-------3-----------3---3---3--|--------3-----------3---3---3--|
  Wait                    till I  come    back    to  your    side
              A6
e|------- ----5-- ------- -------|------- ----5-- ------- -------|  2
B|------------7------------------|------------7------------------|
G|------------6------------------|------------6------------------|
D|------------7------------------|------------7------------------|
A|-------------------------------|-------------------------------|
E|-------------------------------|-------------------------------|





  G6                                                  B7
e|3------ 3------ ----3-- 3---3--|------- 3------ ------- -------|
B|5-------5-----------5---5---5--|--------5-----------0---0---0--|
G|4-------4-----------4---4---4--|--------4-----------2---2---2--|
D|3-------3-----------3---3---3--|--------3-----------1---1---1--|
A|5-------5-----------5---5---5--|--------5-----------2---2---2--|
E|3-------3-----------3---3---3--|--------3----------------------|
                          We'll forget    the     tears   we  cried
e|------- ----5-- ------- -------|------- ------- ------- -------|
B|------------7------------------|-------------------------------|
G|------------6------------------|-------------------------------|
D|------------7------------------|-------------------------------|
A|-------------------------------|-------------------------------|
E|-------------------------------|-------------------------------|     





  
      F#m 
e|------- ------- ------- -------|  2
B|-------------------------------|
G|-------------------------------|
D|----4---4---4---4--------------|
A|----4---4---4---4--------------|
E|----2---2---2---2--------------|        
                      But if  your



  Verse

          x               x   x           x               x   x                                  
e|------- ------- ------- -------|------- ------- ------- -------|
B|3-----------2------------------|1-----------0------------------|
G|4-----------2------------------|2-----------0------------------|
D|-------------------------------|-------------------------------|
A|-------------------------------|-------------------------------|
E|-------------------------------|-------------------------------|
  heart's     breaks              don't       wait




                                          x               x
          x               x   x   X   X   X   X   X   X   X   X                
e|------- ------- ------- -------|------- ------- ------- -------|
B|0------------------------------|3----------2-------------------|
G|2-----------0------------------|4----------2-------------------|
D|1-----------2------------------|-------------------------------|
A|-------------------------------|-------------------------------|
E|-------------------------------|-------------------------------|
 turn me  away        And if your heart's    strong




          x               x               x           x   XXXXXX    
  X   X   X   X   X   X   X   X   X   X   X   X   X   X   X                            
e|------- ------- ------- -------|------- ------- ------- -------|
B|1-----------0------------------|0------------------------------|
G|2-----------0------------------|2-----------0------------------|
D|-------------------------------|1-----------2------------------|
A|-------------------------------|-------------------------------|
E|-------------------------------|-------------------------------|
  hold        on                  I won't delay


  Chorus

          G6
e|------- 3------ ----3-- 3---3--|--------3------ ----3-- 3---3--|  1
B|--------5-----------5---5---5--|--------5-----------5---5---5--|
G|--------4-----------4---4---4--|--------4-----------4---4---4--|
D|--------3-----------3---3---3--|--------3-----------3---3---3--|
A|--------5-----------5---5---5--|--------5-----------5---5---5--|
E|--------3-----------3---3---3--|--------3-----------3---3---3--|
  Wait                    till I  come    back    to  your    side
              A6
e|------- ----5-- ------- -------|------- ----5-- ------- -------|  2
B|------------7------------------|------------7------------------|
G|------------6------------------|------------6------------------|
D|------------7------------------|------------7------------------|
A|-------------------------------|-------------------------------|
E|-------------------------------|-------------------------------|





                                                      B7
e|------- 3------ ----3-- 3---3--|------- 3------ ------- -------|
B|--------5-----------5---5---5--|--------5-----------0---0---0--|
G|--------4-----------4---4---4--|--------4-----------2---2---2--|
D|--------3-----------3---3---3--|--------3-----------1---1---1--|
A|--------5-----------5---5---5--|--------5-----------2---2---2--|
E|--------3-----------3---3---3--|--------3----------------------|
                          We'll forget    the     tears   we  cried

e|------- ----5-- ------- -------|------- -----4- ------- -------|
B|------------7------------------|-------------6-----------------|
G|------------6------------------|-------------4-----------------|
D|------------7------------------|-------------6-----------------|
A|-------------------------------|-------------------------------|
E|-------------------------------|-------------------------------|  





          Em
e|------- 0------ ------- -------|
B|--------0----------------------|
G|--------0----------------------|
D|--------2----------------------|
A|--------2----------------------|
E|--------0----------------------|
                      I   feel as
         F#m  ~   ~
e|------- 2------ ------- -------|
B|--------2----------------------|
G|--------2----------------------|
D|--------4----------------------|
A|-------------------------------|
E|-------------------------------|



  Middle eight
                                 
  A5
e|------- ------- ------- -------|------- ------- ------- -------|
B|-------------------------------|-------------------------------|
G|2------------------------------|7-------7---7---7-------7---7--|
D|2------------------------------|7-------7---7---7-------7---7--|
A|0------------------------------|5-------5---5---5-------5---5--|
E|-------------------------------|-------------------------------|
  though              you ought to know               that I've been 
      B5                              E5 
e|------- ------- ------- -------|------- ------- ------- -------|
B|-------------------------------|-------------------------------|
G|----4---4---4---4---4---4---4--|-------------------------------|
D|----4---4---4---4---4---4---4--|--------2---2---2---2---2---2--|
A|----2---2---2---2---2---2---2--|--------2---2---2---2---2---2--|
E|-------------------------------|--------0---0---0---0---0---0--|



 

e|------- ------- ------- -------|------- ------- ------- -------|
B|-------------------------------|-------------------------------|
G|--0----------------------------|-------------------------------|
D|-------------------------------|-------------------------------|
A|-------------------------------|--2----------------------------|
E|-------------------------------|-------------------------------|
  good        as  good as I  can  be                  And if  you
                  A5                      F#5
e|------- ------- ------- -------|------- ------- ------- -------|
B|-------------------------------|-------------------------------|
G|----------------2---2---2------|-------------------------------|
D|----------------2---2---2------|--------4---4---4---4---4---4--|
A|----------------0---0---0------|--------4---4---4---4---4---4--|
E|-------------------------------|--------2---2---2---2---2---2--|



  

e|------- ------- ------- -------|------- ------- ------- -------|
B|-------------------------------|-------------------------------|
G|-------------------------------|-------------------------------|
D|-------------------------------|0-----------0-----------0------|
A|0------------------------------|-------------------------------|
E|-------------------------------|-------------------------------|
  do                 I'll trust in you                And know that
  B5                                      E5
e|------- ------- ------- -------|------- ------- ------- -------|
B|-------------------------------|-------------------------------|
G|4---4---4---4---4---4----------|-------------------------------|
D|4---4---4---4---4---4---2-/-4--|--------2---2---2---2---2---0--|
A|2---2---2---2---2---2----------|--------2---2---2---2----------|
E|-------------------------------|--------0---0---0---0----------|



  

e|------- ------- ------- 3---3--|------- ------- ------- -------|
B|------------------------3---3--|0-------0----------------------|
G|0------------------------------|-------------------------------|
D|-------------------------------|-------------------------------|
A|-------------------------------|-------------------------------|
E|-------------------------------|-------------------------------|
  you             will wait   for me                 It's been a                        
          A5                      C#sus4  DC#
e|------- ------- ------- -------|4-------4------ ------- -------|
B|-------------------------------|7-------6----------------------|
G|--------2---2---2--------------|6-------6----------------------|
D|--------2---2---2--------------|-------------------------------|
A|--------0---0---0--------------|-------------------------------|
E|-------------------------------|-------------------------------|



  Verse

          x               x   x           x               x   x                                  
e|------- ------- ------- -------|------- ------- ------- -------|
B|3-----------2------------------|1-----------0------------------|
G|4-----------2------------------|2-----------0------------------|
D|-------------------------------|-------------------------------|
A|-------------------------------|-------------------------------|
E|-------------------------------|-------------------------------|
  long time                       Now         I'm 



                                          x               x
          x               x   x   X   X   X   X   X   X   X   X                
e|------- ------- ------- -------|------- ------- ------- -------|
B|0------------------------------|3----------2-------------------|
G|2-----------0------------------|4----------2-------------------|
D|1-----------2------------------|-------------------------------|
A|-------------------------------|-------------------------------|
E|-------------------------------|-------------------------------|
  coming  back home   I've been away          now 




          x               x                           x   XXXXXX    
  X   X   X   X   X   X   X   X   X   X   X   X   X   X   X                            
e|------- ------- ------- -------|------- ------- ------- -------|
B|1-----------0------------------|0------------------------------|
G|2-----------0------------------|2-----------0------------------|
D|-------------------------------|1-----------2------------------|
A|-------------------------------|-------------------------------|
E|-------------------------------|-------------------------------|       
  Oh          how                 I've been alone 



  Chorus

          G6
e|------- 3------ ----3-- ----3--|------- 3------ ----3-- 3---3--|
B|--------5-----------5-------5--|--------5-----------5---5---5--|
G|--------4-----------4-------4--|--------4-----------4---4---4--|
D|--------3-----------3-------3--|--------3-----------3---3---3--|
A|--------5-----------5-------5--|--------5-----------5---5---5--|
E|--------3-----------3-------3--|--------3-----------3---3---3--|
  Wait                    till I  come    back    to  your    side
              A6
e|------- ----5-- ------- -------|------- ----5-- ------- -------|
B|------------7------------------|------------7------------------|
G|------------6------------------|------------6------------------|
D|------------7------------------|------------7------------------|
A|-------------------------------|-------------------------------|
E|-------------------------------|-------------------------------|





                                                      B7      Em
e|------- 3------ ----3-- 3---3--|------- 3------ ----2-- ----0--|
B|--------5-----------5---5---5--|--------5-----------4-------0--|
G|--------4-----------4---4---4--|--------4-----------2-------0--|
D|--------3-----------3---3---3--|--------3-----------4-------2--|
A|--------5-----------5---5---5--|--------5-----------2-------2--|
E|--------3-----------3---3---3--|--------3-------------------0--|
                          We'll forget    the     tears   we  cried
e|------- ----5-- ------- -------|------- --5---- ------- -------|
B|------------7------------------|----------7--------------------|
G|------------6------------------|----------6--------------------|
D|------------7------------------|----------7--------------------|
A|-------------------------------|-------------------------------|
E|-------------------------------|-------------------------------|  





          
e|------- ------- ------- -------|
B|-------------------------------|
G|-------------------------------|
D|-------------------------------|
A|-------------------------------|
E|-------------------------------|
                      I   feel as
         F#m  ~   ~
e|------- 2------ ------- -------|
B|--------2----------------------|
G|--------2----------------------|
D|--------4----------------------|
A|-------------------------------|
E|-------------------------------|



  Middle eight
                                 
  A5                              D5
e|------- ------- ------- -------|------- ------- ------- -------|
B|-------------------------------|-------------------------------|
G|----2---2---2---2---2---2---2--|7---7---7---7---7---7---7------|
D|----2---2---2---2---2---2---2--|7---7---7---7---7---7---7------|
A|0---0---0---0---0---0---0---0--|5---5---5---5---5---5---5------|
E|-------------------------------|-------------------------------|
  though              you ought to know               that I've been 
      B5                              E5 
e|------- ------- ------- -------|------- ------- ------- -------|
B|-------------------------------|-------------------------------|
G|----4---4---4---4---4---4------|-------------------------------|
D|----4---4---4---4---4---4------|--------2---2---2---2---2P0----|
A|----2---2---2---2---2---2------|--------2---2---2---2----------|
E|-------------------------------|--------0---0---0---0----------|



 

e|------- ------- ------- -------|------- ------- ------- -------|
B|-------------------------------|-------------------------------|
G|--0----------------------------|0------------------------------|
D|-------------------------------|2------------------------------|
A|-------------------------------|2------------------------------|
E|-------------------------------|0------------------------------|
  good        as  good as I  can  be                  And if  you
                  A                       F#5
e|------- ------- ------- -------|------- ------- ------- -------|
B|-------------------------------|-------------------------------|
G|--------2---2---2---2---2------|-------------------------------|
D|--------2---2---2---2---2------|--------4---4---4---4-------4--|
A|--------0---0---0---0---0------|--------4---4---4---4-------4--|
E|-------------------------------|--------2---2---2---2-------2--|



  

  A                               D
e|----0-- 0---0-- 0---0-- 0---0--|2---2-- 2---2-- 2---2-- 2------|
B|----2---2---2---2---2---2---2--|3---3---3---3---3---3---3------|
G|----2---2---2---2---2---2---2--|2---2---2---2---2---2---2------|
D|----2---2---2---2---2---2---2--|0---0---0---0---0---0---0------|
A|0---0---0---0---0---0---0---0--|-------------------------------|
E|-------------------------------|-------------------------------|
  do                 I'll trust in you                And know that
  B5                                      E5
e|------- ------- ------- -------|------- ------- ------- -------|
B|-------------------------------|-------------------------------|
G|4-------4---4---4---4----------|-------------------------------|
D|4-------4---4---4---4---2-/-4--|--------2---2---2---2---2---2--|
A|2-------2---2---2---2----------|--------2---2---2---2----------|
E|-------------------------------|--------0---0---0---0----------|




  
  G                               Bsus4   B
e|3---3-- 3---3-- 3---3-- 3---3--|2------ 2------ ------- -------|
B|3---3---3---3---3---3---3---3--|5-------4----------------------|
G|0---0---0---0---0---0---0---0--|4-------4----------------------|
D|0---0---0---0---0---0---0---0--|4-------4----------------------|
A|-------------------------------|-------------------------------|
E|-------------------------------|-------------------------------|
  you             will wait   for me                 But  if  your                       
          A5                      C#sus4  DC#
e|------- ------- ------- -------|4-------4------ ------- -------|
B|-------------------------------|7-------6----------------------|
G|2-----------2------------------|6-------6----------------------|
D|2-----------2------------------|-------------------------------|
A|0-----------0------------------|-------------------------------|
E|-------------------------------|-------------------------------|        



  Verse

          x               x   x           x               x   x                                  
e|------- ------- ------- -------|------- ------- ------- -------|
B|3-----------2------------------|1-----------0------------------|
G|4-----------2------------------|2-----------0------------------|
D|-------------------------------|-------------------------------|
A|-------------------------------|-------------------------------|
E|-------------------------------|-------------------------------|
  heart's     breaks              don't       wait




                                          x               x
          x               x   x   X   X   X   X   X   X   X   X                
e|------- ------- ------- -------|------- ------- ------- -------|
B|0------------------------------|3----------2-------------------|
G|2-----------0------------------|4----------2-------------------|
D|1-----------2------------------|-------------------------------|
A|-------------------------------|-------------------------------|
E|-------------------------------|-------------------------------|
 turn me  away        And if your heart's    strong





          x               x               x           x   XXXXXX    
  X   X   X   X   X   X   X   X   X   X   X   X   X   X   X                            
e|------- ------- ------- -------|------- ------- ------- -------|
B|1-----------0------------------|0------------------------------|
G|2-----------0------------------|2-----------0------------------|
D|-------------------------------|1-----------2------------------|
A|-------------------------------|-------------------------------|
E|-------------------------------|-------------------------------|
  hold        on                  I won't delay


  Chorus

          G6
e|------- 3------ ----3-- 3---3--|--------3------ ----3-- 3---3--|  1
B|--------5-----------5---5---5--|--------5-----------5---5---5--|
G|--------4-----------4---4---4--|--------4-----------4---4---4--|
D|--------3-----------3---3---3--|--------3-----------3---3---3--|
A|--------5-----------5---5---5--|--------5-----------5---5---5--|
E|--------3-----------3---3---3--|--------3-----------3---3---3--|
  Wait                    till I  come    back    to  your    side
              A6
e|------- ----5-- ------- -------|------- ----5-- ------- -------|  2
B|------------7------------------|------------7------------------|
G|------------6------------------|------------6------------------|
D|------------7------------------|------------7------------------|
A|-------------------------------|-------------------------------|
E|-------------------------------|-------------------------------|





                                                      B7
e|------- 3------ ----3-- 3---3--|------- 3------ ----2-- -------|
B|--------5-----------5---5---5--|--------5-----------4----------|
G|--------4-----------4---4---4--|--------4-----------2----------|
D|--------3-----------3---3---3--|--------3-----------4----------|
A|--------5-----------5---5---5--|--------5-----------2----------|
E|--------3-----------3---3---3--|--------3----------------------|
                          We'll forget    the     tears   we  cried

e|------- ----5-- ------- -------|------- ------- ------- -------|
B|------------7------------------|-------------------------------|
G|------------6------------------|-------------------------------|
D|------------7------------------|-------------------------------|
A|-------------------------------|-------------------------------|
E|-------------------------------|-------------------------------|   




 
  Em
e|0------ ------- ------- -------|
B|0------------------------------|
G|0------------------------------|
D|2------------------------------|
A|2------------------------------|
E|0------------------------------|
                      It's been a
          F#m  
e|------- ------- ------- -------|
B|-------------------------------|
G|-------------------------------|
D|--------4---4---4--------------|
A|--------4---4---4--------------|
E|--------2---2---2--------------|



  Coda

          x               x   x           x               x   x                                  
e|------- ------- ------- -------|------- ------- ------- -------|
B|3-----------2------------------|1-----------0------------------|
G|4-----------2------------------|2-----------0------------------|
D|-------------------------------|-------------------------------|
A|-------------------------------|-------------------------------|
E|-------------------------------|-------------------------------|
  long time                       Now         I'm 




          x               x   x           x               x   x                  
e|------- ------- ------- -------|------- ------- ------- -------|
B|0------------------------------|-------------------------------|
G|2-----------0------------------|-------------------------------|
D|1-----------2------------------|-------------------------------|
A|-------------------------------|-------------------------------|
E|-------------------------------|-------------------------------|
  coming  back home   I've been away          now 



                                                     
                      
           x               x   x                           
e|------- ------- ------- -------|------- ------- -------|
B|-------------------------------|-----------------------|
G|-------------------------------|-----------------------|
D|-------------------------------|-----------------------|
A|-------------------------------|-----------------------|
E|-------------------------------|-----------------------|
  Oh          how                 I've    been    a......




                  xxxxxxxxxxxxxxxxxxxxxxxxx      
                         (.
e|------- ------- -------|------- ------- -------|
B|-----------------------|-----------------------|
G|-----------------------|-----------------------|
D|-----------------------|-----------------------|
A|--------2--------------|-----------------------|
E|----------------3------|0----------------------|
  lone








        B  Bend
        R  Release
        /  Slide up
        \  Slide down
        H  Hammer-on
        P  Pull-off
        ~  Vibrato
        +  Harmonic
        x  Mute note
        .  Play note like a dot in standard notation
        ^  Ties two notes together
        (. Pause



  -----------------------------------------------------------

  THE BEATLES - IF I NEEDED SOMEONE (Lennon & McCartney) From
                Rubber Soul album. Released on 3rd December 
                1965.

  -----------------------------------------------------------

  Tabbed by:PJVillanueva



  This song is a drone kept by the bass guitar while Lennon's rythm 
  and Harrison's picking change from A to G.
  Lennon plays a syncopated rythm in low chords while Harrison,who 
  uses a capo on the seventh fret, plays a fingerpicking guitar riff 
  with an alternate A-E bass.
  (D-A in the seventh fret capo position)
  Be patient.It works and it sounds great.




  Chords:    A    x02220    Remember that rythm guitar is played 
             G    320033    without a capo.
             Em   022000
             F#7  242322
             Bm   x24432
             E    022100


  

  Capo on 7th fret

E-----------0-----|----3---2---0-----|
B---3---1-------1-|----------------1-|
G-----2-------2---|------2-------2---| 
D-0-------0-------|-0--------0-------|
A-----------------|------------------|
E-----------------|------------------|
................2 times..............

  
A                                                                     G  
E-------0---2---3-|---2---0---2-----|-------0---2---0-|---2---3---2---0-|
B---3-------------|---------------3-|---3-------------|---------------1-|
G-----2-------2---|-----2-------2---|-----2-------2---|-----2-------2-0-|
D-0-------0-------|-0-------0-------|-0-------0-------|-0-------0-----0-|
A-----------------|-----------------|-----------------|-----------------|
E-----------------|-----------------|-----------------|-----------------|
If I needed someone to love...

                                    A
E--0--------------|--0--------------|-----------0-----|---3---2---0-----|
B--1--------------|--1--------------|---3---1-------1-|---------------1-|
G--0--------------|--0--------------|-----2-------2---|-----2-------2---|
D--0--------------|--0--------------|-0-------0-------|-0-------0-------|
A-----------------|-----------------|-----------------|-----------------|
E-----------------|-----------------|-----------------|-----------------|
                  If I needed someone

                                                                      G  
E-------0---2---3-|---2---0---------|-------0---2---0-|---2---3---2---0-|
B---3-------------|-----------3---3-|---3-------------|---------------1-|
G-----2-------2---|-----2-------2---|-----2-------2---|-----2-------2-0-|
D-0-------0-------|-0-------0-------|-0-------0-------|-0-------0-------|
A-----------------|-----------------|-----------------|-----------------|
E-----------------|-----------------|-----------------|-----------------|
If I had some more time to spend...

                                    A
E--0--------------|--0--------------|-----------0-----|----3---2---0-----|
B--1--------------|--1--------------|---3---1-------1-|----------------1-|
G--0--------------|--0--------------|-----2-------2---|------2-------2---|
D--0--------------|--0--------------|-0-------0-------|-0--------0-------|
A-----------------|-----------------|-----------------|------------------|
E-----------------|-----------------|-----------------|------------------|
                  If I needed someone

  
 Em               F#7                                 Bm
E-0---------------|-----------------|-----------------|-0----------------|
B-1---------------|-4---------------|-4---------------|-0----------------|
G-2---------------|-4---------------|-4---------------|-0----------------|
D-2---------------|-4---------------|-4---------------|-2----------------|
A-0---------------|-2---------------|-2---------------|-2----------------|
E-----------------|-----------------|-----------------|-0----------------|
 Had you come some other day...

 Em               F#7                Bm                E              
E-0---------------|-----------------|-0---------------|------------------|
B-1---------------|-4---------------|-0---------------|---2---3---2---0--|
G-2---------------|-4---------------|-0---------------|------------------|
D-2---------------|-4---------------|-2---------------|-----2-------2----|
A-0---------------|-2---------------|-2---------------|-0-------0--------|
E-----------------|-----------------|-0---------------|------------------|
 But you see now I'm ...


 
A                                                                     G
E-------0---2---3-|---2---0---------|-------0---2---0-|---2---3---2---0--|
B---3-------------|-----------3---3-|---3-------------|---------------1--|
G-----2-------2---|-----2-------2---|-----2-------2---|-----2-------2-0--|
D-0-------0-------|-0-------0-------|-0-------0-------|-0-------0-----0--|
A-----------------|-----------------|-----------------|------------------|
E-----------------|-----------------|-----------------|------------------|
 Carve your number on my wall...

                                    A
E--0--------------|--0--------------|-----------0-----|----3---2---0-----|
B--1--------------|--1--------------|---3---1---------|----------------1-|
G--0--------------|--0--------------|-----2-------2---|------2-------2---|
D--0--------------|--0--------------|-0-------0-------|-0--------0-------|
A-----------------|-----------------|-----------------|------------------|
E-----------------|-----------------|-----------------|------------------|
                If I needed someone


 Solo
  
A                                                                     G  
E---5---3---2---0-|---2---3---22222-|---5---3-3-2---0-|---2---3---2---0--|
B---3---3---3---3-|---3---3---33333-|---3---3-3-3---3-|---3---3---3---1--|
G-----2-------2---|-----2-------2---|-----2-------2---|-----2-------2----|
D-0-------0-------|-0-------0-------|-0-------0-------|-0-------0--------|
A-----------------|-----------------|-----------------|------------------|
E-----------------|-----------------|-----------------|------------------|
Aaaaaaah...

                                    A
E-----0-----------|-------------3---|-----------0-----|----3---2---0-----|
B-----1-----------|-------0---------|---3---1-------1-|----3---3---3---0-|
G-----0-----------|-0-----------0---|-----2-------2---|------2-------2---|
D-----0-----------|-----------------|-0-------0-------|-0--------0-------|
A-----------------|-----------------|-----------------|------------------|
E-----------------|-----------------|-----------------|------------------|
Aaaaaaaah...


                                     
A                                                                     G 
E-------0---2---3-|---2---0---------|-------0---2---0-|---2---3---2---0--|
B---3-------------|-----------3---3-|---3-------------|---------------1--|
G-----2-------2---|-----2-------2---|-----2-------2---|-----2-------2-0--|
D-0-------0-------|-0-------0-------|-0-------0-------|-0-------0-----0--|
A-----------------|-----------------|-----------------|------------------|
E-----------------|-----------------|-----------------|------------------|
If I had some more time...

                                    A
E--0--------------|--0--------------|-----------0-----|----3---2---0-----|
B--1--------------|--1--------------|---3---1-------1-H-3----------------|
G--0--------------|--0--------------|-----2-------2---|------2-------2---|
D--0--------------|--0--------------|-0-------0-------|-0--------0-------|
A-----------------|-----------------|-----------------|------------------|
E-----------------|-----------------|-----------------|------------------|
                If I needed someone



Em                F#7                                 Bm
  
E-----------------|-----------------|-----------------|-0----------------|
B-3---------------|-4---------------|-4---------------|-0----------------|
G-2---------------|-4---------------|-4---------------|-0----------------|
D-2---------------|-4---------------|-4---------------|-2----------------|
A-0---------------|-2---------------|-2---------------|-2----------------|
E-----------------|-----------------|-----------------|-0----------------|
Had you come some some other day...

Em                F#7               Bm                E
E-0---------------|-----------------|-0---------------|------------------|
B-1---------------|-4---------------|-0---------------|---2---3---2---0--|
G-2---------------|-4---------------|-0---------------|------------------|
D-2---------------|-4---------------|-2---------------|-----2-------2----|
A-0---------------|-2---------------|-2---------------|-0-------0--------|
E-----------------|-----------------|-0---------------|------------------|
But you see now I'm...

  


A                                                                     G  
E-------0---2---3-|---2---0---2-----|-------0---2---0-|---2---3---2---0--|
B---3-------------|---------------3-|---3-------------|---------------1--|
G-----2-------2---|-----2-------2---|-----2-------2---|-----2-------2-0--|
D-0-------0-------|-0-------0-------|-0-------0-------|-0-------0-----0--1
A-----------------|-----------------|-----------------|------------------|
E-----------------|-----------------|-----------------|------------------|
Carve your number on my wall...

                                    A
E--0--------------|--0--------------|-----------0-----|----3---2---0-----|
B--1--------------|--1--------------|---3---1-------1-H-3--------------1-|
G--0--------------|--0--------------|-----2-------2---|------2-------2---|
D--0--------------|--0--------------|-0-------0-------|-0--------0-------|
A-----------------|-----------------|-----------------|------------------|
E-----------------|-----------------|-----------------|------------------|
                  If I needed someone



 
E-----------0-----|----3---2---0-----|----------------|
B---3---1-------1-H-3--------------3-|-3--------------|
G-----2-------2---|------2-------2---|-2--------------|
D-0-------0-------|-0--------0-------|-0--------------|
A-----------------|------------------|----------------|
E-----------------|------------------|----------------|
...............2 times...............







          B  Bend
          R  Release
          /  slide up
          \  slide down
          H  hammer-on
          P pull-off
          ~  vibrato
          +  harmonic
          x  Mute note
          . - play note like a dot in standard notation
          ^ - ties two notes together
          (. Pause



  ----------------------------------------------------------------

  THE BEATLES - RUN FOR YOUR LIFE (Lennon & McCartney) from RUBBER 
                SOUL album. Released 3rd December 1965.

  ----------------------------------------------------------------

  Tabbed by:PJVillanueva



  Use a bottleneck to play the slides of the third guitar 
  (but not any alternate tuning.)



  Intro

  1    2    3    4 D
E|-----------------2--|2----2----2--2-2--2-|2----2----2--2-2----|
B|-----------------3--|3----3----3--3-3--3-|3----3----3--3-3----|
G|-----------------2--|2----2----2--2-2--2-|2----2----2--2-2----|
D|-----------------0--|0----0----0--0-0--0-|0----0----0--0-0----|
A|-----------------0--|0----0----0--0-0--0-|0----0----0--0-0----|
E|--------------------|--------------------|--------------------|



E|2----2----2--2-2--2-|2----2----2--2-2----|2----2----2--2-2--2-|
B|3----3----3--3-3--3-|3----3----3--3-3----|3----3----3--3-3--3-|
G|2----2----2--2-2--2-|2----2----2--2-2----|2----2----2--2-2--2-|
D|0----0----0--0-0--0-|0----0----0--0-0----|0----0----0--0-0--0-|
A|0----0----0--0-0--0-|0----0----0--0-0----|0----0----0--0-0--0-|
E|--------------------|--------------------|--------------------|
 
E|--------------------|--------------------|--------------------|
B|-----1------0-------|--------------------|-----1------0-------|
G|--------------------|2-------------------|--------------------|
D|0-------------------|-------3----4-------|--------------------|
A|--------------------|--------------------|--------------------|
E|--------------------|--------------------|--------------------|

E|--------------------|--------------------|--------------------|
B|--------------------|--------------------|-----7--------------|
G|--------------------|---------------5--/-|7----7--------------|
D|--------------------|---------------5--/-|7----7--------------|
A|--------------------|--------------------|--------------------|
E|--------------------|--------------------|--------------------|



E|2----2----2--2-2--2-|2----2----2--2-2----|2----2----2--2-2--2-|
B|3----3----3--3-3--3-|3----3----3--3-3----|3----3----3--3-3--3-|
G|2----2----2--2-2--2-|2----2----2--2-2----|2----2----2--2-2--2-|
D|0----0----0--0-0--0-|0----0----0--0-0----|0----0----0--0-0--0-|
A|0----0----0--0-0--0-|0----0----0--0-0----|0----0----0--0-0--0-|
E|--------------------|--------------------|--------------------|
 
E|--------------------|--------------------|--------------------|
B|--------------------|--------------------|--------------------|
G|2-------------------|--------------------|--------------------|
D|-------3----4-------|--------------------|--------------------|
A|--------------------|--------------------|--------------------|
E|--------------------|--------------------|--------------------|
               
E|--------------------|--------------------|--------------------|
B|--------------------|-----7--------------|--------------------|
G|---------------5--/-|7----7--------------|--------------------|
D|---------------5--/-|7----7--------------|--------------------|
A|--------------------|--------------------|--------------------|
E|--------------------|--------------------|--------------------|



  D
  Well I'd rather see you dead, little girl  
          Bm
  Than to be with another man
      D
  You better keep your head, little girl
       Bm
  Or I won't know where I am
                                        E
  You better run for your life if you can, little girl
  Bm                       E
  Hide your head in the sand little girl
  Bm                        G 
  Catch you with another man
  F#           Bm               D....
  That's the end'a little girl  


 
  D
E|2----2----2--2-2--2-|2----2----2--2-2----|2----2----2--2-2--2-|
B|3----3----3--3-3--3-|3----3----3--3-3----|3----3----3--3-3--3-|
G|2----2----2--2-2--2-|2----2----2--2-2----|2----2----2--2-2--2-|
D|0----0----0--0-0--0-|0----0----0--0-0----|0----0----0--0-0--0-|
A|0----0----0--0-0--0-|0----0----0--0-0----|0----0----0--0-0--0-|
E|--------------------|--------------------|--------------------|
 
E|--------------------|--------------------|--------------------|
B|-----1------0-------|--------------------|-----1------0-------|
G|--------------------|2-------------------|--------------------|
D|0-------------------|-------3----4-------|--------------------|
A|--------------------|--------------------|--------------------|
E|--------------------|--------------------|--------------------|

E|--------------------|--------------------|--------------------|
B|-----7--------------|--------------------|-----7--------------|
G|5/7--7--------------|---------------5--/-|7----7--------------|
D|5/7--7--------------|---------------5--/-|7----7--------------|
A|--------------------|--------------------|--------------------|
E|--------------------|--------------------|--------------------|



  Verse
  D         
E|2----2----2--2-2----|2----2----2--2-2--2-|2----2----2--2-2----|
B|3----3----3--3-3----|3----3----3--3-3--3-|3----3----3--3-3----|
G|2----2----2--2-2----|2----2----2--2-2--2-|2----2----2--2-2----|
D|0----0----0--0-0----|0----0----0--0-0--0-|0----0----0--0-0----|
A|0----0----0--0-0----|0----0----0--0-0--0-|0----0----0--0-0----|
E|--------------------|--------------------|--------------------|
              Well you know....
E|--------------------|--------------------|--------------------|
B|--------------------|--------------------|--------------------|
G|2-------------------|--------------------|--------------------|
D|-------3----4-------|--------------------|--------------------|
A|--------------------|--------------------|--------------------|
E|--------------------|--------------------|--------------------|
               
E|--------------------|--------------------|--------------------|
B|--------------------|-----7--------------|--------------------|
G|---------------5--/-|7----7--------------|--------------------|
D|---------------5--/-|7----7--------------|--------------------|
A|--------------------|--------------------|--------------------|
E|--------------------|--------------------|--------------------|



  D
  Well you know that I'm a wicked guy
            Bm
  And I was born with a jealous mind
      D    
  And I can't spend my whole life
                   Bm
  Trying just to make you toe the line

                                     E
  You better run for your life if you can, little girl
  Bm                     E
  Hide your head in the sand little girl
  Bm                       G
  Catch you with another man
  F#           Bm
  That's the end'a little girl



  Solo


  Bm                    D
E|--------------------|---------------15B16|---16R15-131513-----|
B|--------------------|--------------------|---------------15-13|
G|--------------------|--------------------|--------------------|
D|--------------------|--------------------|--------------------|
A|-----2----3----4----|5-------------------|--------------------|
E|--------------------|--------------------|--------------------|
  
E|--------------------|-----7--------------|--------------------|
B|---------------5-/--|7----7--------------|---------------5-/--|
G|---------------5-/--|7----7--------------|---------------5-/--|
D|---------------5-/--|7----7--------------|---------------5-/--|
A|--------------------|--------------------|--------------------|
E|--------------------|--------------------|--------------------|


                                            G
E|--------------------|15B16-1616R1513-----|--------------------|
B|15---15-------------|---------------15-13|--------------------|
G|--------------------|--------------------|12---12-------------|
D|--------------------|--------------------|--------------------|
A|--------------------|--------------------|--------------------|
E|--------------------|--------------------|--------------------|
     
E|--------------------|--------------------|--------------------|
B|7----7--------------|---------------10-/-|12---12-------------|
G|7----7--------------|---------------10-/-|12---12-------------|
D|7----7--------------|---------------10-/-|12---12-------------|
A|----(0)-------------|--------------------|--------------------|
E|--------------------|--------------------|--------------------|


                       D      
E|-----15-------------|--------------------|--------------------|
B|15B17--17R1513--1313H15---15-------------|-----10-------------|
G|--------------14----|--------------------|12B14--14R12P10-----|
D|--------------------|--------------------|---------------12-10|
A|--------------------|--------------------|--------------------|
E|--------------------|--------------------|--------------------|

E|--------------------|--------------------|--------------------|
B|---------------5-/--|7----7--------------|---------------12-/-|
G|---------------5-/--|7----7--------------|---------------12-/-|
D|---------------5-/--|7----7--------------|---------------12-/-|
A|--------------------|--------------------|--------------------|
E|--------------------|--------------------|--------------------|


  A                                         D 
E|--------------------|--------------------|--------------------|
B|--------------------|--------------------|--------------------|
G|--------------------|--------------------|--------------------|
D|--------------------|-----12-----12-10-/-|12----12------------|
A|12---12-----------/-|12-----12------10-/-|12----12------------|
E|--------------------|--------------------|--------------------|

E|--------------------|--------------------|--------------------|
B|14---14-------------|---------------5-/--|7----7--------------|
G|14---14-------------|---------------5-/--|7----7--------------|
D|14---14-------------|---------------5-/--|7----7--------------|
A|--------------------|--------------------|--------------------|
E|--------------------|--------------------|--------------------|

                       Verse
                       D
E|--------------------|--------------------|--------------------|
B|-----10-------------|--------------------|--------------------|
G|12B14--14R12-10-----|--------------------|--------------------|
D|---------------10---|12------------------|--------------------|
A|--------------------|--------------------|--------------------|
E|--------------------|--------------------|--------------------|
                       Let  this  be  a ser..mon....
E|--------------------|--------------------|--------------------|
B|---------------5-/--|7----7--------------|--------------------|
G|---------------5-/--|7----7--------------|--------------------|
D|---------------5-/--|7----7--------------|--------------------|
A|--------------------|--------------------|--------------------|
E|--------------------|--------------------|--------------------|




  D
  Let this be a sermon
          Bm
  I mean everything I've said
  D
  Baby, I'm determined
            Bm
  And I'd rather see you dead
  

                                       E
  You better run for your life if you can, little girl
  Bm                      E
  Hide your head in the sand little girl
  Bm                       G
  Catch you with another man
  F#          Bm                 D....
  That's the end'a little girl




  D
E|2----2----2--2-2--2-|2----2----2--2-2----|2----2----2--2-2--2-|
B|3----3----3--3-3--3-|3----3----3--3-3----|3----3----3--3-3--3-|
G|2----2----2--2-2--2-|2----2----2--2-2----|2----2----2--2-2--2-|
D|0----0----0--0-0--0-|0----0----0--0-0----|0----0----0--0-0--0-|
A|0----0----0--0-0--0-|0----0----0--0-0----|0----0----0--0-0--0-|
E|--------------------|--------------------|--------------------|
 
E|--------------------|--------------------|--------------------|
B|-----1------0-------|--------------------|-----1------0-------|
G|--------------------|2-------------------|--------------------|
D|0-------------------|-------3----4-------|--------------------|
A|--------------------|--------------------|--------------------|
E|--------------------|--------------------|--------------------|

E|--------------------|--------------------|--------------------|
B|-----7--------------|--------------------|-----7--------------|
G|5/7--7--------------|---------------5--/-|7----7--------------|
D|5/7--7--------------|---------------5--/-|7----7--------------|
A|--------------------|--------------------|--------------------|
E|--------------------|--------------------|--------------------|



                Verse
  D         
E|2----2----2--2-2----|2----2----2--2-2--2-|2----2----2--2-2----|
B|3----3----3--3-3----|3----3----3--3-3--3-|3----3----3--3-3----|
G|2----2----2--2-2----|2----2----2--2-2--2-|2----2----2--2-2----|
D|0----0----0--0-0----|0----0----0--0-0--0-|0----0----0--0-0----|
A|0----0----0--0-0----|0----0----0--0-0--0-|0----0----0--0-0----|
E|--------------------|--------------------|--------------------|
                  I'd  rather......
E|--------------------|--------------------|--------------------|
B|--------------------|--------------------|--------------------|
G|2-------------------|--------------------|--------------------|
D|-------3----4-------|--------------------|--------------------|
A|--------------------|--------------------|--------------------|
E|--------------------|--------------------|--------------------|
               
E|--------------------|--------------------|--------------------|
B|--------------------|-----7--------------|--------------------|
G|---------------5--/-|7----7--------------|--------------------|
D|---------------5--/-|7----7--------------|--------------------|
A|--------------------|--------------------|--------------------|
E|--------------------|--------------------|--------------------|



  D
  I'd rather see you dead, little girl
          Bm
  Than to be with another man
      D      
  You better keep your head, little girl
         Bm
  Or you won't know where I am

                                       E
  You better run for your life if you can, little girl
  Bm                      E
  Hide your head in the sand little girl
  Bm                       G
  Catch you with another man
  F#           Bm              D....
  That's the end'a little girl



  Coda

  D
E|2----2----2--2-2--2-|2----2----2--2-2----|2----2----2--2-2--2-|
B|3----3----3--3-3--3-|3----3----3--3-3----|3----3----3--3-3--3-|
G|2----2----2--2-2--2-|2----2----2--2-2----|2----2----2--2-2--2-|
D|0----0----0--0-0--0-|0----0----0--0-0----|0----0----0--0-0--0-|
A|0----0----0--0-0--0-|0----0----0--0-0----|0----0----0--0-0--0-|
E|--------------------|--------------------|--------------------|
 
E|--------------------|--------------------|--------------------|
B|-----1------0-------|--------------------|-----1------0-------|
G|--------------------|2-------------------|--------------------|
D|0-------------------|-------3----4-------|--------------------|
A|--------------------|--------------------|--------------------|
E|--------------------|--------------------|--------------------|

E|--------------------|--------------------|--------------------|
B|-----7--------------|---------------5--7-|7----7--------------|
G|5/7--7--------------|---------------5--/-|7----7--------------|
D|5/7--7--------------|---------------5--/-|7----7--------------|
A|--------------------|--------------------|--------------------|
E|--------------------|--------------------|--------------------|

                
          
E|2----2----2--2-2----|2----2----2--2-2--2-|2----2----2--2-2----|
B|3----3----3--3-3----|3----3----3--3-3--3-|3----3----3--3-3----|
G|2----2----2--2-2----|2----2----2--2-2--2-|2----2----2--2-2----|
D|0----0----0--0-0----|0----0----0--0-0--0-|0----0----0--0-0----|
A|0----0----0--0-0----|0----0----0--0-0--0-|0----0----0--0-0----|
E|--------------------|--------------------|--------------------|
            Na   na   na                              Na   na   na
E|--------------------|--------------------|--------------------|
B|--------------------|-----1------0-------|--------------------|
G|2-------------------|--------------------|2-------------------|
D|-------3----4-------|--------------------|-------3----4-------|
A|--------------------|--------------------|--------------------|
E|--------------------|--------------------|--------------------|
               
E|--------------------|--------------------|--------------------|
B|---------------5--/-|7----7--------------|---------------5-/--|
G|---------------5--/-|7----7--------------|---------------5-/--|
D|---------------5--/-|7----7--------------|---------------5-/--|
A|--------------------|--------------------|--------------------|
E|--------------------|--------------------|--------------------|



E|2----2----2--2-2--2-|2----2----2--2-2----|2----2----2--2-2--2-|
B|3----3----3--3-3--3-|3----3----3--3-3----|3----3----3--3-3--3-|
G|2----2----2--2-2--2-|2----2----2--2-2----|2----2----2--2-2--2-|
D|0----0----0--0-0--0-|0----0----0--0-0----|0----0----0--0-0--0-|
A|0----0----0--0-0--0-|0----0----0--0-0----|0----0----0--0-0--0-|
E|--------------------|--------------------|--------------------|
                                 Na   na   na
E|--------------------|--------------------|--------------------|
B|-----1------0-------|--------------------|-----1------0-------|
G|--------------------|2-------------------|--------------------|
D|--------------------|-------3----4-------|--------------------|
A|--------------------|--------------------|--------------------|
E|--------------------|--------------------|--------------------|

E|--------------------|--------------------|--------------------|
B|7----7--------------|---------------5-/--|7----7--------------|
G|7----7--------------|---------------5-/--|7----7--------------|
D|7----7--------------|---------------5-/--|7----7--------------|
A|--------------------|--------------------|--------------------|
E|--------------------|--------------------|--------------------|



E|2----2----2--2-2----|2----2----2--2-2--2-|2----2----2--2-2----|
B|3----3----3--3-3----|3----3----3--3-3--3-|3----3----3--3-3----|
G|2----2----2--2-2----|2----2----2--2-2--2-|2----2----2--2-2----|
D|0----0----0--0-0----|0----0----0--0-0--0-|0----0----0--0-0----|
A|0----0----0--0-0----|0----0----0--0-0--0-|0----0----0--0-0----|
E|--------------------|--------------------|--------------------|
            Na   na   na
E|--------------------|--------------------|--------------------|
B|--------------------|-----1------0-------|--------------------|
G|2-------------------|--------------------|2-------------------|
D|-------3----4-------|--------------------|-------3----4-------|
A|--------------------|--------------------|--------------------|
E|--------------------|--------------------|--------------------|

E|--------------------|--------------------|--------------------|
B|---------------5-/--|7----7--------------|--------------------|
G|---------------5-/--|7----7--------------|--------------------|
D|---------------5-/--|7----7--------------|--------------------|
A|--------------------|--------------------|--------------------|
E|--------------------|--------------------|--------------------|

  .............................Fade.............................







        B  Bend
        R  Release
        /  slide up
        \  slide down
        H  hammer-on
        P  pull-off
        ~  vibrato
        +  harmonic
        x  Mute note
        . - play note like a dot in standard notation
        ^ - ties two notes together
        (. Pause



                     
comments
We did not receive enough feedback on this tab! Please rate:
1 2 3 4 5
2 comments total.
0 reply
studwig wrote on December 2 2008, 02:13 pm

Awesome tabs for a killer album but you forgot the third song, You won't see me.

0 reply
PJVILL wrote on December 2 2008, 02:35 pm

Right! Thank you very much!

I want to post or [tab]
guest
You may want to rate the tab now too:
select rating
Please do not post tabs as comments. Select "correction" instead!