Oops, an error
Loading. Please wait.

Sgt Peppers Lonely Hearts Club Band Bass Tab

ver1
ver1

Album

Whole song

More versions @911Tabs.com
21,746 views 75 this week
no commentswrite comment
1 2 3 4 5
accurate
x 9
Autoscroll
+/-
esc
set tempo
stop
Contributor
WARNING: You are trying to view
                                    content from Ultimate-Guitar.com
                                    in an unauthorized application,
                                    which is prohibited.

                                    Please use an official Ultimate
                                    Guitar Tabs application for iPhone,
                                    iPad or Android to access legitimate
                                    chords, guitar, bass, and drum tabs
                                    from Ultimate-Guitar.com database.

                                    Type "ultimate guitar tabs" in Apple
                                    App Store's or Android Market's
                                    search to find the application.
-------------------------------------------------------------------------------
		Sgt. Peppers Lonely Hearts Club Band - Sgt. Peppers Lonely Hearts Club Band
                                                      (The Beatles)
-------------------------------------------------------------------------------

Tabbed By : R8:31b
e-mail: 

Tuning: Standard


Sgt. Peppers Lonely Hearts Club Band

Intro: 
G|------------------------|    
D|------------------------|    
A|------------------------| x2 
E|-5—-5—-5—-5--5--5--5--5-|

G|------------------------|
D|------------------------|
A|3--3--3--3--3--3--3--3--|
E|-----------------------3|

Verse:
G|------------------------|------------------------|
D|------------------------|------------------------|
A|------------------------|-3--3--3----------------| x2
E|-3--3--3----5--5--5-----|------------3--3--3-----|

G|------------------------|------------------------|
D|------------------------|------------------------|
A|------------------------|-3--3--3--3--3--3--3—-3-|
E|-5--5--5--5--5--5--5--5-|------------------------|
  
G|------------------------|------------------------|
D|------------------------|------------------------|
A|-------2--2--3--3--4--5-|-------2--2--5--5--2--2-|
E|-3--3-------------------|-3--3-------------------|

G|------------------------|------------------------|------------------------|
D|------------------------|-3--3--0--0-------------|------------------------|
A|-3--3-------------------|-------------3--3--0--0-|-3--3--3--3--3--3--3--3-|
E|-------6--6--5--5—-3--3-|------------------------|------------------------|

G|------------------------|------------------------|
D|------------------------|------------------------|
A|-5-----5-----5-----5----|-5-----5-----5----------|
E|----5-----5-----5-----5-|----5-----5-------------|

Chorus:
G|------------------------|------------------------|-----------------------|
D|------------------------|------------------------|-----------------------|
A|------------------------|-3--3-------------------|-3--3------------------|
E|---3--3------6--6-------|-----------3--3---------|-------6--6--5—5--3--3-|

G|------------------------|------------------------|-----------------------|
D|------------------------|------------------------|-----------------------|
A|------------------------|------------------------|-3--3------------------|
E|-3--3--3--3--3--3--3--0-|-3--3------6--6---------|-----------3--3--------|

G|------------------------|------------------------|
D|------------------------|------------------------|
A|------------------------|-5----------------------|
E|-5--5--5--0--5--5--5—-0-|------------------------|

Bridge:
G|------------------------|------------------------|
D|------------------------|------------------------|
A|-3--3--3-----3--3--3----|----------5-------------|
E|----------3-----------3-|-3--3--3-----3--3--3—-4-|

G|------------------------|------------------------|
D|------------------------|------------------------|
A|----------------------3-|---5---------5----------|
E|-5--5--5--5--5--5--5----|--------3-------3—------|

G|------------------------|------------------------|------------------------|
D|------------------------|------------------------|------------------------|
A|-3--3-------------------|-------0--0--3--3--0----|-3--3-------------------|
E|-------6--6--5--5--3--3-|-1--1-----------------3-|-------6--6--5--5--3--3-|

G|------------------------|------------------------|
D|------------------------|------------------------|
A|-5-----5-----5----------|-5-----5-----5----------|
E|----5-----5-----5--2--5-|----5-----5-------------|

Verse:
G|------------------------|------------------------|
D|------------------------|------------------------|
A|------------------------|-3--3--3----------------| x2
E|-3--3--3----5--5--5-----|------------3--3--3-----|

G|------------------------|------------------------|
D|------------------------|------------------------|
A|------------------------|------------------------|
E|-5--5--5--5--5--5--5--5-|-8--8--8--8--8—-8--8----|
  
G|------------------------|------------------------|
D|------------------------|------------------------|
A|-------2--2--3--3--4--5-|-------2--2--5--5--2--2-|
E|-3--3-------------------|-3--3-------------------|

Outro:
G|------------------------|------------------------|
D|------------------------|------------------------|
A|-3--3-------------------|-3--3-------------------|
E|-------6--6--5--5--3--3-|-------6--6--5--5--3--3-|

into:

With A Little Help From My Friends

INTRO


  G|------- ------- ------- -------|------- ------- ------- -------|
  D|-------------------------------|-------------------------------|
  A|-------------------------------|-------------------------------|
  E|-------------------------------|-------------------------------|
    


  G|------- ------- ------- -------|------- ------- ------- -------|
  D|-------------------------------|-------------------------------|
  A|-------------------------------|-------------------------------|
  E|-------------------------------|-------------------------------|

 
    00:08

  G|9------ ------- 8------ -------|------- ------- ------- -------|
  D|-------------------------------|11--\--------------------------|
  A|-------------------------------|----------------9--------------|
  E|-------------------------------|-------------------------------|
    What would   think   if I    sang    out     tune,   would   stand
            you                             of              you



  G|11----- ------- ------- -------|9------ ----11- ----9-\ 6------|
  D|----------------9--------------|-----------------------------9-|
  A|-------------------------------|-------------------------------|
  E|-------------------------------|-------------------------------|
         up and  walk    out     me?
                            on



  G|------- ------- ------- -------|------- ------- ----9-\ -------|
  D|----------------9--------------|------------9-H-11-------------|
  A|7------------------------------|9------------------------------|
  E|-------------------------------|-------------------------------|
    Lend me your ears    and     sing    you     song,   and     try
                            I'll            a               I'll



  G|------- ------- ------- -------|------ /9----- /9----- /9\-----|
  D|----------------9--------------|-------------------------------|
  A|9------------------------------|7----------------------------4-|
  E|-------------------------------|-------------------------------|
         not     sing    out     key            Oh,     I   get  by
            to              of

    00:26

  G|------- ------- ------- -------|------- ------- ------- -------|
  D|----------------7-------7------|-------------------------------|
  A|5-------5--------------------6-|7-------7-------7----x--7----4-|
  E|-------------------------------|-------------------------------|
      with  little       from    friends         Hmmmmm  I  Get  high
         a     help         my



  G|------- ------- ------- -------|------- ------- ------- -------|
  D|----------------7----x--7------|-------------------------------|
  A|5-------5--------------------6-|7-------5-------4--------------|
  E|-------------------------------|------------------------7--\---|
      with  little       from    friends         Hmmmmm     going  
         a     help         my                                 to try




  G|------- ------- ------- -------|-----9- 7------ 6------ -------|
  D|-------------------------------|------------------------9----7/|
  A|--------4-------7----x--4------|7------------------------------|
  E|5----------------------------7-|-------------------------------|
      with  little       from    friends          
         a     help         my                       



    X    X  x    X       x       X  X    x       X       X  x    x
  G|------- ------- ------- -------|------- ------- ------- -------|
  D|9------------------------------|-------------------------------|
  A|-------------------------------|-------------------------------|
  E|-------------------------------|-------------------------------|



    00:43

  G|------- ------- ------- -------|------- ----13- ---P11\ 9------|
  D|----------------9--------------|----------------------------11-|
  A|7------------------------------|9------------------------------|
  E|-------------------------------|-------------------------------|
    What do I    do      when    love    is away
                            my
                                                        (Does   worry 
                                                            it

  G|------- ------- ------- -------|------- ----/9- -----6- -------|
  D|----------------9--------------|------------------------9------|
  A|9----------------------------6-|7------------------------------|
  E|-------------------------------|-------------------------------|

            you  to be      alone)



  G|------- ------- ------- -------|------- ----13- ----11- 9------|
  D|----------------9--------------|----------------------------11-|
  A|7------------------------------|9------------------------------|
  E|-------------------------------|-------------------------------|
    How  do I    feel    by the  end     of the  day
                                                       (Are you  sad 



  G|------- ------- ------- -------|------ /9------ 9------ 9\-----|
  D|----------------9--------------|-------------------------------|
  A|-9---------------------------6-|7----------------------------4-|
  E|-------------------------------|-------------------------------|
                                                 No,     I  get  by
         because you're     your own)
                    on

    01:00

  G|------- ------- ------- -------|------- ------- ------- -------|
  D|----------------7-------7------|-------------------------------|
  A|5-------5----5---------------6-|7-------7-------7-------7----4-|
  E|-------------------------------|-------------------------------|
      with  little       from    friends         Hmmmmm     Get  high
         a     help         my



  G|------- ------- ------- -------|------- ------- ------- -------|
  D|----------------7-------7------|-------------------------------|
  A|5-------5--------------------6-|7-------7-------7-------7----4-|
  E|-------------------------------|---------------------5---------|
      with  little       from    friends         Hmmmmm     going  
         a     help         my                                 to try



  G|------- ------- ------- -------|------- ------- ------- -------|
  D|-------------------------------|-------------------------------|
  A|--------4-------7----x--4------|7-------7-------7-------7------|
  E|5----------------------------7-|-------------------------------|
      with  little       from    friends            Do   you     need   
         a     help         my                     (Do   you     need

    01:13

  G|------- -----6- -----4- ---3---|------- ------- ------- -------|   
  D|-----------------------------6-|4------------------------------|
  A|4------------------------------|-------------7-------6--4------|
  E|-------------------------------|-------------------------------| 
                    anybody                                      I
                    anybody)



  G|------- ------- ------- -------|------- ------- ------- -------| 
  D|-------------------------------|7-------7-------7-------7----x-|
  A|7-------7----x-/5-------5----5-|-------------------------------|
  E|-------------------------------|-------------------------------|
    need    somebody        to   love               Could        be
                                                         it
                                                   (Could        be
                                                         it

  G|------- -----6- -----4\ 3------|------- ------- ------- -------| 
  D|-----------------------------6-|4------------------------------|
  A|4------------------------------|-------------7-------6--4----/-|
  E|-------------------------------|-------------------------------|
                    anybody                                      I
                    anybody)



  G|------- ------- ------- -------|------- ------- ------- -------| 
  D|-------------------------------|7-------7-------7-------7------|
  A|7-------7-------5-------5------|-----7-------7-------7-------7-|
  E|-------------------------------|-------------------------------|
    want    somebody        to   love


    01:30

  G|------- ------- ------- -------|------- ------- -----9- \------|
  D|----------------9----9---------|-------------9-H11-------------|
  A|7------------------------------|9------------------------------|
  E|-------------------------------|-------------------------------|
                                                         Yes, 
                                                            I'm  cer..
   (Would    believe      in a    love  at first      
         you                                     sight)   


  G|------- ------- ------- -------|------- ----11\ 9------ -------|
  D|----------------9--------------|--------------------11--9------|
  A|9------------------------------|7------------------------------|
  E|-------------------------------|-------------------------------|
         tain               all  time
            that happens       the
               it


  G|------- ------- ------- -------|------- ------- -----9- \------|
  D|----------------9--------------|-------------9-H11-------------|
  A|7------------------------------|9------------------------------|
  E|-------------------------------|-------------------------------|
                                                         I  can't
                                                                 tell
   (What do you  see     when            out     light)
                            you  turn       the


  G|------- ------- ------- -------|------ /9----- /9------ /9\----|
  D|----------------9--------------|-----------------------------4-|
  A|9------------------------------|7------------------------------|
  E|-------------------------------|-------------------------------|
         you,  I know       it's mine            Oh,     I  get  by
            but


    01:47

  G|------- ------- ------- -------|------- ------- ------- -------|
  D|----------------7----x--7------|-------------------------------|
  A|5-------5--------------------6/|7-------7-------7----x--7----4-|
  E|-------------------------------|-------------------------------|
      with  little       from    friends         Hmmmmm  I  Get  high
         a     help         my



  G|------- ------- ------- -------|------- ------- ------- -------|
  D|----------------7----x--7------|-------------------------------|
  A|5-------5--------------------6-|7-------5-------4--------------|
  E|-------------------------------|------------------------7------|
      with  little       from    friends         Hmmmmm     going  
         a     help         my                                 to try



  G|------- ------- ------- -------|------- ------- ------- -------|
  D|-------------------------------|-------------------------------|
  A|--------4-------7----x--4------|7-------7-------7----x--7------|
  E|5----------------------------7-|-------------------------------|
      with  little       from    friends            Do   you     need   
         a     help         my                     (Do   you     need

    02:00

  G|------- -----6- -----4\ 3------|------- ------- ------- -------|  
  D|-----------------------------6-|4------------------------------|
  A|4------------------------------|-------------7-------6--4------|
  E|-------------------------------|-------------------------------|
                    anybody                                      I
                    anybody)



  G|------- ------- ------- -------|------- ------- ------- -------| 
  D|-------------------------------|7-------7-------7-------7------|
  A|7-------7-------5-------5----5-|-------------------------------|
  E|-------------------------------|-------------------------------|
    just    need    someone     to  love
                                                   (Could        be
                                                         it


  G|------- -----6- -----4\ 3------|------- ------- ------- -------| 
  D|-----------------------------6-|4------------------------------|
  A|4------------------------------|-------------7-------6--4------|
  E|-------------------------------|-------------------------------|
                                                                 I
                    anybody


  G|------- ------- ------- -------|------- ------- ------- -------| 
  D|-------------------------------|7-------7-------7-------7------|
  A|7-------7-------5-------5----5-|-----------------------------4-|
  E|-------------------------------|-------------------------------|
    want    somebody        to   love            Oh,     I  get  by


    02:17      

  G|------- ------- ------- -------|------- /9----- /9----- /9\----|
  D|----------------7-------7------|-----------------------------4-|
  A|5-------5----x---------------6-|7------------------------------|
  E|-------------------------------|-------------------------------|
      with  little       from    friends         Hmmmmm     going
         a     help         my                                to try



  G|------- ------- ------- -------|------- /9----- /9----- /9\----|
  D|----------------7----x--7------|-------------------------------|
  A|5-------5--------------------6-|7------------------------------|
  E|-------------------------------|-------------------------------|
      with  little       from    friends         Oh,     I  Get  high
         a     help         my



  G|------- ------- ------- -------|------- ------- ------- -------|
  D|-------------------------------|-------------------------------|
  A|--------4-------7----x--4------|7-------7-------7----x--7----0-|
  E|5----------------------------7-|-------------------------------|
      with  little       from    friends         Yes,    I  get  by
         a     help         my



  G|------- ------- ------- -------|------- ------- ------- -------|
  D|-------------------------------|7------------------------------|
  A|5------------------------------|-------------------------------|
  E|-------------------------------|-------------------------------|
      with  little       from    friends a  little       from  friends
         a     help         my        with       help       my



  G|------- ------- ------- -------|------- ------- ------- -------|
  D|5-------5-------5-------5------|7-------7-------7-------7------|
  A|-----5---------------5---------|-----7---------------7---------|
  E|-------------------------------|-------------------------------|



   (.

  G|9------ ------- ------- -------|------- ------- ------- -------|
  D|9------------------------------|-------------------------------|
  A|7------------------------------|-------------------------------|
  E|-------------------------------|-------------------------------|

Into:

Lucy In The Sky With Diamonds

 INTRO

          G|------- ------- -------|------- ------- -------|
          D|-----------------------|-----------------------|
          A|-----------------------|-----------------------|
          E|-----------------------|-----------------------|


          G|------- ------- -------|------- ------- -------|
          D|-----------------------|-----------------------|
          A|-----------------------|-----------------------|
          E|-----------------------|-----------------------|

            00:06
  
          G|------- ------- -------|------- ------- -------|
          D|7----------------------|5----------------------|
          A|-----------------------|-----------------------|
          E|-----------------------|-----------------------|
            Picture         yourself        on      a 


          G|------- ------- -------|------- ------- -------|
          D|4----------------------|3----------------------|
          A|-----------------------|-----------------------|
          E|-----------------------|-----------------------|
            boat    on      a       river,          with


          G|------- ------- -------|------- ------- -------|
          D|-----------------------|5----------------------|
          A|7----------------------|-----------------------|
          E|-----------------------|-----------------------|
            tangerine               trees           and 


          G|------- ------- -------|------- ------- -------|
          D|4----------------------|3---------------3------|
          A|-----------------------|--------3--------------|
          E|-----------------------|-----------------------|
            marmalade               skies


          G|------- ------- -------|
          D|-----------------------|
          A|3---------------5------|
          E|-----------------------|

      
            00:18

          G|------- ------- -------|------- ------- -------|
          D|-----------------------|5----------------------|
          A|7----------------------|-----------------------|
          E|-----------------------|-----------------------|
            Somebody            calls       you,    you 


          G|------- ------- -------|------- ------- -------|
          D|4----------------------|3----------------------|
          A|-----------------------|-----------------------|
          E|-----------------------|-----------------------|
            answer      quite       slowly,             a


          G|------- ------- -------|------- ------- -------|
          D|-----------------------|5----------------------|
          A|7----------------------|-----------------------|
          E|-----------------------|-----------------------|
            girl    with    kaleidoscope 


          G|------- 2------ -------|2------ ------- 2------|
          D|4---------------4------|--------4--------------|
          A|-----------------------|-----------------------|
          E|-----------------------|-----------------------|
            eyes.


          G|------- ------- -------|------- ------- -------|
          D|-----------------------|-----------------------|
          A|5-------5-------5------|3-------3-------3------|
          E|-----------------------|-----------------------|


            00:32

          G|------- ------- -------|------- ------- -------|
          D|-----------------------|3-------3-------3------|
          A|1-------1-------1------|-----------------------|
          E|-----------------------|-----------------------|
            Cellophane              flowers         of 


          G|------- ------- -------|------- ------- -------|
          D|-----------------------|5-------5-------5------|
          A|3-------3-------3------|-----------------------|
          E|-----------------------|-----------------------|
            yellow          and     green,


          G|------- ------- -------|------- ------- -------|
          D|-----------------------|-----------------------|
          A|-----------------------|3-------3-------3------|
          E|1-------1-------1------|-----------------------|
            Towering                over            your 


          G|------- ------- -------|3------ ------- -------|
          D|--------0-------3------|--------3--------------|
          A|1----------------------|----------------1------|
          E|-----------------------|-----------------------|
            head


          G|------- ------- -------|------- ------- -------|
          D|-----------------------|-----------------------|
          A|3-------3-------3------|-----------------------|
          E|-----------------------|3-------3-------3------|
            Look    for     the girl        with    the 


          G|------- ------- -------|------- ------- -------|
          D|-----------------------|5-------4-------2------|
          A|--------2-------5------|-----------------------|
          E|3----------------------|-----------------------|
            sun     in      her eyes        and     she's


                    X       X       X
          G|------- ------- ------- -------|
          D|-------------------------------|
          A|5------------------------------|
          E|-------------------------------|
            gone


    00:50

  G|------- ------- ------- -------|------- ------- ------- -------|
  D|------------------------2------|-------------------------------|
  A|------------2---3---5-------5--|----5-5-5---5---5---5-5-5\-----|
  E|3---3---5----------------------|----------------------------2--|
    Lucy    in  the sky             diamonds
                                with


  G|------- ------- ------- -------|------- ------- ------- -------|
  D|------------------------2------|-------------------------------|
  A|------------2---3---5-------5--|----5-5-5---5-5-5---5-5-5\-----|
  E|3---3---5----------------------|----------------------------2--|
    Lucy    in  the sky             diamonds
                                with


  G|------- ------- ------- -------|------- ------- ------- -------|
  D|------------------------2------|-------------------------------|
  A|------------2---3---5-------5--|----5-5-5-----5-5---555-5-----5|
  E|3---3---5----------------------|-------------------------------|
    Lucy    in  the sky             diamonds
                                with


  G|------- ------- ------- -------|
  D|----7-------7-------7-------7\-|
  A|5-------5-------5-------5------|
  E|-------------------------------|
    Aaaaaaaaaaaaaaaaaaaaaaaaaaaaaaa


            01:08

          G|------- ------- -------|------- ------- -------|
          D|-----------------------|5----------------------|
          A|7----------------------|-----------------------|
          E|-----------------------|-----------------------|
            Follow          her     down            to  a 
            aaaaaaaaaaaaaaaaaaaahhhhhh


          G|------- ------- -------|------- ------- -------|
          D|4----------------------|3----------------------|
          A|-----------------------|-----------------------|
          E|-----------------------|-----------------------|
            bridge  by      a   fountain                where


          G|------- ------- -------|------- ------- -------|
          D|-----------------------|5----------------------|
          A|7----------------------|-----------------------|
          E|-----------------------|-----------------------|
            rocking     horse       people          eat 


          G|------- ------- -------|------- ------- -------|
          D|4----------------------|3---------------3------|
          A|-----------------------|--------3--------------|
          E|-----------------------|-----------------------|
            marshmallow             pies


          G|------- ------- -------|
          D|-----------------------|
          A|3---------------5------|
          E|-----------------------|


            01:20

          G|------- ------- -------|------- ------- -------|
          D|-----------------------|5----------------------|
          A|7----------------------|-----------------------|
          E|-----------------------|-----------------------|
            Everyone                smiles  as  you    


          G|------- ------- -------|------- ------- -------|
          D|4----------------------|3----------------------|
          A|-----------------------|-----------------------|
          E|-----------------------|-----------------------|
            drift   past    the flowers                 that


          G|------- ------- -------|------- ------- -------|
          D|-----------------------|5----------------------|
          A|7----------------------|-----------------------|
          E|-----------------------|-----------------------|
            grow    so      incredibly


          G|------- 2------ -------|2------ ------- 2------|
          D|4---------------4------|--------4--------------|
          A|-----------------------|-----------------------|
          E|-----------------------|-----------------------|
            high
        

          G|------- ------- -------|------- ------- -------|
          D|-----------------------|-----------------------|
          A|5-------5-------5------|3-------3-------3------|
          E|-----------------------|-----------------------|


            01:33

          G|------- ------- -------|3------ ------- -------|
          D|--------0-------3------|--------3--------------|
          A|1----------------------|----------------1------|
          E|-----------------------|-----------------------|
            Newspaper           taxis               appear 


          G|------- ------- -------|------- ------- -------|
          D|-----------------------|-----------------------|
          A|3-------3-------3------|3---1---0--------------|
          E|-----------------------|----------------3------|
                    on      the shore


          G|------- ------- -------|------- ------- -------|
          D|-----------------------|3----------------------|
          A|--------0-------3------|----------------3------|
          E|1----------------------|-----------------------|
            Waiting         to  take        you    away


          G|------- ------- -------|3------ ------- -------|
          D|--------0-------3------|--------3--------------|
          A|1----------------------|----------------1------|
          E|-----------------------|-----------------------|



          G|------- ------- -------|------- ------- -------|
          D|-----------------------|-----------------------|
          A|3-------3--------------|3-------2-------0------|
          E|----------------3------|-----------------------|
            Climb   in      the back        with  
                                                your

          G|------- ------- -------|------- ------- -------|
          D|-----------------------|-----------------------|
          A|-----------------------|--------2-------3------|
          E|3-------3-------3------|3----------------------|
            head            the clouds      and you're
                in

                    X       X       X
          G|------- ------- ------- -------|
          D|-------------------------------|
          A|5------------------------------|
          E|-------------------------------|
            gone


    01:50

  G|------- ------- ------- -------|------- ------- ------- -------|
  D|------------------------2------|-------------------------------|
  A|------------2---3---5-------5--|----5-5-5---5-5-5---5-5-5\-----|
  E|3---3---5----------------------|----------------------------2--|
    Lucy    in  the sky             diamonds
                                with


  G|------- ------- ------- -------|------- ------- ------- -------|
  D|------------------------2------|-------------------------------|
  A|------------2---3---5-------5--|----5-5-5---5-5-5-----5-5------|
  E|3---3---5----------------------|--------------------------2----|
    Lucy    in  the sky             diamonds
                                with


  G|------- ------- ------- -------|------- ------- ------- -------|
  D|------------------------2------|-------------------------------|
  A|------------2---3---5-------5--|----5-5-5-----5-5-----5-5------|
  E|3---3---5----------------------|----------------------------5--|
    Lucy    in  the sky             diamonds
                                with


  G|------- ------- ------- -------|
  D|-------------------------------|
  A|5-------5-------5-------5------|
  E|----5-------5-------5-------0--|
    Aaaaaaaaaaaaaaaaaaaaaaaaaaaaaaa



            02:08

          G|------- ------- -------|------- ------- -------|
          D|-----------------------|5----------------------|
          A|0----------------------|-----------------------|
          E|-----------------------|-----------------------|
            Picture         yourself        on      a 
            aaaaaaaaaaaaaaaaaaaahhhhhhh

          G|------- ------- -------|------- ------- -------|
          D|4----------------------|3----------------------|
          A|-----------------------|-----------------------|
          E|-----------------------|-----------------------|
            train   in  a           station             with


          G|------- ------- -------|------- ------- -------|
          D|----------------2------|5----------------------|
          A|0-------4--------------|-----------------------|
          E|-----------------------|-----------------------|
            plasticine              porters             with 


          G|------- ------- -------|------- ------- -------|
          D|4----------------------|3---------------3------|
          A|-----------------------|--------3--------------|
          E|-----------------------|-----------------------|
            looking     glass       ties


          G|------- ------- -------|
          D|----------------0------|
          A|3-----------3----------|
          E|-----------------------|


            02:20

          G|------- ------- -------|------- ------- -------|
          D|2---------------2------|5---------------5------|
          A|-----------------------|-----------------------|
          E|-----------------------|-----------------------|
            Suddenly                someone         is 


          G|------- ------- -------|------- ------- -------|
          D|4---------------4------|3---------------3------|
          A|-----------------------|-----------------------|
          E|-----------------------|-----------------------|
            there  at      the turnstyle,              the



          G|------- ----2-- -------|------- ------- -------|
          D|2---------------2------|5---------------5------|
          A|-----------------------|-----------------------|
          E|-----------------------|-----------------------|
            girl    with    kaleidoscope 


          G|------- ------- 2------|------- ----2-- -------|
          D|4----------------------|4---------------4------|
          A|-----------------------|-----------------------|
          E|-----------------------|-----------------------|
            eyes.


                    X       X       X
          G|------- ------- ------- -------|
          D|-------------------------------|
          A|5------------------------------|
          E|-------------------------------|



    02:33

  G|------- ------- ------- -------|------- ------- ------- -------|
  D|------------------------2------|-------------------------------|
  A|------------2---3---5-------5--|----5-5-5---5-5-5---5-5-5\-----|
  E|3---3---5----------------------|----------------------------2--|
    Lucy    in  the sky             diamonds
                                with


  G|------- ------- ------- -------|------- ------- ------- -------|
  D|------------------------2------|-------------------------------|
  A|------------2---3---5-------5--|----5-5-5---5-5-5---5-5-5\-----|
  E|3---3---5----------------------|----------------------------2--|
    Lucy    in  the sky             diamonds
                                with


  G|------- ------- ------- -------|------- ------- ------- -------|
  D|------------------------2------|-------------------------------|
  A|------------2---3---5-------5--|----5-5-5-----5-5---5-5-5------|
  E|3---3---5----------------------|----------------------------5--|
    Lucy    in  the sky             diamonds
                                with


  G|------- ------- ------- -------|------- ------- 2------ -------|
  D|----4---7---4-------4-------4--|--------2---------------2------|
  A|5---------------5-------5------|0---4-------4-------4-------0--|
  E|-------------------------------|-------------------------------|
    Aaaaaaaaaaaaaaaaaaaaaaaaaaaaaaaaaaaaaaaaaaaaaaaaaaaaaaaahhhhhhh


    02:53

  G|------- ------- ------- -------|------- ------- ------- -------|
  D|------------------------2------|-------------------------------|
  A|------------2---3---5-------5--|----5-5-5---5-5-5---5-5-5\-----|
  E|3---3---5----------------------|----------------------------2--|
    Lucy    in  the sky             diamonds
                                with


  G|------- ------- ------- -------|------- ------- ------- -------|
  D|------------------------2------|------------------7-------7----|
  A|------------2---3---5-------5--|--------5-----5-5-------5----5\|
  E|3---3---5----------------------|-------------------------------|
    Lucy    in  the sky             diamonds
                                with


  G|------- ------- ------- -------|------- ------- ------- -------|
  D|------------------------2------|-------------------------------|
  A|------------2---3---5-------5--|----5-5-5---5-5-5-----5-5------|
  E|3---3---5----------------------|----------------------------5--|
    Lucy    in  the sky             diamonds
                                with


  G|------- ------- ------- -------|------- ------- ------- -------|
  D|--------4---7-------4---7------|------------2------------------|
  A|5---5-----------5-----------5--|0---0---4-------0---0---0------|
  E|-------------------------------|----------------------------4--|
    Aaaaaaaaaaaaaaaaaaaaaaaaaaaaaaaaaaaaaaaaaaaaaaaaahhhhhhhhhhhhhh


    03:12

  G|------- ------- ------- -------|-------/1010101010\---- 101010\|
  D|------------------------2------|-------------------------------|
  A|------------2---3---5-------5--|----5--------------------------|
  E|3---3---5----------------------|--------------------10---------|
    Lucy    in  the sky             diamonds
                                with
    ......................... Fade out .............................


  G|------- ------- ------- -------|--/1010 10---10 ---10-- ----10\|
  D|------------------------2------|-------------------------------|
  A|------------2---3---5-------5--|5------------------------------|
  E|3---3---5----------------------|-----------10----10-----10-----|
    Lucy    in  the sky             diamonds
                                with
    ...............................................................


  G|------- ------- ------- -------|------- ------- ------- -------|
  D|------------------------2------|-------------------------------|
  A|------------2---3---5-------5--|-------------------------------|
  E|3---3---5----------------------|-------------------------------|
    Lucy    in  the sky             diamonds
                                with
    ..............................


Getting Better

12/8

                                   

    G|------ ------ ------ ------|------ ------ ------ ------|
    D|---------------------------|---------------------------|
    A|---------------------------|---------------------------|
    E|---------------------------|---------------------------|


     

    G|------ ------ ------ ------|------ ------ ------ ------|
    D|---------------------------|---------------------------|
    A|---------------------------|---------------------------|
    E|---------------------------|-------------------------1-/
          It's      better all    time                     I
             getting           the

      00:08

    G|------ ------ 12---- 12-\--|------ ------ 12---- 12-\--|
    D|---------------------------|---------------------------|
    A|---------------------------|---------------------------|
    E|3------3-------------------|3------3-------------------|
      used   get mad  at my  school                      The
          to
                                      No I   can't  complain


    G|------ ------ 12---- 12-\--|------ ------ 12---- 12-\--|
    D|---------------------------|---------------------------|
    A|---------------------------|---------------------------|
    E|3------3-------------------|3------3-------------------|
      teachers   taught me weren't cool                    You're
             who
                                      No I   can't  complain


    G|------ ------ 12---- 12-\--|------ ------ 12---- 12-\--|
    D|---------------------------|---------------------------|
    A|---------------------------|---------------------------|
    E|3------3-------------------|3------3-------------------|
      holding    down             turning    round
             me                          me
                    Aaaaaaaahh                     Aaaaaaaahh


    G|------ ------ 12---- 12-\--|------ ------ ----12 \-----|
    D|---------------------------|-------------/14-----------|
    A|---------------------------|---------------------------|
    E|3------3-------------------|3------3-------------------|
      filling    up     with   rules                       I've
             me            your
                                                Foooooooooooo
 
      00:24

    G|------ ------ ------ ------|------ 5----- ------ ------|
    D|--------------2-/-5--------/7------------/7------5-----|
    A|3------3-------------------|---------------------------|
    E|---------------------------|---------------------------|
      got to admit      it's   better               a  little 
                           getting                         better
      ooooohoooooooools                         Better


    G|------ ------ ------ ------|------ ------ ------ ------|
    D|2------3------5------------|-------2------3------------|
    A|---------------------3-----|5-----------------2--2-----|  
    E|---------------------------|---------------------------|  
                    all    the time                        I
                                      It can't  get no     worse



    G|------ ------ ------ ------|------ 5----- ------ ------|
    D|--------------2---5--------/7-------------7------5-----|
    A|3------3-------------------|---------------------------|
    E|---------------------------|---------------------------|
      have   admit      it's   better               it's   better
          to               getting                     getting
                                                Better


    G|------ ------ ------ ------|------ ------ ------ ------|
    D|2------3------5------------|-------2------3------------|
    A|---------------------3-----|5-----------------x--3-----|
    E|---------------------------|---------------------------| 
                           since         been 
                               you've        mine

     

    G|------ ------ ------ 12-\--|------ ------ 12---- 12-\--|
    D|---------------------------|---------------------------|
    A|---------------------------|---------------------------|
    E|3------3------3------------|3------3-------------------|
                                                           Me


      00:44

    G|------ ------ 12---- 12-\--|------ -----10121012 12-\--|
    D|---------------------------|--------------H---H--------|
    A|---------------------------|---------------------------|
    E|3------3-------------------|3------3-------------------|
      used   be  angry     young                           Me
          to                   man



    G|------ ------ 10121012-1012\------ ------ --1012 12-\--|
    D|----------------H-P-H----H-|------------------H--------|
    A|---------------------------|---------------------------|
    E|3------3-------------------|3------3-------------------|
      hiding me  head   in the sand                        You





    G|------ ------ 10121012-12\-|------ ------ 10121012-12-\|
    D|----------------H-P-H------|----------------H-P-H------|
    A|---------------------------|---------------------------|
    E|3------3-------------------|3------3-------------------|
      gave   the word          I  finally    heard         I'm
          me



    G|------ ------ 101212 1012--|1012-\ ------ ----12 12----|
    D|----------------H------H---|--H----------/14-----------|
    A|---------------------------|---------------------------|
    E|3------3-------------------|-------3-------------------|
       doing the best   that   can                         I've
                           I


      01:00

    G|------ ------ ----5- ------|5----- ------ ------ ------|
    D|-----------2-/7------------|---------------------------|
    A|3--------------------------|------------------7--------|
    E|---------------------------|---------------------------|
      got to admit      it's   better               a  little 
                           getting                         better
                                                Better



    G|------ ------ ------ ------|------ ------ ------ ------|
    D|5--------------------------|3--------------------------|
    A|------------------5--------|------------------2------2-/
    E|---------------------------|---------------------------|
                    all    the time                        I
                                      It can't  get no     worse


      01:07

    G|------ ------ ----5- ------|5----- ------ ------ ------|
    D|-------2----/-7------------|---------------------------|
    A|3--------------------------|------------------7--------|
    E|---------------------------|---------------------------|
      have   admit      it's   better               it's   better
          to               getting                     getting
                                                Better


    G|------ ------ ------ ------|------ ------ ------ ------|
    D|5--------------------------|3--------------------------|
    A|------------------5--------|------------------3--------|
    E|---------------------------|---------------------------|
                           since         been 
                               you've        mine


      01:15

    G|------ ------ ------ ------|------ ------ ------ ------|
    D|3------2------3------2-----|3------2------3------3-----|
    A|---------------------------|------------------0--------|
    E|---------------------------|---------------------------|
      Getting       so     much   better        all    the time




    G|------ ------ ----5- ------|5----- ------ ------ ------|
    D|-------2---x-/7--------7---|---------------------------|
    A|3--------------------------|------------------7--------|
    E|---------------------------|---------------------------|
          it's      better all    time 
             getting           the


      01:23

    G|------ ------ ------ ------|------ ------ ------ ------|
    D|5------------------------2-|3-----------------2--------|
    A|------------------5--------|---------------------------|
    E|---------------------------|---------------------------|
      Better        better        better




    G|------ ------ ----5- ------|5----- ------ ------ ------|
    D|-------2----/-7--------7---|------------------2------3-|
    A|3--------------------------|---------------------------|
    E|---------------------------|---------------------------|
          it's      better all    time 
             getting           the



    G|------ ------ ------ ------|------ ------ ------ ------|
    D|5------------------------2-|3-----------------2--------|
    A|------------------5--------|---------------------------|
    E|---------------------------|-------------------------1-/
      Better        better        better


             x   x         X             x   x         X

    G|------ ------ ------ ------|------ ------ ------ ------|
    D|---------------------------|---------------------------|
    A|---------------------------|---------------------------|
    E|3--------------------------|---------------------------|
                                                           I

             
      01:39  x   x         X             x   x         X

    G|------ ------ ------ ------|------ ------ ------ ------|
    D|---------------------------|---------------------------|
    A|---------------------------|---------------------------|
    E|---------------------------|---------------------------|
      used   be cruel   to my  woman     I   beat      and kept 
          to                                        her

             x   x         X             x   x         X

    G|------ ------ ------ ------|------ ------ ------ ------|
    D|---------------------------|---------------------------|
    A|---------------------------|---------------------------|
    E|---------------------------|---------------------------|
          her           from   things that   loved
             apart         the           she


      01:47                                          

    G|------ ----12 12---- 12-\--|------ ------ 1012-- 12-\--|
    D|---------------------------|----------------H----------|
    A|---------------------------|---------------------------|
    E|3------3-------------------|3------3-------------------|
                                  Man I  was mean   but    changing
                                                       I'm 



    G|------ ----12 12--12 12-\--|------ ------ 12---- 12-\--|
    D|---------------------------|---------------------------|
    A|---------------------------|---------------------------|
    E|3------3-------------------|3------3-------------------|
             my  scene  and    doing     the best   that   can
                           I'm    



    G|------ ------/12--12 12-\--|    
    D|---------------------------|
    A|---------------------------|
    E|3------3-------------------|
                    OooooooooooHo


      01:56

    G|------ ------ ----5- ------|5----- ------ ------ ------|
    D|------------/-7------------|---------------------------|
    A|3--------------------------|------------------7--------|
    E|---------------------------|---------------------------|
          I  admit     it's    better               a  little 
                           getting                         better
      oooooooooohh                              Better


    G|------ ------ ------ ------|------ ------ ------ ------|
    D|5------------------------2-|3--------------------------|
    A|------------------5--------|------------------2--------|
    E|---------------------------|---------------------------|
                    all    the time                        Yes,
                                      It can't  get no     worse


      02:04

    G|------ ------ ----5- ------|5----- ------ ------ ------|
    D|-------2----/-7----------7-|---------------------------|
    A|3--------------------------|------------------7--------|
    E|---------------------------|---------------------------|
          I  admit     it's    better               a  little 
                           getting                         better
                                                Better


    G|------ ------ ------ ------|------ ------ ------ ------|
    D|5------------------------2-|3-----------------2------0-|
    A|------------------5--------|---------------------------|
    E|---------------------------|---------------------------|
                           since         been 
                               you've        mine


      02:12

    G|------ ------ ------ ------|------ ------ ------ ------|
    D|3------2------3------2-----|3--------------------------|
    A|---------------------------|--------------0------2-----|
    E|---------------------------|-------3-------------------|
      Getting       so     much   better        all    the time 




    G|------ ------ ----5- ------|5----- ----5- ------ ------|
    D|-------2----/-7----------7-|---------------------------|
    A|3--------------------------|------------------7--------|
    E|---------------------------|---------------------------|
          it's      better all    time 
             getting           the


      02:20

    G|------ ------ ------ ------|------ ------ ------ ------|
    D|5------------------------2-|3--------------------------|
    A|------------------5--------|------------------2--------|
    E|---------------------------|-------------------------3-|
      Better        better        better



    G|------ ------ ----5- ------|5----- ----5- ------ ------|
    D|--------------7------------|---------------------------|
    A|3----/-7-------------------|------------------7--------|
    E|---------------------------|---------------------------|
          it's      better all    time 
             getting           the



    G|------ ------ ------ ------|------ ------ ------ ------|
    D|5------------------------2-|3-----------------2------0-|
    A|------------------5--------|---------------------------|
    E|---------------------------|---------------------------|
      Better        better        better


      02:31

    G|------ ------ ------ ------|------ ------ ------ ------|
    D|3------2------3------2-----|3--------------------------|
    A|---------------------------|--------------0------2-----|
    E|---------------------------|-------3-------------------|
      Getting       so     much   better        all    the time



             x   x         X           X x   x         X

    G|------ ------ ------ ------|------ ------ ------ ------|
    D|---------------------------|---------------------------|
    A|3--------------------------|---------------------------|
    E|---------------------------|---------------------------|


             x   x         X             x   x         X

    G|------ ------ ------ ------|------ ------ ------ ------|
    D|---------------------------|---------------------------|
    A|---------------------------|---------------------------|
    E|---------------------------|---------------------------|
      ....................... Fade out ......................

             x   x         X           

    G|------ ------ ------ ------|------ ------ ------ ------|
    D|---------------------------|---------------------------|
    A|---------------------------|---------------------------|
    E|---------------------------|---------------------------|
      ..................................

Fixing A Hole

 1 & 2 & 3 & 4 & 
G|-----------------|
D|-3---------------|   <--Repeat this 4 Times
A|---------3-------|   
E|-----------------|
"I'm fixing a hole..."

   1 & 2 & 3 & 4 &   1 & 2 & 3 & 4 &   1 & 2 & 3 & 4 &   1 & 2 & 3 & 4 & 
G|-----------------|-----------------|-----------------|-----------------|
D|-3---------3/6---|-----------3/6---|-----------3/6---|-----------3/6---|
A|-------1/3-------|-------3---------|-------3---------|-------3---------|
E|-----------------|-----------------|-----------------|-----------------|
"Where it will go"

   1 & 2 & 3 & 4 & 
G|-----------------|
D|-3---------------|   <--Repeat this 3 Times
A|---------3-------|   
E|-----------------|
"I'm filling the cracks..."

   1 & 2 & 3 & 4 &   1 & 2 & 3 & 4 &   1 & 2 & 3 & 4 &   1 & 2 & 3 & 4 & 
G|-----------------|-----------------|-----------------|-----------------|
D|-3-----------6---|-3---------3/6---|-----------3/6---|-----------3/6---|
A|-------1/3-------|-------3---------|-------3---------|-------3---------|
E|-----------------|-----------------|-----------------|-----------------|
                   "Where it will go"

   1 & 2 & 3 & 4 &   1 & 2 & 3 & 4 &   1 & 2 & 3 & 4 &   1 & 2 & 3 & 4 &
G|-----------------|-----------------|-----------------|-----------------|
D|-----------------|-3---3-------3---|-3---3-------3---|-3---3-------3---|
A|-----------------|---------3-5---5-|---------3-5---5-|---------3-5---5-|
E|-----------------|-----------------|-----------------|-----------------|
            "And it really doesn't matter..."

   1 & 2 & 3 & 4 &   1 & 2 & 3 & 4 &   1 & 2 & 3 & 4 &   1 & 2 & 3 & 4 &
G|-----------------|-----------------|-----------------|-----------------|
D|-3---3---2-------|-----------------|-----------------|-----------------|
A|-------------5---|-3---3-------2---|-3---3-------2---|-3---3-------2---|
E|-----------------|---------3-5---3-|---------3-5---3-|---------3-5---3-|
                   "See the people..."

   1 & 2 & 3 & 4 &   1 & 2 & 3 & 4 &   1 & 2 & 3 & 4 &   1 & 2 & 3 & 4 &
G|-----------------|-----------------|-10--------------|-----------------|

D|-------------2---|-3---------------|---------10>>>>>>|>3---------------|
A|-3---4---5-------|---------3-------|-----------------|---------3-------|
E|-----------------|-----------------|-----------------|-----------------|
		   "I'm painting the room..."

   1 & 2 & 3 & 4 &   1 & 2 & 3 & 4 &   1 & 2 & 3 & 4 &   1 & 2 & 3 & 4 & 
G|-----------------|-----------------|-----------------|-----------------|
D|-3---------3/6---|-3-----3/6-------|-----------3/6---|-----------3/6---|
A|-------3---------|-----3-----------|---3-------------|-------3---------|
E|-----------------|-----------------|-------1---------|-----------------|
                   "Where it will go"

   1 & 2 & 3 & 4 &   1 & 2 & 3 & 4 &   1 & 2 & 3 & 4 &   1 & 2 & 3 & 4 &
G|-----------------|-----------------|-----------------|-----------------|
D|-----------3/6---|-3---3-----------|-3---3-----------|-3---3-----------|
A|-------3---------|---------3---3---|---------3---3---|---------3---3---|
E|-----------------|-----------4---4-|-----------4---4-|-----------4---4-|
                    (Here's the bridge)

   1 & 2 & 3 & 4 &   1 & 2 & 3 & 4 &   1 & 2 & 3 & 4 &   1 & 2 & 3 & 4 &
G|-----------------|-----------------|-----------------|-----------------|
D|-3---3-----3/6---|-----------3/6---|-----------3/6---|-----------3/6---|
A|---------3-------|-------3---------|-------3---------|-------3---------|
E|-----------------|-----------------|-----------------|-----------------|


   1 & 2 & 3 & 4 &   1 & 2 & 3 & 4 &   1 & 2 & 3 & 4 &   1 & 2 & 3 & 4 &
G|-----------------|-----------------|-----------------|-----------------|
D|-----------------|-3---3-------3---|-3---3-------3---|-3---3-------3---|
A|-----------------|---------3-5---5-|---------3-5---5-|---------3-5---5-|
E|-----------------|-----------------|-----------------|-----------------|
            "And it really doesn't matter..."

   1 & 2 & 3 & 4 &   1 & 2 & 3 & 4 &   1 & 2 & 3 & 4 &   1 & 2 & 3 & 4 &
G|-----------------|-----------------|-----------------|-----------------|
D|-3---3---2-------|-----------------|-----------------|-----------------|
A|-------------5---|-3---3-------2---|-3---3-------2---|-3---3-------2---|
E|-----------------|---------3-5---3-|---------3-5---3-|---------3-5---3-|
		   "Silly people running..."

   1 & 2 & 3 & 4 &   1 & 2 & 3 & 4 &   1 & 2 & 3 & 4 &   1 & 2 & 3 & 4 &
G|-----------------|-----------------|-10--------------|-10--------------|
D|-------------2---|-3---------------|---------10------|---------10>>>>>>|
A|-3---4---5-------|---------3-------|-----------------|-----------------|
E|-----------------|-----------------|-----------------|-----------------|
		   "I'm taking the time..."

   1 & 2 & 3 & 4 &   1 & 2 & 3 & 4 &   1 & 2 & 3 & 4 &   1 & 2 & 3 & 4 & 
G|-----------------|-----------------|-----------------|-----------------|
D|>3---------------|-3---------3/6---|-----------3/6---|-----------3/6---|
A|---------3-------|-------3---------|-------3---------|-------3---------|
E|-----------------|-----------------|-----------------|-----------------|
		   "And I still go!"

   1 & 2 & 3 & 4 &   1 & 2 & 3 & 4 &   1 & 2 & 3 & 4 &   1 & 2 & 3 & 4 &
G|-----------------|-----------------|-----------------|-----------------|
D|-----------3/6---|-3---3-----------|-3---3-----------|-3---3-----------|
A|-------3---------|---------3---3---|---------3---3---|---------3---3---|
E|-----------------|-----------------|-----------------|-----------------|
		   "I'm fixing a hole..."

   1 & 2 & 3 & 4 &   1 & 2 & 3 & 4 &
G|-----------------|-----------------|
D|-3---3-----------|-3-------3---6---|
A|---------3---3---|-------3---------|
E|-----------------|-----------------|
		   "Where it will go"

   1 & 2 & 3 & 4 &  
G|-----------------|
D|-----------3/6---|    <--Repeat this until the song fades out
A|-------3---------|
E|-----------------|




She's Leaving Home

VERSE

G|-------------------------|-------------------------|
D|-2-----------------------|-------------------------|
A|-------------------------|-2-----------------------|
E|-------------------------|-------------------------|

G|-------------------------|-------------------------|
D|-4-----------------------|-------------------------|
A|-------------------------|-4-----------------------|
E|-------------------------|-------------------------|

G|-------------------------|-------------------------|
D|-6-----------------------|-------------------------|
A|-------------------------|-4-------6-------7-------|
E|-------------------------|-------------------------|

G|-----------------3-------|-------------------------|
D|-4-------6---------------|-6-------4---------------|
A|-------------------------|-----------------7-------|
E|-------------------------|-------------------------|

G|-------------------------|-------------------------|
D|-------------------------|-------------------------|
A|-------------------------|-------------------------|
E|-7-----------------------|-------------------------|

G|-------------------------|-------------------------|
D|-------------------------|-------------------------|
A|-------------------------|-------------------------|
E|-7-----------------------|-7---7-------7-----------|

G|-------------------------|-------------------------|
D|-------------------------|-------------------------|
A|-------------------------|-------------------------|
E|-7-----------------------|-------------------------|

G|-------------------------|-------------------------|
D|-------------------------|-------------------------|
A|-------------------------|-------------------------|
E|-7---------------7-------|-7---7-------7-----------|

VERSE

G|-------------------------|-------------------------|
D|-2-----------------------|-------------------------|
A|-------------------------|-2-----------------------|
E|-------------------------|-------------------------|

G|-------------------------|-------------------------|
D|-4-----------------------|-------------------------|
A|-------------------------|-4-----------------------|
E|-------------------------|-------------------------|

G|-------------------------|-------------------------|
D|-6-----------------------|-------------------------|
A|-------------------------|-4-------6-------7-------|
E|-------------------------|-------------------------|

G|-----------------3-------|-------------------------|
D|-4-------6---------------|-6-------4---------------|
A|-------------------------|-----------------7-------|
E|-------------------------|-------------------------|

G|-------------------------|-------------------------|
D|-------------------------|-------------------------|
A|-------------------------|-------------------------|
E|-7-----------------------|-------------------------|

G|-------------------------|-------------------------|
D|-------------------------|-------------------------|
A|-------------------------|-------------------------|
E|-7-----------------------|-7---7-------7-----------|

G|-------------------------|-------------------------|
D|-------------------------|-------------------------|
A|-------------------------|-------------------------|
E|-7-----------------------|-------------------------|

G|-------------------------|-------------------------|
D|-------------------------|-------------------------|
A|-------------------------|-------------------------|
E|-7---------------7-------|-7---7-------7-----------|

CHORUS

G|-------------------------|-------------------------|
D|-2-----------------------|-------------------------|
A|-------------------------|-------------------------|
E|-------------------------|-------------------------|

G|-------------------------|-------------------------|
D|-------------------------|-2-----------2-----------|
A|-------------------------|-----2---2---------------|
E|-------------------------|-------------------------|

G|-------------------------|-------------------------|
D|-2-----------------------|-------------------------|
A|-------------------------|-------------------------|
E|-------------------------|-------------------------|

G|-------------------------|-------------------------|
D|-------------------------|-2-----------2-----------|
A|-------------------------|-----2---2---------------|
E|-------------------------|-------------------------|

G|-------------------------|-------------------------|
D|-2-------2-------2-------|-2-------2-------2-------|
A|-------------------------|-------------------------|
E|-------------------------|-------------------------|

G|-4-------4-------4-------|-4-------4-------4-------|
D|-------------------------|-------------------------|
A|-------------------------|-------------------------|
E|-------------------------|-------------------------|

G|-------------------------|-5---------------5-------|
D|-----------------6-------|---------6---------------|
A|-4-----------------------|-------------------------|
E|-------------------------|-------------------------|

G|-------------------------|-5---------------5-------|
D|-----------------6-------|---------6---------------|
A|-4-----------------------|-------------------------|
E|-------------------------|-------------------------|

G|-------------------------|-5---------------5-------|
D|-----------------6-------|---------6---------------|
A|-4-----------------------|-------------------------|
E|-------------------------|-------------------------|

G|-------------------------|
D|-4-------4-------4-------|
A|-------------------------|
E|-------------------------|

VERSE

G|-------------------------|-------------------------|
D|-------------------------|-0-------3---------------|
A|-----------------2-------|-----------------2-------|
E|-0-------4---------------|-------------------------|

G|-------------------------|---------2-------5-------|
D|-------------------------|-2-----------------------|
A|-----------------4-------|-------------------------|
E|-2-------5---------------|-------------------------|

G|-------------------------|-------------------------|
D|-------------------------|-------------------------|
A|-4-----------------------|-4-------6-------7-------|
E|-------------------------|-------------------------|

G|-----------------3-------|-------------------------|
D|-4-------6---------------|-6-------4---------------|
A|-------------------------|-----------------7-------|
E|-------------------------|-------------------------|

G|-------------------------|-------------------------|
D|-------------------------|-------------------------|
A|-2-----------------------|-2-----------------------|
E|-------------------------|-------------------------|

G|-------------------------|-------------------------|
D|-------------------------|-------------------------|
A|-2-----------------------|-2---2-------2-----------|
E|-------------------------|-------------------------|

G|-------------------------|-------------------------|
D|-------------------------|-------------------------|
A|-2-----------------------|-2-----------------------|
E|-------------------------|-------------------------|

G|-------------------------|-------------------------|
D|-------------------------|-------------------------|
A|-2---------------2-------|-2---2-------2-----------|
E|-------------------------|-------------------------|

VERSE

G|-------------------------|-------------------------|
D|-------------------------|-0-------3---------------|
A|-----------------2-------|-----------------2-------|
E|-0-------4---------------|-------------------------|

G|-------------------------|---------2-------5-------|
D|-------------------------|-2-----------------------|
A|-----------------4-------|-------------------------|
E|-2-------5---------------|-------------------------|

G|-------------------------|-------------------------|
D|-------------------------|-------------------------|
A|-4-----------------------|-4-------6-------7-------|
E|-------------------------|-------------------------|

G|-----------------3-------|-------------------------|
D|-4-------6---------------|-4---------------4-------|
A|-------------------------|-------------------------|
E|-------------------------|-------------------------|

G|-------------------------|-------------------------|
D|-------------------------|-------------------------|
A|-2---------------2-------|-2-----------------------|
E|-------------------------|-------------------------|

G|-------------------------|-------------------------|
D|-------------------------|-------------------------|
A|-2---------------2-------|-2-----------------------|
E|-------------------------|-------------------------|

G|-------------------------|-------------------------|
D|-------------------------|-------------------------|
A|-2-------2-------2-------|-2-------2-------2-------|
E|-------------------------|-------------------------|

G|-------------------------|-------------------------|
D|-------------------------|-------------------------|
A|-2-------2-------2-------|-2-------2-------2-------|
E|-------------------------|-------------------------|

CHORUS

G|-------------------------|-------------------------|
D|-2-----------------------|-------------------------|
A|-------------------------|-------------------------|
E|-------------------------|-------------------------|

G|-------------------------|-------------------------|
D|-------------------------|-2---2-------2---2-------|
A|-------------------------|-------------------------|
E|-------------------------|-------------------------|

G|-------------------------|-------------------------|
D|-2-----------------------|-------------------------|
A|-------------------------|-------------------------|
E|-------------------------|-------------------------|

G|-------------------------|-------------------------|
D|-------------------------|-2---2-------2---2-------|
A|-------------------------|-------------------------|
E|-------------------------|-------------------------|

G|-------------------------|-------------------------|
D|-2-------2-------2-------|-2-------2-------2-------|
A|-------------------------|-------------------------|
E|-------------------------|-------------------------|

G|-4-------4-------4-------|-4-------4-------4-------|
D|-------------------------|-------------------------|
A|-------------------------|-------------------------|
E|-------------------------|-------------------------|

G|-------------------------|-5---------------5-------|
D|-----------------6-------|---------6---------------|
A|-4-----------------------|-------------------------|
E|-------------------------|-------------------------|

G|-------------------------|-5---------------5-------|
D|-----------------6-------|---------6---------------|
A|-4-----------------------|-------------------------|
E|-------------------------|-------------------------|

G|-------------------------|-5---------------5-------|
D|-----------------6-------|---------6---------------|
A|-4-----------------------|-------------------------|
E|-------------------------|-------------------------|

G|-------------------------|
D|-4-------4-------4-------|
A|-------------------------|
E|-------------------------|

VERSE

G|-------------------------|-------------------------|
D|-2-----------------------|-------------------------|
A|-------------------------|-2-----------------------|
E|-------------------------|-------------------------|

G|-------------------------|-------------------------|
D|-4-----------------------|-------------------------|
A|-------------------------|-4-----------------------|
E|-------------------------|-------------------------|

G|-------------------------|-------------------------|
D|-6-----------------------|-------------------------|
A|-------------------------|-4-------6-------7-------|
E|-------------------------|-------------------------|

G|-----------------3-------|-------------------------|
D|-4-------6---------------|-6-------4---------------|
A|-------------------------|-----------------7-------|
E|-------------------------|-------------------------|

G|-------------------------|-------------------------|
D|-------------------------|-------------------------|
A|-------------------------|-------------------------|
E|-7-----------------------|-7-----------------------|

G|-------------------------|-------------------------|
D|-------------------------|-------------------------|
A|-------------------------|-------------------------|
E|-7-----------------------|-7---7-------7-----------|

G|-------------------------|-------------------------|
D|-------------------------|-------------------------|
A|-------------------------|-------------------------|
E|-7-------7-------7-------|-7-------7-------7-------|

G|-------------------------|-------------------------|
D|-------------------------|---------9---------------|
A|-------------------------|-----9-------9-------9---|
E|-7-------7-------7-------|-7---------------7-------|

CHORUS

G|-------------------------|-------------------------|
D|-2-----------------------|-------------------------|
A|-------------------------|-------------------------|
E|-------------------------|-------------------------|

G|-------------------------|-------------------------|
D|-------------------------|-2-----2-2-------2-----2-|
A|-------------------------|-------------------------|
E|-------------------------|-------------------------|

G|-------------------------|-------------------------|
D|-2-----------------------|-------------------------|
A|-------------------------|-------------------------|
E|-------------------------|-------------------------|

G|-------------------------|-------------------------|
D|-------------------------|-2-----2-2-------2-----2-|
A|-------------------------|-------------------------|
E|-------------------------|-------------------------|

G|-------------------------|-------------------------|
D|-2-----------------------|-------------------------|
A|-------------------------|-------------------------|
E|-------------------------|-------------------------|

G|-4-----------------------|-4-----4-4-------4-------|
D|-------------------------|-------------------------|
A|-------------------------|-------------------------|
E|-------------------------|-------------------------|

G|-------------------------|-------------------------|
D|-------------------------|-------------------------|
A|-4-------4---------------|-4-------4---------------|
E|-------------------------|-------------------------|

G|-------------------------|-------------------------|
D|-4-------4-------4-------|-4-------4-------4-------|
A|-------------------------|-------------------------|
E|-------------------------|-------------------------|

G|-------------------------|-------------------------|
D|-------------------------|-------------------------|
A|-4-------4---------------|-4-------4---------------|
E|-------------------------|-------------------------|

G|-------------------------|-------------------------|
D|-4-------4-------4-------|-4-------4-------4-------|
A|-------------------------|-------------------------|
E|-------------------------|-------------------------|

G|-------------------------|-------------------------|
D|-------------------------|-------------------------|
A|---------4-------4-------|---------4-------4-------|
E|-------------------------|-------------------------|

G|-------------------------|-------------------------|
D|---------4-------4-------|-4-------4-------4-------|
A|-------------------------|-------------------------|
E|-------------------------|-------------------------|

G|-------------------------|-------------------------|
D|-------------------------|-------------------------|
A|-0-----------------------|-------------------------|
E|-------------------------|-------------------------|

G|-------------------------|
D|-------------------------|
A|-------------------------|
E|-0-----------------------|


Being For The Benefit Of Mr. Kite

*The song's meter begins in 4/4 with swung 8th notes.

G|--------------------------------|--------------------------------|
D|8---8---8-------8---8---8---5---|7---7---7---7---7-------7\------|
A|--------------------------------|--------------------------------|
E|--------------------------------|--------------------------------|
  ^       ^       ^       ^        ^       ^       ^       ^         

G|--------------------------------||--------------------------------|
D|0-------------------------------||--------------------------------|
A|--------------------------------||3-------------------------------|
E|----------------3---------------||----------------3---------------|
  ^       ^       ^       ^         ^       ^       ^       ^         

G|--------------------------------|--------------------------------|
D|------------------------3-------|5-------5-------5---------------|
A|1-----------3---5---------------|--------------------5-------5---|
E|--------------------------------|------------------------7-------|
  ^       ^       ^       ^        ^       ^       ^       ^         

G|--------------------------------|--------------------------------|
D|------------------------5-------|------------------------5---5---|
A|----0---2---3---5---------------|3-------5-------6---------------|
E|3-------------------------------|--------------------------------|
  ^       ^       ^       ^        ^       ^       ^       ^         

G|--------------------------------|--------------------------------|
D|----------------0-------3---3---|7-------7-------7---------------|
A|1-------3-----------------------|--------------------7-------7---|
E|--------------------------------|------------------------9-------|
  ^       ^       ^       ^        ^       ^       ^       ^         

G|--------------------------------|--------5---7--7/9------7---6---|
D|------------------------5---7---|8-------------------------------|
A|5-------7-------8---------------|--------------------------------|
E|--------------------------------|--------------------------------|
  ^       ^       ^       ^        ^       ^       ^       ^         

G|7-------5-----------------------|--------5---7--7/9------7---6---|
D|----------------8-------7-------|8-------------------------------|
A|--------------------------------|--------------------------------|
E|--------------------------------|--------------------------------|
  ^       ^       ^       ^        ^       ^       ^       ^         

G|7-------5-----------------------|--------7-----------------------|
D|----------------8-------7-------|8-----------8---7-------7\------|
A|--------------------------------|--------------------------------|
E|--------------------------------|--------------------------------|
  ^       ^       ^       ^        ^       ^       ^       ^         

G|--------------------------------|--------------------------------|
D|0-------------------------------|--------------------------------|
A|--------------------------------|3-------------------------------|
E|----------------3---------------|----------------3---------------|
  ^       ^       ^       ^        ^       ^       ^       ^         

G|--------------------------------|--------------------------------|
D|------------------------3-------|5---------------5---------------|
A|1-----------3---5---------------|------------5-------5-------5---|
E|--------------------------------|------------------------7-------|
  ^       ^       ^       ^        ^       ^       ^       ^         

G|--------------------------------|--------------------------------|
D|------------------------5-------|------------------------5---5---|
A|----0---2---3---5---------------|3-------5-------6---------------|
E|3-------------------------------|--------------------------------|
  ^       ^       ^       ^        ^       ^       ^       ^         

G|--------------------------------|--------------------------------|
D|----------------0-------3---3---|7-------7-------7---------------|
A|1-------3-----------------------|--------------------7-------7---|
E|--------------------------------|------------------------9-------|
  ^       ^       ^       ^        ^       ^       ^       ^         

G|--------------------------------|--------5---7--7/9------7---6---|
D|------------------------5---7---|8-------------------------------|
A|5-------7-------8---------------|--------------------------------|
E|--------------------------------|--------------------------------|
  ^       ^       ^       ^        ^       ^       ^       ^         

G|7-------5-----------------------|--------5---7--7/9------7---6---|
D|----------------8-------7-------|8-------------------------------|
A|--------------------------------|--------------------------------|
E|--------------------------------|--------------------------------|
  ^       ^       ^       ^        ^       ^       ^       ^         

*The meter changes to 6/8 here
G|------------------------|------------------------|
D|0-------2---3-------5---|--------------------5---|
A|------------------------|3-------5---7-----------|
E|------------------------|------------------------|
  ^   ^   ^   ^   ^   ^    ^   ^   ^   ^   ^   ^

G|------------------------|------------------------|
D|7-----------7-------7---|----------------0---2---|
A|--------7---------7---7-|0-------0-2-4-----------|
E|------------------------|------------------------|
  ^   ^   ^   ^   ^   ^    ^   ^   ^   ^   ^   ^ 

G|----------------0---2---|------------------------|
D|0-------2---3-----------|----------------5---7---|
A|------------------------|3-------5---7-----------|
E|------------------------|------------------------|
  ^   ^   ^   ^   ^   ^    ^   ^   ^   ^   ^   ^ 

G|------------------------|------------------------|
D|9-----------9-------9---|----------------7---9---|
A|--------9---------9---9-|7-------9---10----------|
E|------------------------|------------------------|
  ^   ^   ^   ^   ^   ^    ^   ^   ^   ^   ^   ^ 

G|------------------------|------------------------|
D|10--10--10--9---9\------|----------------7---9---|
A|--------------------5---|7-------9---10----------|
E|------------------------|------------------------|
  ^   ^   ^   ^   ^   ^    ^   ^   ^   ^   ^   ^ 

G|------------------------|------------------------|
D|10----1210--9---9\--0---|2-----------------------|
A|------------------------|------------------------|
E|------------------------|------------------------|
  ^   ^   ^   ^   ^   ^    ^   ^   ^   ^   ^   ^ 

*The meter changes back to 4/4 with swung 8th notes.
G|--------------------------------||
D|--------------------------------||*The beginning section of the 
A|--------------------------------||song (at double bar) is repeated 
E|--------------------------------||with a little variation.
  ^(drum and piano fill)  ^    


Within You Without you

Only George Harrison and Neil Aspinall played on this track,
 George played the sitar and Neil Played the tabla. there is no real Bass tab
 to put to this song, however this song is in the key of C# (4th fret on the A string)
 if you did want to play along with this song you can try something like this:
      1        2         3
G|--6----|---6---|------6------6---|
D|--6----|-------|-----------------|
A|--4----|---4---|---4------4------|
E|-------|-------|-----------------|

Explanation:
1. with the first option you fret all three notes at once. then u strum from G-6
   to A-4 and let ring. I know it feels funny at first but if you follow along with 
   the song it can sound pretty cool.
2. option 2 is much like option 1, in option 2 you pluck both A-4 and G-6 at 
    the same time with your thumb and forefinger and let ring.
3. option 3 is self explanatory just let the notes ring for a little while.

Like i said earlier there is NO Bass Tab or Bass on this song, these Options are 
alternatives, so dont expect them to sound exact for the song.


When I'm Sixty-Four

G---------------------|-------------------------------------------|
D---------------------|-------------------------------------------|
A---4---4-------4---4-|-4---4---4---4---4-----6---6---6---1-2-3-4-|
E-----4---4-2-4---4---|---4---4---4---4---4-4---4---4---4---------|
                                          
G-------------------------------------|
D-------------------------------------|
A---4---4---4-----4---------6---4---4-|
E-----4---4---4-2---2-3-4-6---4---4---|

G-----------------------------------------------------------------|
D-----------------------------------------------------------------|
A-----------------------------------------------------3-3-3-3-3-3-|
E---6-6-6-6-6-6-6-6-4-4-4-4-6-6-6-6-6-6-6-6-6-6-6-6-1-------------|

G--------------------------------------------------------------------------|
D------------------------------------------------------------------------4-|
A------------------6-6-6-6-6-6-6-7-----------------4-4-4-4-----------3-6---|
E--6-6-6-6-6-6-6-6-----------------2-2-2-2-4-4-4-4---------4--4-4--4-------|

G----------------------------------------------------------------------|
D----------------------------------------------------------------------|
A---4---4---4-----6---6---6---1-2-3-4-4---4---4-----4---------6---4--4-|
E-----4---4---4-4---4---4---4-----------4---4---4-2---2-3-4-6---4---4--|

G-----------------------------------------------------------------|
D-----------------------------------------------------------------|
A-----------------------------------------------------3-3-3-3-3-3-|
E---6-6-6-6-6-6-6-6-4-4-4-4-6-6-6-6-6-6-6-6-6-6-6-6-1-------------|

G--------------------------------------------------------------------------|
D--8-8-8-8-8-8-8-8-------------------------------------------------------4-|
A------------------6-6-6-6-6-6-6-7-----------------4-4-4-4-----------3-6---|
E----------------------------------2-2-2-2-4-4-4-4---------4--4-4--4-------|

G-----------------------------------------------------------------------|
D-----------------------------------------------------------------------|
A---4---4---4-----6---6---6---1-2-3-4-4---4---4-----4---------6---4---4-|
E-----4---4---4-4---4---4---4-----------4---4---4-2---2-3-4-6---4---4---|

G---------------------|
D---------------------|
A---4---4-------4---4-|
E-----4---4-2-4---4---|


Lovely Rita

timeing  4/4

 tempo 88
|------------------------------------------|
|8-------------------------------6---------|
|------------------------------------------|
|------------------------------------------|


|------------------------------------------------|
|--------------------------------8---------------|
|6-----------------------------------------------|
|------------------------------------------------|


|----7-------10/7----10------10------5-------8/5-----5-------8----|
|8-------8-------8-------8-------6-------6-------6-------6--------|
|-----------------------------------------------------------------|
|-----------------------------------------------------------------|


|----------------------------------------------------------------|
|----5-------8/6---------5---6---8---8---8---8---8---8---8---7---|
|6-------6-------6---6-------------------------------------------|
|----------------------------------------------------------------|


|----------------------------------------------------------------|
|------------------------6---------------------------------------|
|6-------6-------4-----------6---6---6---5---------------5-------|
|--------------------------------------------8---6---8-------6---|


|----------------------------------------------------------------|
|--------------------------------8---8-----------8---8---6-------|
|----5---6-------8---6---5---------------6---8---------------8---|
|8-----------8---------------8-----------------------------------|


|----------------------------------------------------------------|
|----------------------------------------------------------------|
|6---4---3-----------3---6---3---4---2---1-----------1---4---1---|
|------------6---4---------------------------4---2---------------|


|----------------------------------------------------------------|
|--------5---6---8---8---8---8-----------------------------------|
|6---6---------------------------6---4-------------------6-------|
|----------------------------------------8---6---4---8-------8---|


|----------------------------------------------------------------|
|----3---6---3---4-----------------------5---6---8-------8-------|
|4-------------------6---4-------6---6---------------8-------8---|
|----------------------------6-----------------------------------|


|------------------------------------3-------3-------------------|
|------------------------8---8-----------------------6---6-------|
|6---6-----------8---8-----------6-------6-------4-----------6---|
|--------8---8---------------------------------------------------|


|----------------------------------------------------------------|
|--------5---6---8-------8---------------------------------------|
|6---6---------------8-------8-------5---6-------8---6---5-------|
|--------------------------------8-----------8---------------8---|


|----------------------------------------------------------------|
|8---8-----------8---8---8-------8---8---8---8---8-------8-------|
|------------8---------------8-------------------------------8---|
|--------10------------------------------------------------------|


|----------------------------------------------------------------|
|8---8---8---8---8-------8-------8-------------------------------|
|----------------------------8-----------------------------------|
|----------------------------------------------------------------|


|------------3---------------------------------------------------|
|--------------------6---6-----------5---6---7---8---5-----------|
|6---6---6-------4-----------6---6-----------------------8---5---|
|----------------------------------------------------------------|


|----------------------------------------------------------------|
|----------------3---------------8-------8-------8-------6/8-----|
|3---5---6---3-------6---5---3-------8-------8-------8-------8---|
|----------------------------------------------------------------|


|----------------------------------------------------------------|
|----------------------------------------------------------------|
|6---6---5-3---------3---6---3---4---2---1-----------1---4---1---|
|------------6---4---------------------------4---2---------------|


|----------------------------------------------------------------|
|--------5-------8-------------------5---8---7---6---------------|
|6---6-------6-------5---8---5---6-------------------8---6-------|
|------------------------------------------------------------8---|


|----------------------------------------------------------------|
|--------------------------------1---1---0-----------------------|
|4---2---1-----------1---4---1---------------3---1---1---3---1---|
|------------4---2-----------------------------------------------|


|------------------------3---------------------------------------|
|----------------3-----------------------------------6---6-------|
|6---5---3---5-------------------6-------6-------4-----------3---|
|----------------------------------------------------------------|


|----------------------------------------------------------------|
|--------5---6---8---8---8---8-----------------------------------|
|6---6-------------------------------5---6-------8---6---5-------|
|--------------------------------8-----------8---------------8---|


|----------------------------------------------------------------|
|8---------------8---8---8-------6---6---6-------6---6---6-------|
|----5---8---5---------------8---------------6---------------6---|
|----------------------------------------------------------------|


|----------------------------------------------------------------|
|------------8-------8-------8---8---8---8---8---8---8---8-------|
|6---6---6-------6-------6-----------------------------------8---|
|----------------------------------------------------------------|


|----7-------10------7-------10------5-------8-------5-------8---|
|8-------8-------8-------8-------6-------6-------6-------6-------|
|----------------------------------------------------------------|
|----------------------------------------------------------------|


|-----------------------------------------------------------------|
|----5-------6h8---------5---6---8---8---8---8---8---8---8--------|
|6-------6-------6---6---------------------------------------10/8-|
|-----------------------------------------------------------------|


|------------5p3-----------------------------5p3-----------------|
|6p5-------------6---6p5---------6p5-------------6---6p5---------|
|----6-------------------6-----------6-------------------6-------|
|----------------------------------------------------------------|


|------------5p3-----------------------------5p3-----------------|
|6p5-------------6---6p5---------6p5-------------6---6p5---------|
|----6-------------------6-----------6-------------------6-------|
|----------------------------------------------------------------|


|------------5p3-----------------------------5p3-----------------|
|6p5-------------6---6p5---------6p5-------------6---6p5---------|
|----6-------------------6-----------6-------------------6-------|
|----------------------------------------------------------------|


|------------5p3-----------------------------5p3-----------------|
|6p5-------------6---6p5---------6p5-------------6---6p5---------|
|----6-------------------6-----------6-------------------6-------|
|----------------------------------------------------------------|


|--------------------------------------------------------8---7---|
|6---6---6---6---6---6---6---6---6---6---6---6---6---6-----------|
|----------------------------------------------------------------|
|----------------------------------------------------------------|


|6-------------------------------|
|----------------6---------------|
|--------------------------------|
|--------------------------------|

Good Morning Good Morning 

Intro
  Q=120
 4/4
  Gtr I
   E S S E S S E E E S S   E S S E S S E S S E S S
|------------------------|-------------------------|
|------------------------|-------------------------|
|-12-x-x-x-x-x-5---------|-------------5-x-x-5-x-x-|
|------------------5-5-5-|-5-x-x-5-x-x-------------|


  E S S E S S E S S E S S   E E +Q   +H
|-------------------------|-----------------|
|-------------------------|-----------------|
|-------------5-x-x-5-x-x-|-----------------|
|-5-x-x-5-x-x-------------|-5-0-(0)--(0)----|


   1st & 3rd Verses
   5/4
    Q.   E +E  E E E E E   E E E E E E Q  Q
||-----------------------|-------------------|
||o-7------------5---5---|-5---5---5---7-----|
||o------7-(7)-5---5---5-|---5---5---5----7--|
||-----------------------|-------------------|


                         3/4
  E E E E +E  E E E E E   E E E E E E
|-----------------------|--------------|
|-7---------------------|--------------|
|---4-5-7-(7)-5---5---5-|---5---5---5--|
|---------------3---3---|-3---3---3----|


                                          Chorus
 4/4               5/4                    4/4                3/4
  E E E E E E E E   E E E E E E E E E E    E E E E E  E E E   E E E E +E  E
|-----------------|---------------------||------------------|----------------|
|-----------------|---------------------||------------------|----------------|
|-------------4---|-5---5---5---5---5---||-7-7-7-7-7\-------|---4-5-7-(7)-5--|
|-5-5-5-5-5-7---7-|---5---5---5---5---5-||------------2-4-0-|-5--------------|


                                                2nd Verse
                                 1.
               4/4                              5/4
  E E E E E E   E E E E E E E E   E E Q  H       E E E E +E  E E E E E
|-------------|-----------------|-------------||------------------------|
|-------------|-----------------|-------------||------------------------|
|---5---5---5-|-------4-5-5-5---|-------------||---4-5-7-(7)---5---5----|
|-3---3---3---|-5-5-5---------5-|-5-----------||-5-----------5---3---3--|


                                             3/4           4/4
                                                               |3|    |3|
  E E E E E E Q  Q    E E E E +E  E E E E E   E E E E E E   Q  Q E Q  Q E
|-------------------|-2-2-0-----------------|-------------|----------------||
|----------------2--|-------2-(2)-----------|-------------|----------------||
|-5---5---5---0-----|-------------0---5---5-|---5---5---5-|------4-5--5----||
|---3---3---3-------|---------------3---3---|-3---3---3---|-5--5--------3--||


 Bridge
     |3|    |3|      |3|    |3|      |3|    |3|
  Q  Q E Q  Q E   Q  Q E Q  Q E   Q  Q E Q  Q E
|---------------|---------------|---------------|
|-----------4-7-|-----------4-7-|-----------4-7-|
|------4-5------|------4-5------|------4-5------|
|-5--5----------|-5--5----------|-5--5----------|


                                    2.
     |3|    |3|
  Q  Q E Q  Q E   E E Q  E E E E     E E Q  H
|---------------|-----------------||-------------||
|-----------4-7-|----------------o||-------------||
|------4-5------|----------------o||-------------||
|-5--5----------|-5------0-3-5-0--||-5-----------||


 Guitar Solo
 5/4
  E E E E +Q   E E E E   E E E E E E Q  Q
|----------------------|-------------------|
|----------------------|-------------------|
|---4-5-7-(7)----5---5-|---5---5---5----7--|
|-5------------3---3---|-3---3---3---5-----|


                                                            Bridge
                         3/4           4/4
                                                                |3|    |3|
  E E E E +E  E E E E E   E E E E E E   E S S E E E E E E    Q  Q E Q  Q E
|-----------------------|-------------|-------------------||---------------|
|-7-7-5---------5---5---|-5---5---5-7-|-7-7-7-7-7-7-------||---------------|
|-------7-(7)-----5---5-|---5---5-----|-------------------||------4-5--5---|
|-------------5---------|-------------|-------------5-5-5-||-5--5--------5-|


     |3|    |3|      |3|    |3|      |3|    |3|
  Q  Q E Q  Q E   Q  Q E Q  Q E   Q  Q E Q  Q E
|---------------|---------------|---------------|
|---------------|---------------|-----------4-7-|
|------4-5--5---|------4-5--5---|------4-5------|
|-5--5--------5-|-5--5--------5-|-5--5----------|


                   4th Verse
                   5/4
  E E Q  E E E E    E E E E +E  E E E E E   E E E E E E Q  Q
|----------------||-----------------------|-------------------|
|----------------||-----------------------|-------------------|
|----------------||---4-5-7-(7)-----5---5-|---5---5---5----7--|
|-5------0-3-5-0-||-5-----------0-3---3---|-3---3---3---5-----|


                         3/4           4/4              5/4
  E E E E +E  E E E E E   E E E E E E   Q  E E E E E E   E E E E E E E E E E
|-----------------------|-------------|----------------|---------------------|
|-7-7-5---------5---5---|-5---5---5---|-7--------------|---------------------|
|-------7-(7)-5---5---5-|---5---5---5-|------------4---|-5---5---5---5---5---|
|-----------------------|-------------|----5-5-5-7---5-|---5---5---5---5---5-|


                                                       Outro
 4/4                   3/4                             4/4
  E S S S S E E E E E   E E E E +E  E   E E E E E E     E S S E E E S S E E
|---------------------|---------------|-------------||----------------------|
|---------------------|---------------|-------------||o---------------------|
|-7-7-7-7-7-7---------|---4-5-7-(7)---|---5---5---5-||o---------4-5-5-5-5---|
|-------------0-2-4-0-|-5-----------5-|-3---3---3---||--5-5-5-5-----------3-|


  Q  Q  Q  E E   E S S E E E S S E E   Q  Q  Q  E E  3x
|--------------|---------------------|---------------||
|--------------|---------------------|--------------o||
|--------------|---------4-5-5-5-5---|--------------o||
|-5----------3-|-5-5-5-5-----------3-|-5----------3--||



Sgt. Pepper's Lonely Hearts CLub Band (Reprise)

Now the Reprise uses the same notes as the first song, but the tempo is much faster just 
play theses notes in rhythm with the song

Intro: 
G|------------------------|    
D|------------------------|    
A|------------------------| x2 
E|-5—-5—-5—-5--5--5--5--5-|

G|------------------------|
D|------------------------|
A|3--3--3--3--3--3--3--3--|
E|-----------------------3|

Verse:
G|------------------------|------------------------|
D|------------------------|------------------------|
A|------------------------|-3--3--3----------------| x2
E|-3--3--3----5--5--5-----|------------3--3--3-----|

G|------------------------|------------------------|
D|------------------------|------------------------|
A|------------------------|-3--3--3--3--3--3--3—-3-|
E|-5--5--5--5--5--5--5--5-|------------------------|
  
G|------------------------|------------------------|
D|------------------------|------------------------|
A|-------2--2--3--3--4--5-|-------2--2--5--5--2--2-|
E|-3--3-------------------|-3--3-------------------|

G|------------------------|------------------------|------------------------|
D|------------------------|-3--3--0--0-------------|------------------------|
A|-3--3-------------------|-------------3--3--0--0-|-3--3--3--3--3--3--3--3-|
E|-------6--6--5--5—-3--3-|------------------------|------------------------|

G|------------------------|------------------------|
D|------------------------|------------------------|
A|-5-----5-----5-----5----|-5-----5-----5----------|
E|----5-----5-----5-----5-|----5-----5-------------|

Chorus:
G|------------------------|------------------------|-----------------------|
D|------------------------|------------------------|-----------------------|
A|------------------------|-3--3-------------------|-3--3------------------|
E|---3--3------6--6-------|-----------3--3---------|-------6--6--5—5--3--3-|

G|------------------------|------------------------|-----------------------|
D|------------------------|------------------------|-----------------------|
A|------------------------|------------------------|-3--3------------------|
E|-3--3--3--3--3--3--3--0-|-3--3------6--6---------|-----------3--3--------|

G|------------------------|------------------------|
D|------------------------|------------------------|
A|------------------------|-5----------------------|
E|-5--5--5--0--5--5--5—-0-|------------------------|

Bridge:
G|------------------------|------------------------|
D|------------------------|------------------------|
A|-3--3--3-----3--3--3----|----------5-------------|
E|----------3-----------3-|-3--3--3-----3--3--3—-4-|

G|------------------------|------------------------|
D|------------------------|------------------------|
A|----------------------3-|---5---------5----------|
E|-5--5--5--5--5--5--5----|--------3-------3—------|

G|------------------------|------------------------|------------------------|
D|------------------------|------------------------|------------------------|
A|-3--3-------------------|-------0--0--3--3--0----|-3--3-------------------|
E|-------6--6--5--5--3--3-|-1--1-----------------3-|-------6--6--5--5--3--3-|

G|------------------------|------------------------|
D|------------------------|------------------------|
A|-5-----5-----5----------|-5-----5-----5----------|
E|----5-----5-----5--2--5-|----5-----5-------------|

Verse:
G|------------------------|------------------------|
D|------------------------|------------------------|
A|------------------------|-3--3--3----------------| x2
E|-3--3--3----5--5--5-----|------------3--3--3-----|

G|------------------------|------------------------|
D|------------------------|------------------------|
A|------------------------|------------------------|
E|-5--5--5--5--5--5--5--5-|-8--8--8--8--8—-8--8----|
  
G|------------------------|------------------------|
D|------------------------|------------------------|
A|-------2--2--3--3--4--5-|-------2--2--5--5--2--2-|
E|-3--3-------------------|-3--3-------------------|

Outro:
G|------------------------|------------------------|
D|------------------------|------------------------|
A|-3--3-------------------|-3--3-------------------|
E|-------6--6--5--5--3--3-|-------6--6--5--5--3--3-|

Into:

A Day in the Life (Considered the best song ever written...)

*The bass part begins with two measures of rest.  
The entrance of the bass part is a little tricky begin when playing along with the recording 


G|--------------------------------|--------------------------------|
D|--------------------------------|----------------------5-----5---|
A|----3---3---3-------3---3-------|----3---3---3-------------5---5-|
E|--------------------------------|--------------------------------|
  ^       ^       ^       ^        ^       ^       ^       ^       


G|--------------------------------|--------------------------------|
D|5-------5---5-0-4---4---4---4-0-|2---2---2---2-0-2---0-----------|
A|--------------------------------|----------------------0-----2---|
E|--------------------------------|--------------------------------|
  ^       ^       ^       ^        ^       ^       ^       ^       


G|--------------------------------|--------------------------------|
D|--------------------------------|--------------------------------|
A|3-------3-------2-------2-------|0---0---0-----------------------|
E|--------------------------------|--------------------0-------2---|
  ^       ^       ^       ^        ^       ^       ^       ^       


G|--------------------------------|--------------------------------|
D|----------------------------0---|2-----------0-------------------|
A|------------0---2-------2-------|--------------------0-------2---|
E|3-------3-----------------------|--------------------------------|
  ^       ^       ^       ^        ^       ^       ^       ^       


G|--------------------------------|--------------------------------|
D|------------2---3-------3-------|2-------2-------0-------0-------|
A|3-------------------------------|--------------------------------|
E|--------------------------------|--------------------------------|
  ^       ^       ^       ^        ^       ^       ^       ^       


G|--------------------------------|--------------------------------|
D|------------2---3-------3-----0-|2---2---2-----0-----------------|
A|3-------3-----------------------|----------------3---3---3---5---|
E|--------------------------------|--------------------------------|
  ^       ^       ^       ^        ^       ^       ^       ^       


G|--------------------------------|--------------------------------|
D|----5---5---5-0-4---4---4---4---|2---2---2---2---2---2---0---0---|
A|--------------------------------|--------------------------------|
E|3-------------------------------|--------------------------------|
  ^       ^       ^       ^        ^       ^       ^       ^       


G|--------------------------------|--------------------------------|
D|--------------------------------|--------------------------------|
A|3---3---3---3---2---2---2---2---|0---0---0-----------------------|
E|--------------------------------|--------------------0-------2---|
  ^       ^       ^       ^        ^       ^       ^       ^       


G|--------------------------------|--------------------------------|
D|----------------------------0---|2-------2---2-------------------|
A|------------0---2-------2-------|----------------0---0---0---0---|
E|3-------3-----------------------|--------------------------------|
  ^       ^       ^       ^        ^       ^       ^       ^       


G|--------------------------------|--------------------------------|
D|------------2---3-------3---3---|2---2---2---2---0---0---0---0---|
A|3---3---3-----------------------|--------------------------------|
E|--------------------------------|--------------------------------|
  ^       ^       ^       ^        ^       ^       ^       ^       


G|--------------------------------|--------------------------------|
D|--------------------------------|--------------------------------|
A|3---3---3---3---3---3---3---3---|--------------------------------|
E|--------------------------------|3---3---3-------2---2---2-------|
  ^       ^       ^       ^        ^       ^       ^       ^       


G|--------------------------------|--------------------------------|
D|--------------------------------|--------------------------------|
A|----------------5---5---5---4---|3-------3-------2-------2-------|
E|0---0---0-----------------------|--------------------------------|
  ^       ^       ^       ^        ^       ^       ^       ^       


G|--------------------------------|--------------------------------|
D|--------------------------------|--------------------------------|
A|0---0---0-----------------------|--------------------------------|
|--------------------0-------2---|3-------3---3---2---2---2---2---|
  ^       ^       ^       ^        ^       ^       ^       ^       


G|--------------------------------|--------------------------------|
D|--------------------------------|--------------------------------|
A|----------------5---5---5---4---|3---3---3-----------------------|
E|0-----0-0---0-------------------|------------0---1---1---1---1---|
  ^       ^       ^       ^        ^       ^       ^       ^       


G|--------------------------------|--------------------------------|
D|--------------------------------|--------------------------------|
A|----------------5---5---5---5---|3---3---3---3---3---3---3---3---|
E|0---0---0---0-------------------|--------------------------------|
  ^       ^       ^       ^        ^       ^       ^       ^       


G|--------------------------------|--------------------------------|
D|--------------------------------|--------------------------------|
A|3---3---3---3-------------------|----------------0---0---0---0---|
E|----------------2---2---2---2---|3---3---3---3-------------------|
  ^       ^       ^       ^        ^       ^       ^       ^       


G|--------------------------------|--------------------------------|
D|--------------------------------|--------------------------------|
A|2---2---2---2---4---4---4---4---|5---5---5---5---7---7---7---7---|
E|--------------------------------|--------------------------------|
  ^       ^       ^       ^        ^       ^       ^       ^       
*Continue playing the E onthe 7th fret until the Orchestral swell ends
*This continues where Paul's vocals come in with "Woke up, fell out of bed"
*the 16th notes are swung like triplets.

G|--------------------------------|----------------------------7---|
D|--------------------------------|----------------------7---------|
A|7---7---7---7---7---7---7---7---|7---7---7---7---5---------------|
E|------------------------------7-|--------------------------------|
  ^       ^       ^       ^        ^       ^       ^       ^       


G|--------------------------------|--------------------------------|
D|--7---------7-------------------|--------------------------------|
A|--------5-------7---6---4---2---|2---2---2---2---7---6---4---2---|
E|--------------------------------|--------------------------------|
  ^       ^       ^       ^        ^       ^       ^       ^       


G|--------------------------------|--------------------------------|
D|--------------------------------|--------------------------------|
A|2-2-2-0-2-2-2-0-2-0-2-0-2-0-2-0-|7---6---4---2---7---6---4---2---|
E|--------------------------------|--------------------------------|
  ^       ^       ^       ^        ^       ^       ^       ^       


G|--------------------------------|--------------------------------|
D|----------------------------7---|------7-7-------7-7-7-7-7-7-7-7-|
A|7---6---4---2---5-------5-------|--------------------------------|
E|--------------------------------|--------------------------------|
  ^       ^       ^       ^        ^       ^       ^       ^       


G|--------------------------------|--------------------------------|
D|------------------------2---4---|--------------------------------|
A|7---6---4---2---2---2-2---------|7---6---4---2---2---2---2---2---|
E|--------------------------------|--------------------------------|
  ^       ^       ^       ^        ^       ^       ^       ^       


G|------------0---5---5---0-------|--------------------------------|
D|--------2-------------------2---|5---5---2---0---5---5---2---0---|
A|3---3---------------------------|--------------------------------|
E|--------------------------------|--------------------------------|
  ^       ^       ^       ^        ^       ^       ^       ^       


G|----------------7---7-----------|--------------------------------|
D|--------4---7-----------7---4---|7---7---4-------7---7-4---4-----|
A|5---5---------------------------|----------------------------7---|
E|--------------------------------|--------------------------------|
  ^       ^       ^       ^        ^       ^       ^       ^       


G|--------------------------------|------------0---5---5---5---5---|
D|--------------------------------|--------2-----------------------|
A|7---7---7---7---7---7---5---5---|3---3---------------------------|
E|--------------------------------|--------------------------------|
  ^       ^       ^       ^        ^       ^       ^       ^       


G|--------------------------------|----------------7---7---7-------|
D|5---5---5-----------------------|------------4-7-------------7---|
A|------------7---5---5---5---0---|5---5---5-----------------------|
E|--------------------------------|--------------------------------|
  ^       ^       ^       ^        ^       ^       ^       ^       


G|--------------------------------|--------------------------------|
D|7---7---4-------7---7---4-------|--------------------------------|
A|------------7---------------7---|7---7---7---5---3---3---3---5---|
E|--------------------------------|--------------------------------|
  ^       ^       ^       ^        ^       ^       ^       ^       


G|--------------------------------|--------------------------------|
D|5---5---5---5-0-4---4---4---4-0-|2---2---2---2---0---0---0---0---|
A|--------------------------------|--------------------------------|
E|--------------------------------|--------------------------------|
  ^       ^       ^       ^        ^       ^       ^       ^       


G|--------------------------------|--------------------------------|
D|--------------------------------|--------------------------------|
A|3-------3-------2-------2-------|0-----------0-------------------|
E|--------------------------------|--------------------0-------2---|
  ^       ^       ^       ^        ^       ^       ^       ^       


G|--------------------------------|--------------------------------|
D|--------------------------------|--------------------------------|
A|--------------------------------|----------------5---5---5---4---|
E|3-------3-------2-------2-------|0---0---0-----------------------|
  ^       ^       ^       ^        ^       ^       ^       ^       


G|--------------------------------|--------------------------------|
D|--------------------------------|--------------------------------|
A|3---3---3-----------------------|----------------5---5---5---4---|
E|------------0---1-------1-------|0---0---0---0-------------------|
  ^       ^       ^       ^        ^       ^       ^       ^       


G|--------------------------------|--------------------------------|
D|--------------------------------|--------------------------------|
A|3---3---3---3---3---3---3---3---|3---3---3---3-------------------|
E|--------------------------------|----------------2---2---2---2---|
  ^       ^       ^       ^        ^       ^       ^       ^       


G|--------------------------------|--------------------------------|
D|--------------------------------|--------------------------------|
A|----------------0---0---0---0---|2---2---2---2---4---4---4---4---|
E|3---3---3---3-------------------|--------------------------------|
  ^       ^       ^       ^        ^       ^       ^       ^       


G|--------------------------------|--------------------------------||
D|--------------------------------|--------------------------------||
A|5---5---5---5---7---7---7---7---|7---7---7---7---7---7---7---7---||
E|--------------------------------|--------------------------------||
  ^       ^       ^       ^        ^       ^       ^       ^       
 
*At this point the 2nd orchestral swell enters and the bass parts fades out.







…make sure you listen to the ENTIRE song…
I want to post or [tab]
guest
You may want to rate the tab now too:
select rating
Please do not post tabs as comments. Select "correction" instead!