Oops, an error
Loading. Please wait.

While My Guitar Gently Weeps Tab

ver2
ver2

Solo

Whole song

More versions @911Tabs.com
587,970 views 665 this week
9 commentsread comments
1 2 3 4 5
excellent!
x 77
add to favorites launch autoscroll
font size
0
reset
Autoscroll
+/-
esc
set tempo
stop
Contributor
WARNING: You are trying to view
                                    content from Ultimate-Guitar.com
                                    in an unauthorized application,
                                    which is prohibited.

                                    Please use an official Ultimate
                                    Guitar Tabs application for iPhone,
                                    iPad or Android to access legitimate
                                    chords, guitar, bass, and drum tabs
                                    from Ultimate-Guitar.com database.

                                    Type "ultimate guitar tabs" in Apple
                                    App Store's or Android Market's
                                    search to find the application.
----------------------------------------------------------------------


  THE BEATLES - WHILE MY GUITAR GENTLY WEEPS (Harrison) From THE WHITE
                ALBUM. Released on 22nd November 1968.


----------------------------------------------------------------------

  Tabbed by:PJVillanueva





I look at you all see the love there that's sleeping
While my guitar gently weeps
I look at the floor and I see it needs sweeping
Still my guitar gently weeps

I don't know why nobody told you
How to unfold your love
I don't know how someone controlled you
They bought and sold you

I look at the world and I notice it's turning
While my guitar gently weeps
With every mistake we must surely be learning
Still my guitar gently weeps

I don't know how you were diverted
You were perverted too
I don't know how you were inverted
No one alerted you

I look at you all see the love there that's sleeping
While my guitar gently weeps
I look at you all
Still my guitar gently weeps





  
e|5-----5 5-----5 5-----5 5-----5|5-----5 5-----5 5-5-5-- --5-5--|
B|-------------------------------|-------------------------------|
G|-------------------------------|-------------------------------|
D|-------------------------------|-------------------------------|
A|-------------------------------|-------------------------------|
E|-------------------------------|-------------------------------|
  Am                              Am7
e|0------ 0------ 0---0-- 0---0--|0------ 0------ 0---0-- 0------|
B|1-------1-------1---1---1---1--|1-------1-------1---1---1------|
G|2-------2-------2---2---2---2--|2-------2-------2---2---2------|
D|2-------2-------2---2---2---2--|2-------2-------2---2---2------|
A|0-------0-------0---0---0---0--|-------------------------------|
E|-------------------------------|3-------3-------3---3---3------|



  
  
e|5-----5 5-----5 5---7-- --8----|10----- ------- ------- 8--10--|
B|-------------------------------|-------------------------------|
G|-------------------------------|-------------------------------|
D|-------------------------------|-------------------------------|
A|-------------------------------|-------------------------------|
E|-------------------------------|-------------------------------|
  D9                              F
e|0------ 0------ 0------ 0---0--|1------ 1------ 1---1-- 1---1--|
B|1-------1-------1-------1---1--|1-------1-------1---1---1---1--|
G|2-------2-------2-------2---2--|2-------2-------2---2---2---2--|
D|0-------0-------0-------0---0--|3-------3-------3---3---3---3--|
A|0-------0-------0-------0---0--|3-------3-------3---3---3---3--|
E|2-------2-------2-------2---2--|1-------1-------1---1---1---1--|





e|12----- ------- ------- -------|10----- ------- ------- -------|
B|------------13-----------------|------------12-----------------|
G|------------------------14-----|------------------------12-----|
D|-------------------------------|-------------------------------|
A|-------------------------------|-------------------------------|
E|-------------------------------|-------------------------------|
  Am                              G
e|0------ 0------ 0---0-- 0---0--|3------ 3------ 3---3-- 3---3--|
B|1-------1-------1---1---1---1--|3-------3-------3---3---3---3--|
G|2-------2-------2---2---2---2--|0-------0-------0---0---0---0--|
D|2-------2-------2---2---2---2--|0-------0-------0---0---0---0--|
A|0-------0-------0---0---0---0--|2-------2-------2---2---2---2--|
E|-------------------------------|3-------3-------3---3---3---3--|





e|10----- ------- ------- -------|------- ------- ------- -------|
B|------------10-----------------|-------------------------------|
G|------------------------11-----|-------------------------------|
D|-------------------------------|-------------------------------|
A|-------------------------------|-------------------------------|
E|-------------------------------|-------------------------------|
  D                               E                       
e|2------ 2------ 2---2-- 2---2--|0------ 0------ 0---0-- 0------|
B|3-------3-------3---3---3---3--|0-------0-------0---0---0------|
G|2-------2-------2---2---2---2--|1-------1-------1---1---1------|
D|0-------0-------0---0---0---0--|2-------2-------2---2---2------|
A|-------------------------------|2-------2-------2---2---2------|
E|-------------------------------|0-------0-------0---0---0------|
                                                          I   look
e|------- ------- ------- -------|----0-- ------- ------- 4------|
B|-------------------------------|-------------------------------|
G|-------------------------------|------------2----/----4--------|
D|-------------------------------|-------------------------------|
A|-------------------------------|-------------------------------|
E|-------------------------------|0------------------------------|




  Am                              Am7
e|0------ 0------ 0------ 0------|0------ 0------ 0---0-- 0------|
B|1-------1-------1-------1------|1-------1-------1---1---1------|
G|2-------2-------2-------2------|2-------2-------2---2---2------|
D|2-------2-------2-------2------|2-------2-------2---2---2------|
A|0-------0-------0-------0------|-------------------------------|
E|-------------------------------|3-------3-------3---3---3------|
                  at you      all                 see the     love 
e|------- ------- ------- -------|------- ------- ------- -------|
B|-------------------------------|-------------------------------|
G|-------------------------------|------------9------------------|
D|7---------------7-------7------|-------------------------------|
A|-------------------------------|-------------------------------|
E|-------------------------------|-------------------------------|




  D9                              F
e|0------ 0------ 0------ 0------|1------ 1------ 1---1-- 1---1--|
B|1-------1-------1-------1------|1-------1-------1---1---1---1--|
G|2-------2-------2-------2------|2-------2-------2---2---2---2--|
D|0-------0-------0-------0------|3-------3-------3---3---3---3--|
A|0-------0-------0-------0------|3-------3-------3---3---3---3--|
E|2-------2-------2-------2------|1-------1-------1---1---1---1--|
          there           that's  sleeping
e|------- ------- ------- -------|------- ------- ------- -------|
B|-------------------------------|-------------------------------|
G|-------------------------------|-------------------------------|
D|-------------------------------|-------------------------------|
A|-------------------------------|------------7-------7----------|
E|-------------------------------|-------------------------------|




  Am                              G
e|0------ 0------ 0------ 0------|3------ 3------ 3------ 3------|
B|1-------1-------1-------1------|3-------3-------3-------3------|
G|2-------2-------2-------2------|0-------0-------0-------0------|
D|2-------2-------2-------2------|0-------0-------0-------0------|
A|0-------0-------0-------0------|2-------2-------2-------2------|
E|-------------------------------|3-------3-------3-------3------|
          While   my      guitar              gently          weeps
e|------- ------- ------- -------|------- ------- ------- -------|
B|-------------------------------|-------------------------------|
G|-------------------------------|-------------------------------|
D|7------------------------------|------------5------------------|
A|-------------------------------|-------------------------------|
E|-------------------------------|-------------------------------|




  D                               E
e|2------ 2------ 2------ 2---2--|0------ 0---0-- ----0-- 0------|
B|3-------3-------3-------3---3--|0-------0---0-------0---0------|
G|2-------2-------2-------2---2--|1-------1---1-------1---1------|
D|0-------0-------0-------0---0--|2-------2---2-------2---2------|
A|-------------------------------|2-------2---2-------2---2------|
E|-------------------------------|0-------0---0-------0---0------|
                                                          I   look
e|------- ------- ------- -------|------- ------- ------- -------|
B|----------------13--13--13R10--|9---9---10-\9------------------|
G|-------------------------------|----------------9-------9------|
D|-------------------------------|-------------------------------|
A|5------------------------------|-------------------------------|
E|-------------------------------|-------------------------------|




  Am                              Am7
e|0------ 0------ 0------ 0---0--|0------ 0------ 0------ 0------|
B|1-------1-------1-------1---1--|1-------1-------1-------1------|
G|2-------2-------2-------2---2--|2-------2-------2-------2------|
D|2-------2-------2-------2---2--|2-------2-------2-------2------|
A|0-------0-------0-------0---0--|-------------------------------|
E|-------------------------------|3-------3-------3-------3------|
                  at  the     floor               and I       see                
e|------- ------- ------- -------|------- ------- ------- -------|
B|-------------------------------|-------------------------------|
G|-------------------------------|-------------------------------|
D|7---------------7--------------|--------7---------------5------|
A|-------------------------------|-------------------------------|
E|-------------------------------|-------------------------------|




  D9                              F
e|0------ 0------ ------- 0------|1------ 1---1-- 1---1-- 1---1--|
B|1-------1---------------1------|1-------1---1---1---1---1---1--|
G|2-------2---------------2------|2-------2---2---2---2---2---2--|
D|0-------0---------------0------|3-------3---3---3---3---3---3--|
A|0-------0---------------0------|3-------3---3---3---3---3---3--|
E|2-------2---------------2------|1-------1---1---1---1---1---1--|
              it      needs   sweeping 
e|------- 0------ ------- -------|------- ------- ------- -------|
B|-------------------------------|-------------------------------|
G|-------------------------------|-------------------------------|
D|7---------------7--------------|----------------7-------7------|
A|-------------------------------|-------------------------------|
E|-------------------------------|-------------------------------|




  Am                              G
e|0------ 0------ ------- 0------|3------ 3------ 3------ 3------|
B|1-------1---------------1------|3-------3-------3-------3------|
G|2-------2---------------2------|0-------0-------0-------0------|
D|2-------2---------------2------|0-------0-------0-------0------|
A|0-------0---------------0------|2-------2-------2-------2------|
E|-------------------------------|3-------3-------3-------3------|
          Still   my      guitar              gently          weeps
e|------- ------- ------- -------|------- ------- ------- -------|
B|-------------------------------|-------------------------------|
G|-------------------------------|-------------------------------|
D|7-------------------7----------|5------------------------------|
A|-------------------------------|-------------------------------|
E|-------------------------------|-------------------------------|




  C                               E
e|0------ 0------ 0---0-- 0---0--|0------ 0------ 0------ 0------|
B|1-------1-------1---1---1---1--|0-------0-------0-------0------|
G|0-------0-------0---0---0---0--|1-------1-------1-------1------|
D|2-------2-------2---2---2---2--|2-------2-------2-------2------|
A|3-------3-------3---3---3---3--|2-------2-------2-------2------|
E|3-------3-------3---3---3---3--|0-------0-------0-------0------|

e|------- ------- ------- -------|------- ----5-- ------- -------|
B|-------------------------------|--------------------8----------|
G|--------7B9-----------------R--|7-B-9-------------------7B9R7--|
D|-------------------------------|-------------------------------|
A|-------------------------------|-------------------------------|
E|-------------------------------|-------------------------------|



  A                               Dbm
e|0------ 0------ 0------ 0------|4------ ----4-- 4---4-- 4------|
B|2-------2-------2-------2------|5-----------5---5---5---5------|
G|2-------2-------2-------2------|6-----------6---6---6---6------|
D|2-------2-------2-------2------|6-----------6---6---6---6------|
A|0-------0-------0-------0------|4-----------4---4---4---4------|
E|-------------------------------|-------------------------------|
              I   don't   know    why
e|12----- ------- ------- -------|12----- ------- ------- -------|
B|14-----------------------------|14-----------------------------|
G|14-----------------------------|13-----------------------------|
D|-------------------------------|-------------------------------|
A|-------------------------------|-------------------------------|
E|-------------------------------|-------------------------------|

e|------- ------- ------- -------|------- ------- ------- -------|
B|-------------------------------|-------------------------------|
G|5--B--6------------------------|-------------------------------|
D|-------------------------------|-------------------------------|
A|-------------------------------|-------------------------------|
E|-------------------------------|-------------------------------|




  F#m                             Dbm
e|2------ 2------ 2------ 2------|4------ 4---4-- ----4-- 4------|
B|2-------2-------2-------2------|5-------5---5-------5---5------|
G|2-------2-------2-------2------|6-------6---6-------6---6------|
D|4-------4-------4-------4------|6-------6---6-------6---6------|
A|4-------4-------4-------4------|4-------4---4-------4---4------|
E|2-------2-------2-------2------|-------------------------------|
              nobody          told    you
e|-9----- ------- ------- -------|12----- ------- ------- -------|
B|10-----------------------------|14-----------------------------|
G|11-----------------------------|13-----------------------------|
D|-------------------------------|-------------------------------|
A|-------------------------------|-------------------------------|
E|-------------------------------|-------------------------------|

e|------- ------- ------- -------|------- ------- ------- -------|
B|-------------------------------|-------------------------------|
G|-------------------------------|------------------------4------|
D|----------------7--------------|----6-----------6--------------|
A|-------------------------------|-------------------------------|
E|-------------------------------|-------------------------------|




  Bm                                
e|2------ 2---2-- ------- 2------|2---2-- ----2-- 2---2-- ----2--|
B|3-------3---3-----------3------|3---3-------3---3---3-------3--|
G|4-------4---4-----------4------|4---4-------4---4---4-------4--|
D|4-------4---4-----------4------|4---4-------4---4---4-------4--|
A|2-------2---2-----------2------|2---2-------2---2---2-------2--|
E|-------------------------------|-------------------------------|
              how     to  unfold                      your    love
e|10----- ------- ------- -------|------- ------- ------- -------|
B|12-----------------------------|-------------------------------|
G|11-----------------------------|-------------------------------|
D|-------------------------------|-------------------------------|
A|-------------------------------|-------------------------------|
E|-------------------------------|-------------------------------|

e|------- ------- 2------ -------|------- 2------ ------- -------|
B|--------3----------------------|----------------3--------------|
G|4------------------------------|4-----------------------4------|
D|------------------------4------|-------------------------------|
A|-------------------------------|-------------------------------|
E|-------------------------------|-------------------------------|




  E
e|0------ 0------ 0------ 0------|0------ 0------ 0---0-- 0---0--|
B|0-------0-------0-------0------|0-------0-------0---0---0---0--|
G|1-------1-------1-------1------|1-------1-------1---1---1---1--|
D|2-------2-------2-------2------|2-------2-------2---2---2---2--|
A|2-------2-------2-------2------|2-------2-------2---2---2---2--|
E|0-------0-------0-------0------|0-------0-------0---0---0---0--|

e|12----- ------- ------- -------|------- ------- ------- -------|
B|12-----------------------------|-------------------------------|
G|13-----------------------------|-------------------------------|
D|-------------------------------|-------------------------------|
A|-------------------------------|-------------------------------|
E|-------------------------------|-------------------------------|

e|------- ------- ------- 7------|4------ 2------ 0------ 2------|
B|-------------------------------|-------------------------------|
G|----------7/9-------7-------4--|----2-------1-------2----------|
D|-------------------------------|-------------------------------|
A|-------------------------------|-------------------------------|
E|-------------------------------|-------------------------------|



  A                               Dbm
e|0------ 0------ 0------ 0------|4------ ----4-- 4---4-- 4------|
B|2-------2-------2-------2------|5-----------5---5---5---5------|
G|2-------2-------2-------2------|6-----------6---6---6---6------|
D|2-------2-------2-------2------|6-----------6---6---6---6------|
A|0-------0-------0-------0------|4-----------4---4---4---4------|
E|-------------------------------|-------------------------------|
              I   don't   know    how
e|12----- ------- ------- -------|12----- ------- ------- -------|
B|14-----------------------------|14-----------------------------|
G|14-----------------------------|13-----------------------------|
D|-------------------------------|-------------------------------|
A|-------------------------------|-------------------------------|
E|-------------------------------|-------------------------------|

e|------- ------- ------- -------|------- ------- ------- 7---4--|
B|------------------------5------|-------------------------------|
G|-------------------------------|----6--------------------------|
D|--------7----------------------|------------6------------------|
A|-------------------------------|-------------------------------|
E|-------------------------------|-------------------------------|




  F#m                             Dbm
e|2------ 2------ 2------ 2------|4------ 4---4-- ----4-- 4------|
B|2-------2-------2-------2------|5-------5---5-------5---5------|
G|2-------2-------2-------2------|6-------6---6-------6---6------|
D|4-------4-------4-------4------|6-------6---6-------6---6------|
A|4-------4-------4-------4------|4-------4---4-------4---4------|
E|2-------2-------2-------2------|-------------------------------|
              someone         controlled  you
e|-9----- ------- ------- -------|12----- ------- ------- -------|
B|10-----------------------------|14-----------------------------|
G|11-----------------------------|13-----------------------------|
D|-------------------------------|-------------------------------|
A|-------------------------------|-------------------------------|
E|-------------------------------|-------------------------------|

e|5------ ------- ------- -------|------- ------- ------- -------|
B|----7--------------------------|--------5-----------5----------|
G|-------------------------------|------------6------------------|
D|------------------------7------|6---------------6--------------|
A|-------------------------------|-------------------------------|
E|-------------------------------|-------------------------------|



  Bm
e|2------ 2------ 2------ 2------|2------ ------- 2------ -------|
B|3-------3-------3-------3------|3---------------3--------------|
G|4-------4-------4-------4------|4---------------4--------------|
D|4-------4-------4-------4------|4---------------4--------------|
A|2-------2-------2-------2------|2---------------2--------------|
E|-------------------------------|-------------------------------|
              They    bought  and sold                        
e|10----- ------- ------- -------|------- ------- ------- -------|
B|12-----------------------------|-------------------------------|
G|11-----------------------------|-------------------------------|
D|-------------------------------|-------------------------------|
A|-------------------------------|-------------------------------|
E|-------------------------------|-------------------------------|

e|------- ------- ------- -------|------- ------- ------- -------|
B|--------3---------------3------|--------3----------------------|
G|4---------------4--------------|----4-----------4-------4------|
D|-------------------------------|-------------------------------|
A|-------------------------------|-------------------------------|
E|-------------------------------|-------------------------------|




  E
e|0------ 0------ 0---0-- 0---0--|------- 0------ 0---0-- 0------|
B|0-------0-------0---0---0---0--|--------0-------0---0---0------|
G|1-------1-------1---1---1---1--|--------1-------1---1---1------|
D|2-------2-------2---2---2---2--|--------2-------2---2---2------|
A|2-------2-------2---2---2---2--|--------2-------2---2---2------|
E|0-------0-------0---0---0---0--|--------0-------0---0---0------|
  you                                                     I   look
e|12----- ------- ------- -------|------- ------- ------- -------|
B|12-----------------------------|-------------------------------|
G|13-----------------------------|-------------------------------|
D|-------------------------------|-------------------------------|
A|-------------------------------|-------------------------------|
E|-------------------------------|-------------------------------|

e|------- ------- ------- -------|------- 12----- ------- -------|
B|----------------14------12-----|-----------12------------------|
G|----------------13-------------|----13-------13\11--9----------|
D|-------------------------------|------------------------11\9---|
A|-------------------------------|-------------------------------|
E|-------------------------------|-------------------------------| 




  Am                              Am7
e|0------ 0------ 0---0-- 0------|0------ 0------ ------- 0------|
B|1-------1-------1---1---1------|1-------1---------------1------|
G|2-------2-------2---2---2------|2-------2---------------2------|
D|2-------2-------2---2---2------|2-------2---------------2------|
A|0-------0-------0---0---0------|-------------------------------|
E|-------------------------------|3-------3---------------3------|
              at      the     world               and I   no.....
e|------- 5------ 5------ 5------|------- ------- ------- -------|
B|--------5-------5-------5------|-------------------------------|
G|--------5-------5-------5------|-------------------------------|
D|7------------------------------|5------------------------------|
A|-------------------------------|-------------------------------|
E|-------------------------------|-------------------------------|




  D9                              F
e|0------ 0------ ------- 0------|1------ 1------ 1------ 1------|
B|1-------1---------------1------|1-------1-------1-------1------|
G|2-------2---------------2------|2-------2-------2-------2------|
D|0-------0---------------0------|3-------3-------3-------3------|
A|0-------0---------------0------|3-------3-------3-------3------|
E|2-------2---------------2------|1-------1-------1-------1------|
  ............tice    it's    turning      
e|------- ------- 0------ 0------|------- ------- ------- -------|
B|----------------1-------1------|-------------------------------|
G|----------------2-------2------|----------------------------0--|
D|4---------------3-------3------|------------------------3------|
A|-------------------------------|-------------------------------|
E|-------------------------------|-------------------------------|




  Am                              G
e|0------ 0------ 0------ 0------|3------ 3------ 3---3-- 3------|
B|1-------1-------1-------1------|3-------3-------3---3---3------|
G|2-------2-------2-------2------|0-------0-------0---0---0------|
D|2-------2-------2-------2------|0-------0-------0---0---0------|
A|0-------0-------0-------0------|2-------2-------2---2---2------|
E|-------------------------------|3-------3-------3---3---3------|
          While   my      guitar              gently          weeps
e|------- ------- ------- -------|------- ------- ------- -------|
B|-------------------------------|-------------------------------|
G|2-----------2-------2----------|0-----------0-------0----------|
D|-------------------------------|-------------------------------|
A|-------------------------------|-------------------------------|
E|-------------------------------|-------------------------------|





  D                           E
e|2------ 2------ 2---2-- 2---0--|------- 0------ 0---0-- -------|
B|3-------3-------3---3---3---0--|--------0-------0---0----------|
G|2-------2-------2---2---2---1--|--------1-------1---1----------|
D|0-------0-------0---0---0---2--|--------2-------2---2----------|
A|----------------------------2--|--------2-------2---2----------|
E|----------------------------0--|--------0-------0---0----------|
                                                          With ev..
e|------- ------- ------- ----5--|------- ------- 8------ -------|
B|------------------------5------|----8/10-----------------------|
G|----------------7B9------------|-------------------------------|
D|-------------------------------|-------------------------------|
A|-------------------------------|-------------------------------|
E|-------------------------------|-------------------------------|




  Am                              Am7
e|0------ 0------ 0------ 0------|0------ 0------ ------- 0------|
B|1-------1-------1-------1------|1-------1---------------1------|
G|2-------2-------2-------2------|2-------2---------------2------|
D|2-------2-------2-------2------|2-------2---------------2------|
A|0-------0-------0-------0------|-------------------------------|
E|-------------------------------|3-------3---------------3------|
  ......ery   mis.............take                we  must    sure..
e|5------ ------- ------- ----\--|------- ------- ------- -------|
B|-------------------------------|-------------------------------|
G|-------------------------------|0------------------------------|
D|-------------------------------|-------------------------------|
A|-------------------------------|-------------------------------|
E|-------------------------------|-------------------------------|




  D9                              F
e|0------ 0------ 0------ 0------|1------ 1------ 1---1-- 1---1--|
B|1-------1-------1-------1------|1-------1-------1---1---1---1--|
G|2-------2-------2-------2------|2-------2-------2---2---2---2--|
D|0-------0-------0-------0------|3-------3-------3---3---3---3--|
A|0-------0-------0-------0------|3-------3-------3---3---3---3--|
E|2-------2-------2-------2------|1-------1-------1---1---1---1--|
  ............ly      be      learning
e|------- ------- ------- -------|------- ------- ------- -------|
B|--------------------1----------|------------------------0------|
G|-------------------------------|--------------------3----------|
D|----------------2--------------|-------------------------------|
A|-------------------------------|-------------------------------|
E|-------------------------------|-------------------------------|




  Am                              G
e|0------ 0------ ------- 0------|3------ 3------ 3------ 3------|
B|1-------1---------------1------|3-------3-------3-------3------|
G|2-------2---------------2------|0-------0-------0-------0------|
D|2-------2---------------2------|0-------0-------0-------0------|
A|0-------0---------------0------|2-------2-------2-------2------|
E|-------------------------------|3-------3-------3-------3------|
          still   my      guitar              gently          weeps
e|------- ------- ------- -------|------- ------- ------- -------|
B|-------------------------------|----------------0--------------|
G|2-----------2------------------|0-------0---------------0------|
D|-------------------------------|-------------------------------|
A|-------------------------------|-------------------------------|
E|-------------------------------|-------------------------------|




  C                               E
e|0------ 0------ 0---0-- 0------|0------ 0------ 0------ 0------|
B|1-------1-------1---1---1------|0-------0-------0-------0------|
G|0-------0-------0---0---0------|1-------1-------1-------1------|
D|2-------2-------2---2---2------|2-------2-------2-------2------|
A|3-------3-------3---3---3------|2-------2-------2-------2------|
E|3-------3-------3---3---3------|0-------0-------0-------0------|

e|------- ------- ------- -------|------- ------- ------- -------|
B|-------------------------------|----------------13B14---15B17--|
G|------------------------17R14--|----12--14-B-16----------------|
D|-------------------------------|-------------------------------|
A|-------------------------------|-------------------------------|
E|-------------------------------|-------------------------------|




  Am                              Am7
e|0------ 0------ 0---0-- 0---0--|----0-- 0------ 0---0-- 0------|
B|1-------1-------1---1---1---1--|----1---1-------1---1---1------|
G|2-------2-------2---2---2---2--|----2---2-------2---2---2------|
D|2-------2-------2---2---2---2--|----2---2-------2---2---2------|
A|0-------0-------0---0---0------|-------------------------------|
E|----------------------------3--|----3---3-------3---3---3------|

e|------- ------- ------- -------|------- ------- ------- -------|
B|13-B---------------------------|-------------------------------|
G|--------14---------------------|12H14-B-17---14B17-------------|
D|-------------------------------|-------------------------------|
A|-------------------------------|-------------------------------|
E|-------------------------------|-------------------------------|  




  D9                              F
e|0------ 0------ 0---0-- 0---0--|1------ 1------ 1------ 1------|
B|1-------1-------1---1---1---1--|1-------1-------1-------1------|
G|2-------2-------2---2---2---2--|2-------2-------2-------2------|
D|0-------0-------0---0---0---0--|3-------3-------3-------3------|
A|0-------0-------0---0---0---0--|3-------3-------3-------3------|
E|2-------2-------2---2---2---2--|1-------1-------1-------1------|

e|------- ------- ------- -------|------- ------- ------- -------|
B|-------------------------------|-------------------------------|
G|-------------------------------|12H14-B-17---14B17-------------|
D|-------------------------------|-------------------------------|
A|-------------------------------|-------------------------------|
E|-------------------------------|-------------------------------|





  Am                              G
e|0------ 0------ 0---0-- 0---0--|3------ 3------ 3---3-- 3------|
B|1-------1-------1---1---1---1--|3-------3-------3---3---3------|
G|2-------2-------2---2---2---2--|0-------0-------0---0---0------|
D|2-------2-------2---2---2---2--|0-------0-------0---0---0------|
A|0-------0-------0---0---0---0--|2-------2-------2---2---2------|
E|-------------------------------|3-------3-------3---3---3------|

e|------- ------- ------- -------|------- ------- ------- -------|
B|-------------------------------|--------15B17---15P13---15B17--|
G|------------------------12H14-B|17-----------------------------|
D|-------------------------------|-------------------------------|
A|-------------------------------|-------------------------------|
E|-------------------------------|-------------------------------|




  D                               E
e|2------ 2------ 2---2-- 2------|0---0-- 0---0-- 0---0-- 0---0--|
B|3-------3-------3---3---3------|0---0---0---0---0---0---0---0--|
G|2-------2-------2---2---2------|1---1---1---1---1---1---1---1--|
D|0-------0-------0---0---0------|2---2---2---2---2---2---2---2--|
A|-------------------------------|2---2---2---2---2---2---2---2--|
E|-------------------------------|0---0---0---0---0---0---0---0--|

e|------- 15----- ------- -------|------- 15B17-- ------- 15B17--|
B|------------------------15-----|13-----------------------------|
G|-------------------------------|-------------------------------|
D|-------------------------------|-------------------------------|
A|-------------------------------|-------------------------------|
E|-------------------------------|-------------------------------| 




  Am                              Am7
e|0------ 0------ 0---0-- 0---0--|0------ 0------ 0---0-- 0---0--|
B|1-------1-------1---1---1---1--|1-------1-------1---1---1---1--|
G|2-------2-------2---2---2---2--|2-------2-------2---2---2---2--|
D|2-------2-------2---2---2---2--|2-------2-------2---2---2---2--|
A|0-------0-------0---0---0---0--|-------------------------------|
E|-------------------------------|3-------3-------3---3---3---3--|


e|15B17-- ------- 17R15-- -B--17-|------- ------- ------- 15-----|
B|-------------------------------|------------17--15B17-------17-R
G|-------------------------------|-------------------------------|
D|-------------------------------|-------------------------------|
A|-------------------------------|-------------------------------|
E|-------------------------------|-------------------------------|




  D9                              F
e|0------ 0------ 0------ 0---0--|1------ 1------ 1------ 1------|
B|1-------1-------1-------1---1--|1-------1-------1-------1------|
G|2-------2-------2-------2---2--|2-------2-------2-------2------|
D|0-------0-------0-------0---0--|3-------3-------3-------3------|
A|0-------0-------0-------0---0--|3-------3-------3-------3------|
E|2-------2-------2-------2---2--|1-------1-------1-------1------|

e|------- ------- ----15- -------|------- ------- ------- -------|
B|15------13--15-B17------17R15--|13-----------------------------|
G|-------------------------------|----------------14B17R1412H14-B|
D|-------------------------------|-------------------------------|
A|-------------------------------|-------------------------------|
E|-------------------------------|-------------------------------|




  Am                              G
e|0------ 0------ 0---0-- 0---0--|3------ 3------ 3------ 3---3--|
B|1-------1-------1---1---1---1--|3-------3-------3-------3---3--|
G|2-------2-------2---2---2---2--|0-------0-------0-------0---0--|
D|2-------2-------2---2---2---2--|0-------0-------0-------0---0--|
A|0-------0-------0---0---0---0--|2-------2-------2-------2---2--|
E|-------------------------------|3-------3-------3-------3---3--|

e|------- ------- ------- -------|------- ------- ------- -------|
B|-------------------------------|-------------------------------|
G|17---14B17--------------12-----|-------------------------------|
D|----------------12H14-------14-|12P10---12------10H12---10-----|
A|-------------------------------|-------------------------------|
E|-------------------------------|-------------------------------|




  C                               E
e|0------ 0------ 0---0-- 0---0--|0------ 0------ 0---0-- 0---0--|
B|1-------1-------1---1---1---1--|0-------0-------0---0---0---0--|
G|0-------0-------0---0---0---0--|1-------1-------1---1---1---1--|
D|2-------2-------2---2---2---2--|2-------2-------2---2---2---2--|
A|3-------3-------3---3---3---3--|2-------2-------2---2---2---2--|
E|3-------3-------3---3---3---3--|0-------0-------0---0---0---0--|

e|------- ------- ------- -------|------- ----17- 15B17-- 17R15-B|
B|------------------------13/15--|15B17---17---------------------|
G|--------12H14---14B17----------|-------------------------------|
D|12H14--------------------------|-------------------------------|
A|-------------------------------|-------------------------------|
E|-------------------------------|-------------------------------|  




  A                               Dbm
e|0------ 0------ 0---0-- 0------|4------ ----4-- 4------ 4------|
B|2-------2-------2---2---2------|5-----------5---5-------5------|
G|2-------2-------2---2---2------|6-----------6---6-------6------|
D|2-------2-------2---2---2------|6-----------6---6-------6------|
A|0-------0-------0---0---0------|4-----------4---4-------4------|
E|-------------------------------|-------------------------------|
              I   don't   know    how
e|12----- ------- ------- -------|12----- ------- ------- -------|
B|14-----------------------------|14-----------------------------|
G|14-----------------------------|13-----------------------------|
D|-------------------------------|-------------------------------|
A|-------------------------------|-------------------------------|
E|-------------------------------|-------------------------------|

e|17----- ------- ------- -------|------- ------- ------- -------|
B|-------------------------------|-------------------------------|
G|-------------------------------|-------------------------------|
D|-------------------------------|-------------------------------|
A|-------------------------------|-------------------------------|
E|-------------------------------|-------------------------------|




  F#m                             Dbm
e|2------ 2------ ------- 2------|4------ ----4-- 4---4-- 4------|
B|2-------2---------------2------|5-----------5---5---5---5------|
G|2-------2---------------2------|6-----------6---6---6---6------|
D|4-------4---------------4------|6-----------6---6---6---6------|
A|4-------4---------------4------|4-----------4---4---4---4------|
E|2-------2---------------2------|-------------------------------|
              you     were    diverted
e|-9----- ------- ------- -------|12----- ------- ------- -------|
B|10-----------------------------|14-----------------------------|
G|11-----------------------------|13-----------------------------|
D|-------------------------------|-------------------------------|
A|-------------------------------|-------------------------------|
E|-------------------------------|-------------------------------|

e|------- ------- ------- -------|------- 0------ ------- 0------|
B|-------------------------------|-------------------------------|
G|-------------------------------|-------------------------------|
D|-------------------------------|-------------------------------|
A|-------------------------------|-------------------------------|
E|-------------------------------|-------------------------------|




  Bm       
e|2------ 2------ ------- 2------|2------ 2------ 2---2-- 2------|
B|3-------3---------------3------|3-------3-------3---3---3------|
G|4-------4---------------4------|4-------4-------4---4---4------|
D|4-------4---------------4------|4-------4-------4---4---4------|
A|2-------2---------------2------|2-------2-------2---2---2------|
E|-------------------------------|-------------------------------|
              you     were    perverted                   too
e|10----- ------- ------- -------|------- ------- ------- -------|
B|12-----------------------------|-------------------------------|
G|11-----------------------------|-------------------------------|
D|-------------------------------|-------------------------------|
A|-------------------------------|-------------------------------|
E|-------------------------------|-------------------------------|

e|------- ------- ------- -------|------- ------- ------- -------|
B|-------------------------------|--------3---------------3------|
G|-------------------------------|----------------4--------------|
D|-------------------------------|-------------------------------|
A|-------------------------------|-------------------------------|
E|-------------------------------|-------------------------------|




  E
e|0------ 0------ 0------ -------|0------ 0------ 0------ 0------|
B|0-------0-------0--------------|0-------0-------0-------0------|
G|1-------1-------1--------------|1-------1-------1-------1------|
D|2-------2-------2--------------|2-------2-------2-------2------|
A|2-------2-------2--------------|2-------2-------2-------2------|
E|0-------0-------0--------------|0-------0-------0-------0------|
                                                          I   look
e|12----- ------- ------- -------|------- ------- ------- -------|
B|12-----------------------------|-------------------------------|
G|13-----------------------------|-------------------------------|
D|-------------------------------|-------------------------------|
A|-------------------------------|-------------------------------|
E|-------------------------------|-------------------------------|

e|----0-- ------- 0------ 0------|0------ 4------ 4-\-0-- 0------|
B|-------------------------------|-------------------------------|
G|------------0------------------|--2/4--------------------------|
D|-------------------------------|-------------------------------|
A|-------------------------------|-------------------------------|
E|-------------------------------|-------------------------------|  




  A                               Dbm
e|0------ ----0-- 0------ -------|4------ ----4-- 4------ 4------|
B|2-----------2---2--------------|5-----------5---5-------5------|
G|2-----------2---2--------------|6-----------6---6-------6------|
D|2-----------2---2--------------|6-----------6---6-------6------|
A|0-----------0---0--------------|4-----------4---4-------4------|
E|-------------------------------|-------------------------------|
              I   don't   know    how
e|12----- ------- ------- -------|12----- ------- ------- -------|
B|14-----------------------------|14-----------------------------|
G|14-----------------------------|13-----------------------------|
D|-------------------------------|-------------------------------|
A|-------------------------------|-------------------------------|
E|-------------------------------|-------------------------------|

e|------- ------- ------- -------|------- ------- 4------ 7---4--|
B|-------------------------------|------------5------------------|
G|--------2----------------------|-------------------------------|
D|-------------------------------|-------------------------------|
A|-------------------------------|-------------------------------|
E|-------------------------------|-------------------------------|




  F#m                             Dbm
e|2------ 2------ ------- 2------|4------ ----4-- 4---4-- 4------|
B|2-------2---------------2------|5-----------5---5---5---5------|
G|2-------2---------------2------|6-----------6---6---6---6------|
D|4-------4---------------4------|6-----------6---6---6---6------|
A|4-------4---------------4------|4-----------4---4---4---4------|
E|2-------2---------------2------|-------------------------------|
              you     were    inverted
e|-9----- ------- ------- -------|12----- ------- ------- -------|
B|10-----------------------------|14-----------------------------|
G|11-----------------------------|13-----------------------------|
D|-------------------------------|-------------------------------|
A|-------------------------------|-------------------------------|
E|-------------------------------|-------------------------------|

e|5------ ------- ------- -------|------- ------- ------- -------|
B|----7--------------------------|----------------5--------------|
G|--------6----------------------|--------6---------------6------|
D|-------------------------------|----6--------------------------|
A|-------------------------------|-------------------------------|
E|-------------------------------|-------------------------------|




  Bm
e|2------ 2------ 2------ -------|2------ ------- 2------ -------|
B|3-------3-------3--------------|3---------------3--------------|
G|4-------4-------4--------------|4---------------4--------------|
D|4-------4-------4--------------|4---------------4--------------|
A|2-------2-------2--------------|2---------------2--------------|
E|-------------------------------|-------------------------------|
              no      one     alerted                     you
e|10----- ------- ------- -------|------- ------- ------- -------|
B|12-----------------------------|-------------------------------|
G|11-----------------------------|-------------------------------|
D|-------------------------------|-------------------------------|
A|-------------------------------|-------------------------------|
E|-------------------------------|-------------------------------|

e|------- ------- 2------ -------|------- ------- ------- -------|
B|--------3----------------------|3---------------3--------------|
G|----4-------------------4------|--------4---------------4------|
D|4------------------------------|-------------------------------|
A|-------------------------------|-------------------------------|
E|-------------------------------|-------------------------------|




  E
e|0------ 0------ 0------ 0---0--|0------ 0---0-- 0---0-- 0------|
B|0-------0-------0-------0---0--|0-------0---0---0---0---0------|
G|1-------1-------1-------1---1--|1-------1---1---1---1---1------|
D|2-------2-------2-------2---2--|2-------2---2---2---2---2------|
A|2-------2-------2-------2---2--|2-------2---2---2---2---2------|
E|0-------0-------0-------0---0--|0-------0---0---0---0---0------|
                                                          I   look
e|12----- ------- ------- -------|------- ------- ------- -------|
B|12-----------------------------|-------------------------------|
G|13-----------------------------|-------------------------------|
D|-------------------------------|-------------------------------|
A|-------------------------------|-------------------------------|
E|-------------------------------|-------------------------------|

e|------- 0------ ------- -------|12----- ----12- ----12- 12\----|
B|-------------------------------|-------------------------------|
G|------------------------12/13--|----14----------14-------------|
D|-------------------------------|-------------------------------|
A|-------------------------------|-------------------------------|
E|-------------------------------|-------------------------------|  




  Am                              Am7
e|0------ 0------ 0---0-- 0------|0------ 0------ ----0-- 0------|
B|1-------1-------1---1---1------|1-------1-----------1---1------|
G|2-------2-------2---2---2------|2-------2-----------2---2------|
D|2-------2-------2---2---2------|2-------2-----------2---2------|
A|0-------0-------0---0---0------|-------------------------------|
E|-------------------------------|3-------3-----------3---3------|
                  at you      all                 see the     love 
e|------- ------- ------- -------|------- ------- ------- -------|
B|----------------10-------------|-------------------------------|
G|-------------------------------|-------------------------------|
D|-------------------------------|-------------------------------|
A|-------------------------------|-------------------------------|
E|-------------------------------|-------------------------------|




  D9                              F
e|0------ 0------ ------- 0------|1------ 1------ 1---1-- 1------|
B|1-------1---------------1------|1-------1-------1---1---1------|
G|2-------2---------------2------|2-------2-------2---2---2------|
D|0-------0---------------0------|3-------3-------3---3---3------|
A|0-------0---------------0------|3-------3-------3---3---3------|
E|2-------2---------------2------|1-------1-------1---1---1------|
          there           that's  sleeping
e|------- ------- ------- -------|------- ------- ----0-- ----0--|
B|-------------------------------|-------------------------------|
G|------------2-----------2------|------------------------2------|
D|-------------------------------|-------------------------------|
A|-------------------------------|-------------------------------|
E|-------------------------------|1------------------------------|




  Am                              G
e|0------ ------- 0------ 0------|3------ 3------ 3------ 3------|
B|1---------------1-------1------|3-------3-------3-------3------|
G|2---------------2-------2------|0-------0-------0-------0------|
D|2---------------2-------2------|0-------0-------0-------0------|
A|0---------------0-------0------|2-------2-------2-------2------|
E|-------------------------------|3-------3-------3-------3------|
          While   my      guitar              gently          weeps
e|------- ------- ------- -------|------- ------- ------- -------|
B|-------------------------------|-------------------------------|
G|2-----------2-------2----------|0-----------0---0---0---0------|
D|-------------------------------|-------------------------------|
A|-------------------------------|-------------------------------|
E|-------------------------------|-------------------------------|





  D                           E
e|2------ 2------ 2---2-- 2---0--|----0-- 0------ 0---0-- ----0--|
B|3-------3-------3---3---3---0--|----0---0-------0---0-------0--|
G|2-------2-------2---2---2---1--|----1---1-------1---1-------1--|
D|0-------0-------0---0---0---2--|----2---2-------2---2-------2--|
A|----------------------------2--|----2---2-------2---2-------2--|
E|----------------------------0--|----0---0-------0---0-------0--|
                                                          I   look
e|------- ------- ------- -------|------- ------- ------- -------|
B|-------------------------------|-------------------------------|
G|--------12--14--14B17---14B17--|13-14---14------14P12----------|
D|0------------------------------|------------------------14\12--|
A|-------------------------------|-------------------------------|
E|-------------------------------|-------------------------------|





  Am                              Am7
e|0------ 0------ 0------ 0------|0------ 0---0-- 0---0-- 0------|
B|1-------1-------1-------1------|1-------1---1---1---1---1------|
G|2-------2-------2-------2------|2-------2---2---2---2---2------|
D|2-------2-------2-------2------|2-------2---2---2---2---2------|
A|0-------0-------0-------0------|-------------------------------|
E|-------------------------------|3-------3---3---3---3---3------|
          look at     you     all
          look at     you     all
e|12----- ------- ------- -------|12----- ------- ------- -------|
B|13-----------------------------|13-----------------------------|
G|14-----------------------------|12-----------------------------|
D|-------------------------------|-------------------------------|
A|-------------------------------|-------------------------------|
E|-------------------------------|-------------------------------|

e|------- ------- ------- -------|------- ------- ------- -------|
B|-------------------------------|-------------------------------|
G|--------------------2----------|--------2-------2-------2------|
D|10------\----------------------|-------------------------------|
A|-------------------------------|-------------------------------|
E|-------------------------------|-------------------------------|





  D9                              F
e|0------ 0------ 0---0-- 0---0--|1------ 1------ 1---1-- 1------|
B|1-------1-------1---1---1---1--|1-------1-------1---1---1------|
G|2-------2-------2---2---2---2--|2-------2-------2---2---2------|
D|0-------0-------0---0---0---0--|3-------3-------3---3---3------|
A|0-------0-------0---0---0---0--|3-------3-------3---3---3------|
E|2-------2-------2---2---2---2--|1-------1-------1---1---1------|

e|12----- ------- ------- -------|12----- ------- ------- -------|
B|13-----------------------------|13-----------------------------|
G|11-----------------------------|10-----------------------------|
D|-------------------------------|-------------------------------|
A|-------------------------------|-------------------------------|
E|-------------------------------|-------------------------------|

e|------- 0------ ------- -------|------- 0------ ------- -------|
B|--------------------1----------|-------------------------------|
G|------------2------------------|----------------2--------------|
D|----------------------------2--|------------2------------------|
A|-------------------------------|-------------------------------|
E|-------------------------------|-------------------------------|  





  Am                              G
e|0------ ------- ------- 0------|3------ 3------ 3------ 3------|
B|1-----------------------1------|3-------3-------3-------3------|
G|2-----------------------2------|0-------0-------0-------0------|
D|2-----------------------2------|0-------0-------0-------0------|
A|0-----------------------0------|2-------2-------2-------2------|
E|-------------------------------|3-------3-------3-------3------|
          Still   my      guitar              gently          weeps
          Still   my      guitar              gently          weeps
e|12----- ------- ------- -------|10----- ------- ------- -------|
B|13-----------------------------|12-----------------------------|
G|14-----------------------------|12-----------------------------|
D|-------------------------------|-------------------------------|
A|-------------------------------|-------------------------------|
E|-------------------------------|-------------------------------|

e|------- ------- ------- -------|------- ------- ------- -------|
B|-------------------------------|-------------------------------|
G|2-----------2---------------0--|--------0-----------0----------|
D|-------------------------------|-------------------------------|
A|-------------------------------|-------------------------------|
E|-------------------------------|-------------------------------|





  C                               E
e|0------ 0---0-- 0---0-- 0------|0------ 0---0-- 0---0-- 0---0--|
B|1-------1---1---1---1---1------|0-------0---0---0---0---0---0--|
G|0-------0---0---0---0---0------|1-------1---1---1---1---1---1--|
D|2-------2---2---2---2---2------|2-------2---2---2---2---2---2--|
A|3-------3---3---3---3---3------|2-------2---2---2---2---2---2--|
E|3-------3---3---3---3---3------|0-------0---0---0---0---0---0--|

e|12----- ------- ------- -------|12----- ------- ------- -------|
B|13-----------------------------|12-----------------------------|
G|12-----------------------------|13-----------------------------|
D|-------------------------------|-------------------------------|
A|-------------------------------|-------------------------------|
E|-------------------------------|-------------------------------|

e|------- ------- ------- -------|------- ------- ------- -------|
B|-------------------------------|-------------------------------|
G|--------7B9-------------7B9----|--------7B9--------------------|
D|-------------------------------|-------------------------------|
A|-------------------------------|-------------------------------|
E|-------------------------------|-------------------------------|





  Am                              Am7
e|0------ 0------ ----0-- 0---0--|0------ 0------ 0---0-- 0------|
B|1-------1-----------1---1---1--|1-------1-------1---1---1------|
G|2-------2-----------2---2---2--|2-------2-------2---2---2------|
D|2-------2-----------2---2---2--|2-------2-------2---2---2------|
A|0-------0-----------0---0---0--|-------------------------------|
E|-------------------------------|3-------3-------3---3---3------|

e|12----- ------- ------- -------|12----- ------- ------- -------|
B|13-----------------------------|13-----------------------------|
G|14-----------------------------|12-----------------------------|
D|-------------------------------|-------------------------------|
A|-------------------------------|-------------------------------|
E|-------------------------------|-------------------------------|

e|------- ------- ------- -------|------- ------- ------- -------|
B|-------------------------------|-------------------------------|
G|--------7B9-------------7B9----|--------7B9-------------7B9----|
D|-------------------------------|-------------------------------|
A|-------------------------------|-------------------------------|
E|-------------------------------|-------------------------------|





  D9                              F
e|0------ 0------ 0------ 0------|1---1-- ------- ----1-- 1------|
B|1-------1-------1-------1------|1---1---------------1---1------|
G|2-------2-------2-------2------|2---2---------------2---2------|
D|0-------0-------0-------0------|3---3---------------3---3------|
A|0-------0-------0-------0------|3---3---------------3---3------|
E|2-------2-------2-------2------|1---1---------------1---1------|

e|12----- ------- ------- -------|12----- ------- ------- -------|
B|13-----------------------------|13-----------------------------|
G|11-----------------------------|10-----------------------------|
D|-------------------------------|-------------------------------|
A|-------------------------------|-------------------------------|
E|-------------------------------|-------------------------------| ...
   (This^organ sequence goes on till the end of the song)
e|------- ------- ------- -------|------- ------- ------- -------|
B|-------------------------------|-------------------------------|
G|--------7B9-------------7B9----|--------7B9-------------7B9----|
D|-------------------------------|-------------------------------|
A|-------------------------------|-------------------------------|
E|-------------------------------|-------------------------------|





  Am                              G
e|0------ 0---0-- 0---0-- 0------|3------ 3---3-- 3---3-- 3---3--|
B|1-------1---1---1---1---1------|3-------3---3---3---3---3---3--|
G|2-------2---2---2---2---2------|0-------0---0---0---0---0---0--|
D|2-------2---2---2---2---2------|0-------0---0---0---0---0---0--|
A|0-------0---0---0---0---0------|2-------2---2---2---2---2---2--|
E|-------------------------------|3-------3---3---3---3---3---3--|

e|------- ------- ------- -------|------- ------- ------- -------|
B|-------------------------------|--------8B10------------8B10---|
G|--------7B9-------------7B9----|-------------------------------|
D|-------------------------------|-------------------------------|
A|-------------------------------|-------------------------------|
E|-------------------------------|-------------------------------|





  D                           E
e|2------ 2------ 2---2-- 2---0--|0---0-- 0---0-- 0---0-- 0---0--|
B|3-------3-------3---3---3---0--|0---0---0---0---0---0---0---0--|
G|2-------2-------2---2---2---1--|1---1---1---1---1---1---1---1--|
D|0-------0-------0---0---0---2--|2---2---2---2---2---2---2---2--|
A|----------------------------2--|2---2---2---2---2---2---2---2--|
E|----------------------------0--|0---0---0---0---0---0---0---0--|

e|------- 5------ ----5-- ----8B10------- 8------ 5------ -------|
B|5-----------5-----------5------|-------------------------------|
G|-------------------------------|-----------------------B9-R-7--|
D|-------------------------------|-------------------------------|
A|-------------------------------|-------------------------------|
E|-------------------------------|-------------------------------|  





  Am                              Am7
e|0------ ------- ------- 0------|0------ 0------ 0---0-- 0------|
B|1-----------------------1------|1-------1-------1---1---1------|
G|2-----------------------2------|2-------2-------2---2---2------|
D|2-----------------------2------|2-------2-------2---2---2------|
A|0-----------------------0------|-------------------------------|
E|-------------------------------|3-------3-------3---3---3------|

e|------- ------- ------- -------|------- ------- ------- -------|
B|-------------------------------|-------------------------------|
G|5------------------------------|5---------------------------5--|
D|------------------------5-H-7--|-------------------------------|
A|-------------------------------|-------------------------------|
E|-------------------------------|-------------------------------|





  D9                              F
e|0------ 0------ ------- 0------|1---1-- ----1-- ----1-- 1------|
B|1-------1---------------1------|1---1-------1-------1---1------|
G|2-------2---------------2------|2---2-------2-------2---2------|
D|0-------0---------------0------|3---3-------3-------3---3------|
A|0-------0---------------0------|3---3-------3-------3---3------|
E|2-------2---------------2------|1---1-------1-------1---1------|

e|------- ------- ------- -------|------- ------- ------- -------|
B|------------------------13B15--|----------------15R13---15R13--|
G|-----------/17-----------------|-------------------------------|
D|-------------------------------|-------------------------------|
A|-------------------------------|-------------------------------|
E|-------------------------------|-------------------------------|





  Am                              G
e|0------ 0---0-- 0---0-- 0------|3------ 3------ 3---3-- 3------|
B|1-------1---1---1---1---1------|3-------3-------3---3---3------|
G|2-------2---2---2---2---2------|0-------0-------0---0---0------|
D|2-------2---2---2---2---2------|0-------0-------0---0---0------|
A|0-------0---0---0---0---0------|2-------2-------2---2---2------|
E|-------------------------------|3-------3-------3---3---3------|

e|------- ------- ------- -------|------- ------- ------- -------|
B|15--R---13------------------10-H13--13--10--10--10H13---13-----|
G|-------------------------------|-------------------------------|
D|-------------------------------|-------------------------------|
A|-------------------------------|-------------------------------|
E|-------------------------------|-------------------------------|





  C                               E
e|0------ 0------ 0---0-- 0------|0------ 0------ 0------ 0------|
B|1-------1-------1---1---1------|0-------0-------0-------0------|
G|0-------0-------0---0---0------|1-------1-------1-------1------|
D|2-------2-------2---2---2------|2-------2-------2-------2------|
A|3-------3-------3---3---3------|2-------2-------2-------2------|
E|3-------3-------3---3---3------|0-------0-------0-------0------|

e|------- ------- ------- -------|----17- ----15- ------- -------|
B|--------13------13/15---15B17--|--------17------15B17R1513-----|
G|-------------------------------|-------------------------------|
D|-------------------------------|-------------------------------|
A|-------------------------------|-------------------------------|
E|-------------------------------|-------------------------------|




  Am                              Am7
e|0------ 0------ 0---0-- 0---0--|0------ 0---0-- 0------ 0------|
B|1-------1-------1---1---1---1--|1-------1---1---1-------1------|
G|2-------2-------2---2---2---2--|2-------2---2---2-------2------|
D|2-------2-------2---2---2---2--|2-------2---2---2-------2------|
A|0-------0-------0---0---0---0--|-------------------------------|
E|-------------------------------|3-------3---3---3-------3------|

e|------- ------- ------- ---15B17------- 17----- ------- -------|
B|-------------------------------|-------------------------------|
G|14-----------------------------|-------------------------------|
D|-------------------------------|-------------------------------|
A|-------------------------------|-------------------------------|
E|-------------------------------|-------------------------------|




  D9                              F
e|0------ 0------ 0------ ----0--|1------ 1---1-- 1---1-- 1------|
B|1-------1-------1-----------1--|1-------1---1---1---1---1------|
G|2-------2-------2-----------2--|2-------2---2---2---2---2------|
D|0-------0-------0-----------0--|3-------3---3---3---3---3------|
A|0-------0-------0-----------0--|3-------3---3---3---3---3------|
E|2-------2-------2-----------2--|1-------1---1---1---1---1------|

e|15B17-- ------- ------- 15B1717|17----- ------- ------- -------|
B|-------------------------------|-------------------------------|
G|-------------------------------|-------------------------------|
D|-------------------------------|-------------------------------|
A|-------------------------------|-------------------------------|
E|-------------------------------|-------------------------------|
  .............................Fade..............................



  Am                              G
e|0------ 0------ 0---0-- 0------|3------ 3------ 3------ 3------|
B|1-------1-------1---1---1------|3-------3-------3-------3------|
G|2-------2-------2---2---2------|0-------0-------0-------0------|
D|2-------2-------2---2---2------|0-------0-------0-------0------|
A|0-------0-------0---0---0------|2-------2-------2-------2------|
E|-------------------------------|3-------3-------3-------3------|

e|15-B-17 17-15B17------- -------|------- ------- ----15- 17--15-|
B|-------------------------------|15B17-----------17-------------|
G|-------------------------------|-------------------------------|
D|-------------------------------|-------------------------------|
A|-------------------------------|-------------------------------|
E|-------------------------------|-------------------------------|
  ...............................................................



  C                               E
e|0------ 0---0-- 0---0-- 0------|0---0-- 0---0-- 0---0-- 0---0--|
B|1-------1---1---1---1---1------|0---0---0---0---0---0---0---0--|
G|0-------0---0---0---0---0------|1---1---1---1---1---1---1---1--|
D|2-------2---2---2---2---2------|2---2---2---2---2---2---2---2--|
A|3-------3---3---3---3---3------|2---2---2---2---2---2---2---2--|
E|3-------3---3---3---3---3------|0---0---0---0---0---0---0---0--|

e|17----- ------- ----12- 17--15-|------- ------- ------- -------|
B|--------15B1715B17-------------|15B17R1513H15-----------13-----|
G|-------------------------------|----------------12H14-------14-|
D|-------------------------------|-------------------------------|
A|-------------------------------|-------------------------------|
E|-------------------------------|-------------------------------|
  ...............................................................



  Am                              Am7
e|0------ 0------ 0------ 0------|0------ 0------ 0------ 0------|
B|1-------1-------1-------1------|1-------1-------1-------1------|
G|2-------2-------2-------2------|2-------2-------2-------2------|
D|2-------2-------2-------2------|2-------2-------2-------2------|
A|0-------0-------0-------0------|-------------------------------|
E|-------------------------------|3-------3-------3-------3------|

e|------- ------- ------- -------|------- ------- ------- -------|
B|-------------------------------|-------------------------------|
G|14------2----------------------|2-/-5-----------5-/-7---7---5--|
D|-------------------------------|-------------------------------|
A|-------------------------------|-------------------------------|
E|-------------------------------|-------------------------------|
  ...............................................................




  D9                              F
e|0------ 0------ 0------ 0------|1------ 1---1-- 1---1-- 1------|
B|1-------1-------1-------1------|1-------1---1---1---1---1------|
G|2-------2-------2-------2------|2-------2---2---2---2---2------|
D|0-------0-------0-------0------|3-------3---3---3---3---3------|
A|0-------0-------0-------0------|3-------3---3---3---3---3------|
E|2-------2-------2-------2------|1-------1---1---1---1---1------|

e|------- ------- ------- -------|------- ------- ------- -------|
B|----------------5---8----------|-------------------------------|
G|7B9---------------------7B8R7--|5-----------------------7-B-9--|
D|-------------------------------|-------------------------------|
A|-------------------------------|-------------------------------|
E|-------------------------------|-------------------------------|
  ...............................................................




  Am                              G
e|0------ 0------ 0---0-- 0------|3------ 3------ 3------ 3------|
B|1-------1-------1---1---1------|3-------3-------3-------3------|
G|2-------2-------2---2---2------|0-------0-------0-------0------|
D|2-------2-------2---2---2------|0-------0-------0-------0------|
A|0-------0-------0---0---0------|2-------2-------2-------2------|
E|-------------------------------|3-------3-------3-------3------|

e|------- ------- ------- -------|------- ------- ------- -------|
B|--------5---8------------------|-------------------------------|
G|7---------------7B9R7---5---7-5|7B9-------------7---5---7-----5H
D|-------------------------------|-------------------------------|
A|-------------------------------|-------------------------------|
E|-------------------------------|-------------------------------|
  ...............................................................



  C                               E
e|0------ 0---0-- 0---0-- 0---0--|0---0-- 0---0-- 0---0-- 0---0--|
B|1-------1---1---1---1---1---1--|0---0---0---0---0---0---0---0--|
G|0-------0---0---0---0---0---0--|1---1---1---1---1---1---1---1--|
D|2-------2---2---2---2---2---2--|2---2---2---2---2---2---2---2--|
A|3-------3---3---3---3---3---3--|2---2---2---2---2---2---2---2--|
E|3-------3---3---3---3---3---3--|0---0---0---0---0---0---0---0--|

e|------- ------- ------- -------|------- ------- ------- -------|
B|-------------------------------|-------------------------------|
G|7------------------------------|-------------------------------|
D|-------------------------------|-------------------------------|
A|-------------------------------|-------------------------------|
E|-------------------------------|-------------------------------|
  ..............................








        B  Bend
        R  Release
        /  slide up
        \  slide down
        H  hammer-on
        P  pull-off
        ~  vibrato
        +  harmonic
        x  Mute note
        . - play note like a dot in standard notation
        ^ - ties two notes together
        (.  Pause
comments
print report bad tab
9 comments total. Showing first comments.
+4 reply
theoddmenout wrote on April 21 2005, 12:00 am

Good job...it's just sooooooooooooo long...But PJVILL does amazing Beatles tabs, props to you for all the hard work!

+2 reply
NoQuarter2 wrote on February 18 2006, 09:02 pm

I figured out another way to play the intro when it says...

|-12----- ------- ------- -------|10----- ------- ------- -------|
|-------------13-----------------|------------12-----------------|
|-------------------------14-----|------------------------12-----|
|----------------------------------------------------------------|
|----------------------------------------------------------------|
|----------------------------------------------------------------|

|10----- ------- ------- -------|
|------------10-----------------|
|------------------------11-----|
|-------------------------------|
|-------------------------------|
|-------------------------------|

This also works :)

|12----------------------------------------------|
|----13-------------------15----------15-------15|
|--------14-------------------16---------14------|
|--------------------------------17---------16---|
|------------------------------------------------|
|------------------------------------------------|

_NoQuarter2

0 reply
Bucketheadroolz wrote on February 3 2008, 01:24 am

did you type this up is the tab submission place?!

I want to post or [tab]
guest
You may want to rate the tab now too:
select rating
Please do not post tabs as comments. Select "correction" instead!