Oops, an error
Loading. Please wait.

White Album Tab

ver1
ver1

Album

Whole song

More versions @911Tabs.com
38,164 views 157 this week
no commentswrite comment
1 2 3 4 5
excellent!
x 4
Autoscroll
+/-
esc
set tempo
stop
Contributor
Difficulty
intermediate
Hey! There's an official Ultimate Guitar app which is ideal
for learning songs when you're away from computer. Get the app
WARNING: You are trying to view
                                    content from Ultimate-Guitar.com
                                    in an unauthorized application,
                                    which is prohibited.

                                    Please use an official Ultimate
                                    Guitar Tabs application for iPhone,
                                    iPad or Android to access legitimate
                                    chords, guitar, bass, and drum tabs
                                    from Ultimate-Guitar.com database.

                                    Type "ultimate guitar tabs" in Apple
                                    App Store's or Android Market's
                                    search to find the application.
The White Album(1968)
The Beatles

I didn't found the whole album in one tab, so here you are. Some songs is whole
tabs and some is only the chords.
I've probably messed it up somewhere...
As you'll notice Revolotion 1 and Revolotion 9 isn't in here... But Revolotion 1
is probably the same as Revolotion 2, but slower, so if learn the #2 you can
probably play #1 the same, just a bit slower.

_____________________________________________________________________________

1. 	"Back in the U.S.S.R."
2. 	"Dear Prudence"
3. 	"Glass Onion"
4. 	"Ob-La-Di, Ob-La-Da"
5. 	"Wild Honey Pie"
6. 	"The Continuing Story of Bungalow Bill"
7. 	"While My Guitar Gently Weeps"
8. 	"Happiness Is a Warm Gun"
9.      "Martha My Dear"
10.     "I'm So Tierd"
11.     "Blackbird"
12.     "Piggies"
13.     "Rocky Raccoon"
14.     "Don't Pass Me By"
15.     "Why Don't We Do It In The Road"
16.     "I Will"
17.     "Julia"
18.     "Birthday"
19.     "Yer Blues"
20.     "Mother Nature's Son
21.     "Everybody's Got Something to Hide Except Me and My Monkey"
22.     "Sexy Sadie"
23.     "Helter Skelter"
24.     "Long Long Long"
25.     "Revolotion 1"   (which isn't in here)
26.     "Honey Pie"
27.     "Savoy Truffle"
28.     "Cry Baby Cry"
29.     "Revolotion 9"  ( which isn't in here either)
30.     "Good Night"

_____________________________________________________________________________


                              Back in the U.S.S.R
                               (Lennon/McCartney)
                                  The Beatles
                              The "White Album" (1968)


E  E7


 A                          D
Flew in from Miami Beach B. O. A. C.
 C                       D
Didn't get to bed last night
A                            D
On the way the paperback was on my knee
 C                      D
Man I had a dreadful flight


                      A
I'm back in the U.S.S.R.
C                             D
You don't know how lucky you are boy
                  A    D  Eb E
Back in the U.S.S.R.


 A                          D
Been away so long I hardly knew the place
 C                         D
Gee it's good to be back home
  A                          D
Leave it till tomorrow to unpack my case
  C                    D
Honey disconnect the phone


                      A
I'm back in the U.S.S.R.
C                             D
You don't know how lucky you are boy
Gadd9
Back in the U.S.

Back in the U.S.
               A
Back in the U.S.S.R.

            D
Well the Ukraine girls really knock me out
       A
They leave the West behind
       D   D/C#          D/C       D/B
And Moscow girls make me sing and shout
       E                         D             A     D  Eb E
That Geogia's always on my mi mi mi mi mi mi mind         [Oh come on!]


[solo]
  A                                                   D

|---------------------------------------------------------------------------|
|15-------15--15-------15--15-------15--15-------15--15------15------15-----|
|17b(19)-(19)-17b(19)-(19)-17b(19)-(19)-17b(19)-(19)-17b(19)-17b(19)-17b(19)|
|---------------------------------------------------------------------------|
|---------------------------------------------------------------------------|
|---------------------------------------------------------------------------|

  C                               D       A                 D
|---------------------------------------------------------------------------|
|---------15--15b(17)b15----------------------------------------------------|
|-17--17------------------17--14--14-----15-b(19)17-b(19)17-b(19)17-b(19)17-|
|---------------------------------------------------------------------------|
|---------------------------------------------------------------------------|
|---------------------------------------------------------------------------|

  C                                D
|-------------------------------------|
|---------15--15b(17)b15--------------|
|-17--17------------------17--14--14--|
|-------------------------------------|
|-------------------------------------|
|-------------------------------------|



                      A
I'm back in the U.S.S.R.
 C                            D
You don't know how lucky you are boy
                  A
Back in the U.S.S.R.



            D
Well the Ukraine girls really knock me out
       A
They leave the West behind
       D   D/C#          D/C       D/B
And Moscow girls make me sing and shout
       E                         D             A     D  Eb E
That Geogia's always on my mi mi mi mi mi mi mind


     A                                         D
Oh, show me 'round your snow-peaked mountains way down south
 C                       D
Take me to your daddy's farm
 A                              D
Let me hear your balalaikais ringing out
 C                          D
Come and keep your comrade warm


                      A
I'm back in the U.S.S.R.
 C                            D
You don't know how lucky you are boy
                  A   D Eb E   A
Back in the U.S.S.R.



	Gadd9
	-5-
	-3-
	-3-
	-4-
	-5-
	-x-
	-3-


_____________________________________________________________________________


                               DEAR PRUDENCE
                                  Beatles

D     x x 0 2 3 2        G/D  x x 0 4 3 3
D/C   x 3 x 2 3 2        A/D  x x 0 6 5 5
D/B   x 2 x x 3 2
D/A#  x 1 x x 3 2


     D         D/C              D/B            D/Bb
Dear Prudence                                     won't you come out
D              D/C              D/B            D/Bb
to play                                           Dear
D              D/C              D/B            D/Bb
Prudence                                          greet the brand
D              D/C              D/B            D/Bb
new day                                           The

D              D/C              D/B            D/Bb
sun is up, the sky is blue it's beautiful, and so are you Dear
D              D/C              C              G
Prudence                  won't you            come out to
D              D/C              D/B            D/Bb
play


Dear Prudence  open up your eyes
Dear Prudence  see the sunny skies
The wind is low, the birds will sing
That you are part of everything
Dear Prudence  won't you open up you eyes

D     G/D       A/D     G/D
Look around round
Look around round round
D     F    Ab    G      D
Look around_____________


Dear Prudence  let me see you smile
Dear Prudence  like a little child
The clouds will be a daisy chain
So let me see you smile again
Dear Prudence  won't you let me see you smile
_____________________________________________________________________________


Glass Onion
The Beatles

Am                  F7
   I told you 'bout Strawberry fields,
Am                          F7
   you know the place where nothing is real
Am                     Gm7
   Well here's another place you can go   -  wo
C7         Gm7
     Where everything flow   - ows
C7      F7                             D7
     Looking through the bent backed tulips      To
F7                           D7          F7                       G7
see how the other half lives         Looking through a glass onion


I told you 'bout the Walrus and me man
You know that we're as close as can be man
Well here's another clue for you all
The Walrus was Paul
Standing on a cast iron whore yeah
Lady Madonna tryin' to make ends meet yeah   Looking through a glass onion


BRIDGE
Am           F           Am         Am7
     oh yeah          oh yeah    oh yeah
F7                            G7
Looking through a glass onion


I told you 'bout the Fool on the Hill
I tell you that he's living there still
Well here's another place you can be
Listen to me
Fixing a hole in the ocean         Try-                        G  Adim7
ing to make a dove tail joint     Looking through a glass onion

Coda, repeat and fade (each "-" represents a beat)

|Adim7 -  Abdim7 Gdim7 |F#dim7 - - - |- - Gdim7 G#dim7 |Adim7 - - - |

Adim7 = xx1212, Abdim7 = xx3434,  Gdim7 = xx2323, F#dim7 = xx1212
Gm7 = xx3333, F7 = xx1211

_____________________________________________________________________________


Band: The Beatles
Song: Ob-La-Di, Ob-La-Da
Album: The Beatles (The White Album)

Chords:
  Bb    F    F7   Eb
e--1----1----1----6----|
B--3----1----1----8----|
G--3----2----2----8----|
D--3----3----1----8----|
A--1----3----3----6----|
E-------1----1---------|


Use ska/reggea upstrokes when playing this song


Intro:

Bass Line
  (Bb)
e-------------|
B-------------|
G-------------| x8
D----------3--|
A—1----3/5----|
E—------------|


Verse 1:
Bb                          F
Desmond has a barrow in the market place
F7                       Bb
Molly is the singer in a band
Bb                            F7        Eb
Desmond says to Molly "girl I like your face"
          Bb               F                Bb
And Molly says this as she takes him by the hand


Chorus:
      Bb                         Eb
Ob-la-di ob-la-da, life goes on, bra!
Bb            F         Bb
La-la how the life goes on
      Bb                        Eb
Ob-la-di ob-la-da life goes on, bra!
Bb            F         Bb
La-la how the life goes on


Verse 2:
Bb                             F
Desmond takes a trolley to the jewellers stores
F7                         Bb
Buys a twenty carat golden ring (Golden ring?)
Bb                             F7     Eb
Takes it back to Molly waiting at the door
          Bb              F             Bb
And as he gives it to her she begins to sing (Sing)


Chorus


Middle:
Eb                                                Bb
In a couple of years they have built a home sweet home
Eb
With a couple of kids running in the yard
   Bb
Of Desmond and Molly Jones (Ah ha ha ha ha ha)


Verse 3:
Bb                      F
Happy ever after in the market place
F7                               Bb
Desmond lets the children lend a hand (Arm! Leg!)
Bb                               F7     Eb
Molly stays at home and does her pretty face
           Bb                F                 Bb
And in the evening she still sings it with the band


Chorus


Middle


Verse 4:
      Bb                      F
Yeah, happy ever after in the market place
F7                             Bb
Molly lets the children lend a hand (Foot!)
Bb                                 F7     Eb
Desmond stays at home and does his pretty face
           Bb              F               Bb
And in the evening she's a singer with the band


Chorus


Outro:
          Eb
And if ya want some fun,
     F7            Bb
Sing Ob-la-di, Bla-da!


_____________________________________________________________________________


The Beatles
Wild Honey Pie
(Lennon/McCartney)

INTRO:
|G7   |F7   |E7 Eb7 |D7   ||

G7
Honey Pie

G7
Honey Pie

LINK 1:
|G7   |F7   |E7 Eb7 |D7   ||

G7
Honey Pie

G7
Honey Pie

LINK 2:
|G7   |F7   |E7 Eb7 |D7   ||

G7
Honey Pie

F7
Honey Pie

G7
Honey Pie

F7
Honey Pie

  G7
I love you, Honey Pie




DEFINE:

G7: (10,12,10,12,10)
F7: (8,10,8,10,8)
E7: (7,9,7,9,7)
Eb7: (6,8,6,8,6)
D7: (5,7,5,7,5)

_____________________________________________________________________________


Continuing Story of Bungalow Bill
The Beatles

                *CHORDS*
     C-x32010   G7-320001  Fm-xxx111-|
     A-x02220   E7-020100  Dm-xx0231-|
     Am-x02210  C6-x32210  F-xx3211--|
     G-320001   E-022100

e---0---0-1---------------------------------------------------------0-|
B---0-4------3-1-0-3-1-0--------------------------------------------0-|
G---0--------------------2-0----------------------------------------0-|
D---4------------------------3-2-0-2-3-2-0--------------------------4-|
A---2------------------------------------3-2-0-0-2-3-2-0-3-2-0------2-|
E-0------------------------------------------------------------3-3-0--|
  *slow*       *Really friggin fast through here*             *slow*

C   G7       C     Fm           C     Fm       G7
Hey Bungalow Bill, What did you kill? Bungalow Bill?
A   E7       A     Dm           A     Dm       E7
Hey Bungalow Bill, What did you kill? Bungalow Bill?
Am                C6               F                G
He went out tiger hunting with his elephant and gun
Am        C6           F                   G
Incase of accidents he always took his mom
E                     G             Am               Fm
He's the all-American bullet-headed Saxon's mother's son...
  [no guitar here]
   and all the children sing
C   G7       C     Fm           C     Fm       G7
Hey Bungalow Bill, What did you kill? Bungalow Bill?
A   E7       A     Dm           A     Dm       E7
Hey Bungalow Bill, What did you kill? Bungalow Bill?
Am          C6               F                  G
Deep in the jungle where the mighty tiger lies
Am           C6            F                 G
Bill and his elephant were taken by suprize
E          G                Am                Fm
So Captain Marvel zapped in right between the eyes...
   [no guitar]
  and all the children sing
C   G7       C     Fm           C     Fm       G7
Hey Bungalow Bill, What did you kill? Bungalow Bill?
A   E7       A     Dm           A     Dm       E7
Hey Bungalow Bill, What did you kill? Bungalow Bill?
Am           C6              F                  G
The children asked him if to kill was not a sin
Am        C6                   F                G
Before he looked so feirce his mommy butted in
Am             C6                      F             G
If looks could kill it would have been us instead of him
   [no guitar]
  and all the children sing
C   G7       C     Fm           C     Fm       G7
Hey Bungalow Bill, What did you kill? Bungalow Bill?
A   E7       A     Dm           A     Dm       E7
Hey Bungalow Bill, What did you kill? Bungalow Bill?
C   G7       C     Fm           C     Fm       G7
Hey Bungalow Bill, What did you kill? Bungalow Bill?
A   E7       A     Dm           A     Dm       E7
Hey Bungalow Bill, What did you kill? Bungalow Bill?
  *then whistle to chorus 'til fade*

_____________________________________________________________________________


While my guitar gently weeps
The Beatles

Am(x02210)
Am/G(302210)
D/F#(300212)
F(132211)
G(320033)
D(xx0232)
E(022100)
C(x32010)
C#m(x46654)
F#m(244222)
Bm(x24432)
E/F#(333100)
E/G(322100)


Am                Am/G          D/F#                   F
I look at you all see the love there that's sleeping
Am              G                  D       E
While my guitar gently weeps
Am                Am/G         D/F#            F
I look at the floor and I see it needs sweeping
C              G                     C            E
Still my guitar gently weeps

 A                C#m    F#m      C#m
I don't know why nobody told you
Bm                   E      E/F#  E/G
How to unfold your love
 A                C#m      F#m       C#m
I don't know how someone controlled you
Bm                    E     E/F#   E/G
They bought and sold you

 Am             Am/G         D/F#           F
I look at the world and I notice it's turning
 Am               G              D           E
While my guitar gently weeps
    Am                  Am/G         D/F#          F
With every mistake we must surely be learning
  Am            G               C             E
Still my guitar gently weeps

(main solo)

A                  C#m    F#m       C#m
I don't know how you were diverted
Bm                  E      E/F#   E/G
You were perverted too
A                  C#m    F#m        C#m
I don't know how you were inverted
Bm               E   E/F#   E/G
No one alerted you

 Am                Am/G       D/F#                    F
I look at you all see the love there that’s sleeping
Am             G                D          E
While  my guitar gently weeps
 Am                Am/G           D/F#               F
Look at you all...


Am               G             C           E
Still my guitar gently weeps

(final solo)
(fade)

_____________________________________________________________________________


Happiness Is A Warm Gun
The Beatles
Lennon/McCartney




       Am7   Am6        Emadd9       Em
 She's not a girl   who misses much.
Am7               Am6   Emadd9   Em
  Do-do-do-do-do-do,     oh yeah.


Dm6
 She's well acquainted with the touch of the velvet hand,
                     Am
 Like a lizard on a window pane.
Dm6                                                         Am
 The man in the crowd, with the multicolored mirrors on his hobnail boots.
Dm6                                                    Am
 Lying with his eyes, while his hands are busy working overtime
Dm6                                                              Am
 A soap impression of his wife, which he ate, and donated to the National Trust.


| A7     | A7     |  C   Am   ||


 A7
 I need a fix, 'cause I'm going down,

 Down to the bits that I left uptown.
 C                       Am
 I need a fix 'cause I'm going down.


 A7                C
 Mother Superior, jump the gun,
 A7                G
 Mother Superior, jump the gun.     (Play three times)


C      Am        F
 Happiness is a warm gun
                            G            C
                     (Bang, bang, shoot, shoot)
       Am        F           G
 Happiness is a warm gun, momma.
                                         C
                     (Bang, bang, shoot, shoot)

        Am       F       G
 When I hold you   in my arms,
C       Am     F         G
 And I feel my finger on your trigger,
C  Am     F              G
 I know nobody can do me no harm,
 C
 Because


C      Am        F           G
 Happiness is a warm gun, momma.
                                         C
                     (Bang, bang, shoot, shoot)
       Am        F               G
 Happiness is a warm gun, yes it is.
                                         Fm
                     (Bang, bang, shoot, shoot)
(Fm)                  N.C.
 Happiness is a warm, yes it is...
      C           Am   F       G
 Gun. _____ (Happiness...bang, bang, shoot, shoot)

 Well don't you know that
C      Am        F           G             C
 Happiness is a warm gun, momma.
     (Happiness...          is a warm gun, yeah!)

_____________________________________________________________________________


Martha My Dear
The Beatles
"The White Album"

CAPO 3RD FRET
#The song is really in key of E flat on the record (not C)

[C]Martha my dear, though I spe[B7]nd my [Em]days in [Em7]conver[A]sation [D]please,
remember [G]me... [Fadd9]Martha, my lo[G7]ve,
[Fmaj7]don't  forget [G7]me, [Fmaj7]Martha my dea[G7]r.
#
VERSE 2
[Bm7]Hold your head up, you [Emadd9]silly girl,
[D]look what you've done.
[A]When you [Asus4]find yourself in the [A]thick of it,
[Asus4]Help yourself to a [A]bit of what is [F#7]all a[Bm7]round you,
Silly [Emadd9]girl.
#
VERSE 3
Take a [Bm7]good look a[E7]round you,
Take a go[Bm7]od look you're [E7]bound to see, that [Gmaj7/A]you and me,
Were [Gmaj7]meant to be.. for each ot[Bm7]her,..silly [Emadd9]girl.[C]
LINK; C /. C . B7/.Em  .Em7.  A/.D  /// G . Fadd9 /.G7 . Fmaj7 /. G . G7 /
#
VERSE 4
[Bm7]Hold your hand out, you [Emadd9]silly girl,
[D]see what you've done.
[A]When you [Asus4]find yourself in the [A]thick of it,
[Asus4]Help yourself to a [A]bit of what is [F#7]all a[Bm7]round you,
Silly [Emadd9]girl. [C] [G7] [C]
#
VERSE 5
[C]Martha, my dear, you have [B7]always [Em]been my [Em7]inspir[A]ation
[D]please,
be good to [G]me.
[Fadd9]Martha my lo[G7]ve, [Fmaj7]don't forget m[G7]e, [Fmaj7]Martha, my de[G7}ar.

CODA
[C] [C/B] [C/A] [C/G] [C]
END

_____________________________________________________________________________


I’m So Tierd
The Beatles

  A  Ab7      D               E7        A  F#m7      D              E7
I'm so tired, I haven't slept a wink, I'm so tired, my mind is on the blink.
  A               E+         F#m          Dm
I wonder should I get up and fix myself a drink, no, no, no

I'm so tired, I don't know what to do, I'm so tired, my mind is set on you.
I wonder should I call you but I know what you would do...

A
You say I'm putting you on but it's no joke, it's doing me harm you know I
E7
can't sleep, I can't stop my brain, you know it's three weeks, I'm going insane
             D                                                   A
you know I'd give you everything I've got for a little peace of mind.

I'm so tired, I'm feeling so upset. Although I'm so tired, I'll have another
cigarette and curse Sir Walter Raleigh, he was such a stupid get.
You say...

_____________________________________________________________________________


Blackbird
The Beatles

Intro:
e|-------------------------------------------------------------|
B|---0-------1-------3--------/12----12--12----12----12--12----|
G|-------0-------0-------0---------0-------0-------0-------0---|
D|-------------------------------------------------------------|
A|-----------0-------2--------/10------10------10------10------|
E|---3---------------------------------------------------------|


Verse: ("Blackbird singing....")
e|-------------------------------------------------------------|
B|---0-------1-------3--------/12----12--12----12----12--12----|
G|-------0-------0-------0---------0-------0-------0-------0---|
D|-------------------------------------------------------------|
A|-----------0-------2--------/10------10------10------10------|
E|---3---------------------------------------------------------|

       ("Take these....")
e|----------(3)-------------(5)-----------------------------------------|
B|---5-------8-------7-------10---------8-----8---8-----8-----8---8-----|
G|-------0-------0-------0-------0----------0-------0-------0-------0---|
D|----------------------------------------------------------------------|
A|---3-------4-------5-------6----------7-------7-------6-------6-------|
E|----------------------------------------------------------------------|

       (All your life....")
e|----------(3)---------------------------------------|
B|---7-------8-------5-----5---5------4-----4---4-----|
G|-------0-------0-------0-------0--------0-------0---|
D|----------------------------------------------------|
A|---5-------4-------3-------3--------3-------3-------|
E|----------------------------------------------------|

       (You were only waiting....")
e|-----------------------------------------------------------------------|
B|---3-----3---3-----2-----2---2------1-----1---1------0-----0----0------|
G|-------0-------0-------0-------0--------0-------0--------0---------0---|
D|------------------------------------0-------0--------------------------|
A|---2-------2-------0-------0-------------------------------------------|
E|-----------------------------------------------------3--------3--------|

Fill:
e|----------------------------------------------------------------------|
B|--5-------3---------2-----2---2-----1-----1---1------0-----0----0-----|
G|------0-------0---------0-------0-------0-------0--------0--------0---|
D|------------------------------------0-------0-------------------------|
A|--3-------2---------0-------0-----------------------------------------|
E|-----------------------------------------------------3--------3-------|


REPEAT VERSE: (without Fill:)


Chorus: ("Blackbird fly....")
e|---------------------------------------------------------------------|
B|---10------8-------6-------5---------3-----3---3-----5-----5---5-----|
G|-------0-------0-------0-------0---------0-------0-------0-------0---|
D|---------------------------------------------------------------------|
A|---8-------7-------5-------3---------1-------1-------3-------3-------|
E|---------------------------------------------------------------------|

   ("Blackbird fly....")
e|---------------------------------------------------------------------|
B|---10------8-------6-------5---------3-----3---3-----2-----2---2-----|
G|-------0-------0-------0-------0---------0-------0-------0-------0---|
D|---------------------------------------------------------------------|
A|---8-------7-------5-------3---------1-------1-------0-------0-------|
E|---------------------------------------------------------------------|

 ("....light of the....")
e|----------------------|
B|---1-----1---1----1---|
G|-------0-------0------|
D|---0-------0----------|
A|----------------------|
E|----------------------|

    ("night....")
e|-------------------------------------------------------------|
B|---0-------1-------3--------/12----12--12----12----12--12----|
G|-------0-------0-------0---------0-------0-------0-------0---|
D|-------------------------------------------------------------|
A|-----------0-------2--------/10------10------10------10------|
E|---3---------------------------------------------------------|


e|----------(3)-------------(5)----------------------------------------|
B|---5-------8-------7-------10--------8-----8---8-----8-----8---8-----|
G|-------0-------0-------0-------0---------0-------0-------0-------0---|
D|---------------------------------------------------------------------|
A|---3-------4-------5-------6---------7-------7-------6-------6-------|
E|---------------------------------------------------------------------|


e|----------(3)---------------------------------------|
B|---7-------8-------5-----5---5------4-----4---4-----|
G|-------0-------0-------0-------0--------0-------0---|
D|----------------------------------------------------|
A|---5-------4-------3-------3--------3-------3-------|
E|----------------------------------------------------|

e|----------------------------------------------------------------------|
B|---3-----3---3-----2-----2---2------1-----1---1-------0-----0----0----|
G|-------0-------0-------0-------0--------0-------0---------0--------0--|
D|------------------------------------0-------0-------------------------|
A|---2-------2-------0-------0------------------------------------------|
E|------------------------------------------------------3--------3------|



     ("Blackbird fly....")
e|---------------------------------------------------------------------|
B|---10------8-------6-------5---------3-----3---3-----5-----5---5-----|
G|-------0-------0-------0-------0---------0-------0-------0-------0---|
D|---------------------------------------------------------------------|
A|---8-------7-------5-------3---------1-------1-------3-------3-------|
E|---------------------------------------------------------------------|

     ("Blackbird fly....")
e|---------------------------------------------------------------------|
B|---10------8-------6-------5---------3-----3---3-----2-----2---2-----|
G|-------0-------0-------0-------0---------0-------0-------0-------0---|
D|---------------------------------------------------------------------|
A|---8-------7-------5-------3---------1-------1-------0-------0-------|
E|---------------------------------------------------------------------|

    ("light of a ....")
e|----------------------|
B|---1-----1---1----1---|
G|-------0-------0------|
D|---0-------0----------|
A|----------------------|
E|----------------------|

    ("night....")
e|-------------------------------------------------------------|
B|---0-------1-------3--------/12----12--12----12----12--12----|
G|-------0-------0-------0---------0-------0-------0-------0---|
D|-------------------------------------------------------------|
A|-----------0-------2--------/10------10------10------10------|
E|---3---------------------------------------------------------|


                                                         (..churping..)
e|----------------------------------------------------------------------|
B|---12----12--12----12----12--12------12-----12----12----12~~~~~-------|
G|-------0-------0-------0-------0---------0-----0-----0---0~~~~~-------|
D|----------------------------------------------------------------------|
A|---10------10------10------10--------10-----10----10----10~~~~~-------|
E|----------------------------------------------------------------------|

e|------------------------------------------------------------------------|
B|-12\--0-------1-------3--------5-------3-------2--------1-----1---1-----|
G|----------0-------0-------0--------0-------0-------0--------0-------0---|
D|--------------------------------------------------------0-------0-------|
A|-10\----------0-------2--------3-------2-------0------------------------|
E|------3-----------------------------------------------------------------|



Verse: ("Blackbird singing....")
e|-------------------------------------------------------------|
B|---0-------1-------3--------/12----12--12----12----12--12----|
G|-------0-------0-------0---------0-------0-------0-------0---|
D|-------------------------------------------------------------|
A|-----------0-------2--------/10------10------10------10------|
E|---3---------------------------------------------------------|

    ("Take these....")
e|----------(3)-------------(5)-----------------------------------------|
B|---5-------8-------7-------10---------8-----8---8-----8-----8---8-----|
G|-------0-------0-------0-------0----------0-------0-------0-------0---|
D|----------------------------------------------------------------------|
A|---3-------4-------5-------6----------7-------7-------6-------6-------|
E|----------------------------------------------------------------------|

    ("All your life....")
e|----------(3)---------------------------------------|
B|---7-------8-------5-----5---5------4-----4---4-----|
G|-------0-------0-------0-------0--------0-------0---|
D|----------------------------------------------------|
A|---5-------4-------3-------3--------3-------3-------|
E|----------------------------------------------------|


    ("You were only....")
e|------------------------------------------------------------------------|
B|---3-----3---3-----2-----2---2--------1-----1---1------0-----0----0-----|
G|-------0-------0-------0-------0----------0-------0--------0--------0---|
D|--------------------------------------0-------0-------------------------|
A|---2-------2-------0-------0--------------------------------------------|
E|-------------------------------------------------------3--------3-------|

    ("You were only....")
e|------------------------------------------------------------------------|
B|---5-------3-------2-----2---2--------1-----1---1------0-----0----0-----|
G|-------0-------0-------0-------0----------0-------0--------0--------0---|
D|--------------------------------------0-------0-------------------------|
A|---3-------2-------0-------0--------------------------------------------|
E|-------------------------------------------------------3--------3-------|

    ("You were only....")
e|----------------------------------------------------------------------|
B|---5-------3-------2-----2---2--------1-----1---1-----0---0~~~~~------|
G|-------0-------0-------0-------0----------0-------0---0---0~~~~~------|
D|--------------------------------------0-------0-------0---0~~~~~------|
A|---3-------2-------0-------0------------------------------2~~~~~------|
E|------------------------------------------------------3---------------|

_____________________________________________________________________________



Piggies
The Beatles

INTRO:(NOTES) A B C# D B E   C# D E D C# B E

A                E                A                E
have you seen the little piggies crawilng in the dirt

A               E             F#                B
and for all the little piggies life is getting worse

F#             B       E
always having dirt to play aruond in


NOTES: A B C# A B E    C# D E D C# B E

A                 E                A                 E
have you seen the bigger piggies in their starched shirts

A                  E              F#               B
you will find the bigger piggies stirring up the dirt

F#            B     E
always have shirts to play around in


NOTES: A B C# A B E    A B C# D Eb E F

BRIDGE:

B                    C#
in their styes with all their backing

 D           A     E
they don't care what goes on around NOTES: E Ab A Bb B D B A G

B                  C#
in their eyes there's something  lacking

D                     E
what they need's  a damn good whacking!


NOTES: E D C# E    D C# B D   C# B A C#   B A Ab E   A B C# A   B C# D B
C# B A C#       B C# Eb B    C# B A C#    B C# Eb B   E E D D C# C# Bb

C# D E C# B E     C# D E D C# B E


A                   E               A              E
everywhere ther's lots of piggies living piggy lives

A                   E               F#                 B
you can see them out for dinner with their piggies wives

F#                      B   E
clutching forks and knives to eat their bacon

ENDING NOTES: C# D E C# B E    C D E D C B   C D E C   B C D B    A B C Eb E

_____________________________________________________________________________


The Beatles
Rocky Raccoon


The whole song is just about

Am7 -> D7sus4 -> D7 -> G7 -> C -> C/B


Am7
Now somewhere in the black mountain hills of Dakota,
              D7sus4                  D7        G7
There lived a young boy named Rocky Raccoon(na)
                                   C            C/B
And one day his woman ran off with another guy
                       Am7
Hit young Rocky in the eye
                              Dsus4                        D7
Rocky didn't like that he said      I'm gonna get that boy
       G7
so one day he walked into town
                             C             C/B
Booked himself a room in the local saloon
Am7                  Dsus4    D7
Rock Raccoon checked into his room
G7                     C    C/B
Only to find Gideon's bible
Am7                 Dsus4        D7
Rocky had come equipped with the gun
   G7                        C     C/B
to shoot off the legs of his rival


His rival it seems had broken his dreams
By stealing the girls of his fancy

Her name was Magill, and she called herself Lil
But everyone knew her as Nancy

Now she and her man who called himself Dan
Were in the next room at the hoe-down

Rocky burst in and grinning a grin
He said Danny boy this is a show down

Daniel was hot he drew first and shot
And Rocky collapsed in the corner

Da, da, da, da, da

Now the doctor came in stinking of gin
And proceeded to lie on the table

He said Rocky you met your match
And Rocky said, Doc it's only a scratch
And I'll be better
I'll be better doc as soon as I am able

And now Rocky Raccoon he fell back in his room
only to find Gideon's bible

Gideon checked out and he left it no doubt
To help with good Rocky's revival

Ah, oh yeah, yeah
Da, da, da, da

_____________________________________________________________________________


Don't Pass Me By
The Beatles





C
                     I listen for your footsteps coming up the drive,

F                                                G
Listen for your footsteps but they don't arrive, Waiting for your knock, dear

                      F                                                 C
on my old front door, I don't hear it.Does it mean you don't love me anymore?

  C                                             F
I hear the clock a-ticking on the mantle shelf, see the hands moving, But

              G
I'm myself. I wonder where you are tonight and why I'm myself. I don't

F                                          C
see you. Does it mean you don't love me anymore? Don't pass me by, don't

                                                 F
make me cry, don't make me blue 'cause you know, darling, I love only you.

             C
You'll never know it hurt me so. How I hate to see you go, Don't pass me by,

G    G+            F
     Don't make me cry.

    C                                         F
I'm sorry that I doubted you I was so unfair, You were in a car crash and

                        G
you lost your hair. You said that you would be late, About an hour or two.

       F                                                             C
I said that's all right, I'm waiting here, just waiting to hear from you.


Don't pass me by, don't

                                                 F
make me cry, don't make me blue 'cause you know, darling, I love only you.

             C
You'll never know it hurt me so. How I hate to see you go, Don't pass me by,

G                  F               C
     Don't make me cry.

_____________________________________________________________________________


Why Don’t We Do It In The Road
The Beatles

  			D
Why don't we do it in the road?

Why don't we do it in the road?
D7			G
Why don't we do it in the road?
G7			D7
Why don't we do it in the road?
A7
No one will be watching us,
G7			D7
Why don't we do it in the road?

Repeat three times

_____________________________________________________________________________


I Will
The Beatles

     C         Am         Dm        G7
Who knows how long I've loved you?
     C      Am        Em
You know I love you still
 C7     F       G      Am       C7
Will I wait a lonely lifetime?
C7      F      G      C     Am  Dm  G7
If you want me to, I will


C    Am     Dm        G7
If I ever saw you
    C      Am        Em
I didn't catch your name
C7     F       G      Am       C7
But it never really matters
C7        F     G       C     C7
I will always feel the same

[CHORUS]
   F          G     Am    C7
I love you forever and forever
F              G       C     C7
Love you with all my heart
F            G             Am
Love you whenever we're together
D7                    G
Love you when we're apart

C        Am         Dm        G7
When at last I find you
       B        Am       Em
Your song will fill the air
C7        F     G        Am      (F C)
Sing it loud so I can hear you
C7        F  G        Am      (F C)
Make it easy to be near you
         F        G     Am        C7
Al the things you do endear you to me
F        G      C
Oh you know I will

[chorus]

C        Am         Dm        G7
When at last I find you
       B        Am       Em
Your song will fill the air
C7        F     G        Am      (F C)
Sing it loud so I can hear you
C7        F  G        Am      (F C)
Make it easy to be near you
         F        G     Am        C7
Al the things you do endear you to me
F        G     Ab
Oh you know I will
   C
I will

(F  G  Am  C7  F  G  C)

_____________________________________________________________________________


Julia
The Beatles

Picking pattern:
E -x-----------|
B --------x----|
G ------x---x--|
D -x-----------|
A ---x---------|
E -------------|

CHORDS (use these ones for the real tone in the actual song. Believe me, you
wouldn’t sound like the song if you didn’t!):
D  Bm7 F#m  A   Am  Am(add9)  B  Gm(add9) Gm  C#m   Bm6 F#m7 F#m6
5   5   5   5   5   7         7   5        6   4     4   0    0
3   3   2   2   5   5         7   3        6   5     3   5    4
2   4   2   2   5   5         8   6        3   6     4   2    2
4   4   0   2   7   7         9   0        0   6     4   4    4
0   0   2   0   0   0         0   0        0   4     0   0    0
0   0   0   0   0   0	    0   0        0   0     0   0    0

F#m(add D) F#m7 Dmaj7
0           2     5
3           2     7
2           2     6
4           6     7
0           0     5
0           0     5

D              Bm7              F#m
Half of what I say is meaning less
D              Bm7              F#m    A
But I say it just to reach you Ju         lia
D   Bm7     Am   Am(add9)
Ju  lia…    Ju---lia…
B             Gm(add9)  Gm
Ocean child… Calls----- me
D             Bm7             F#m  A
So I sing the song of love--- Ju-------lia…
D         Bm7   Am       Am(add9)
Ju--------lia. Seashell   eyes
B
Windy smile
Gm(add9)     Gm
Calls--------me
D             Bm7             F#m  A    D
So I sing the song of love--- Ju-------lia…


C#m                         D               Bm7         Bm6
Her hair of floating sky is shimmering     glimmering
F#m         F#m6       F#m    F#7
In    the     sun----------
D   Bm7     Am   Am(add9)
Ju  lia…    Ju---lia…
B              Gm(add9)  Gm
Morning moon… Touch      me
D             Bm7             F#m  A    D
So I sing the song of love--- Ju-------lia…

D             Bm7            F#m A
When I cannon sing my heart
D            Bm7         F#m  A     D
I can only speak my mind Ju---------lia

D     Bm7   Am      Am(add9)
Ju----lia,  Ju-----lia
B	Gm(add9)  Gm
Ocean child.  Touch     me
D             Bm7             F#m  A    D
So I sing the song of love--- Ju-------lia…
D   Bm7   Am   Am(add9) B
         Mmmmm Mmmmmm
Gm(add9)  Gm
Calls     me
D             Bm7             F#m  A
So I sing the song of love--- Ju--lia…
F#m        A        Dmaj7
Ju-----------------lia

_____________________________________________________________________________


Birthday
The Beatles

Intro and verse riff.

3/8 means slide from fret 3 to fret 8

E-----------------------------------------------------------------------|
B-----------2----3----3/8----7---5--------------------------------------|
G--2---2------------------------------2---------------------------------|
D-----------------------------------------------------------------------|
A-----------------------------------------------------------------------|
E-----------------------------------------------------------------------|


E--------------------------------------------------------------------|
B------------2----3----3/8----7---5----------------------------------|
G--2---2--------------------------------2----------------------------|
D--------------------------------------------------------------------|
A--------------------------------------------------------------------|
E--------------------------------------------------------------------|


E------------------5---5/8----7----5----------------------------------|
B-------------6-------------------------------------------------------|
G--7----7-------------------------------7-----------------------------|
D---------------------------------------------------------------------|
A---------------------------------------------------------------------|
E---------------------------------------------------------------------|


E-------------------------------------------------------------------|
B---------------2----3----3/8----7----5-----------------------------|
G---2----2-----------------------------------2----------------------|
D-------------------------------------------------------------------|
A-------------------------------------------------------------------|
E-------------------------------------------------------------------|


E--------------------7----7/10----9----7-------------------------------|
B-------------9--------------------------------------------------------|
G---9---9------------------------------------7-------------------------|
D----------------------------------------------------------------------|
A----------------------------------------------------------------------|
E----------------------------------------------------------------------|


E----------------------------------------------------------------------|
B--------------2----3----3/8----7----5---------------------------------|
G---2----2----------------------------------2--------------------------|
D----------------------------------------------------------------------|
A----------------------------------------------------------------------|
E----------------------------------------------------------------------|


A
You say it's your birthday
A
It's my birthday too yeah
D
They say it's your birthday
A
We're gonna have a good time
E
I'm glad it's your birthday
A
Happy birthday to you

E
Yes we're going to a party party
E
Yes we're going to a party party
E
Yes we're going to a party party
C          G
I would like you to dance
C                            G
(Birthday)  Take a cha - cha -cha  chance
C                             G
(Birthday)  I would like you to dance
C                G
(Birthday)  Dance
E
     instrumental

A
You say it's your birthday
A
It's my birthday too yeah
D
They say it's your birthday
A
We're gonna have a good time
E
I'm glad it's your birthday
A
Happy birthday to you


(Fades out with the riff)

_____________________________________________________________________________


Yer Blues
The Beatles

Verse:
 E
||----------------------||
||---3-3-3--------------||
||---4-4-4--------------||
||-2--------5(7)5(7)5-2-||
||----------------------||
||----------------------||

 A
---------------------|
---3-3-3-------------|
---4-4-4-----------2-|
-2-------5(7)5(7)5---|
---------------------|
---------------------|

   E
--------------------------------|
---3-3-3----------------/3-3-3\-|
---4-4-4----------------/4-4-4\-|
-2--------5(7)5(7)5-2-----------|
--------------------------------|
--------------------------------|

 G                         B
-------------------7\5-4-3-2---|
-------------------------------|
----------------/8--\6-4-3-2---|
-------------5-----------------|
--------5-/7-------------------|
-3--5/7------------------------|

lyrics:

Ringo: One...Two...Three

        E
Yes I'm lonely wanna die
        A            E
Yes I'm lonely wanna die
   G
If I ain't dead already
B7                            E    A  E  B7
Ooh girl you know the reason why.

In the morning wanna die
In the evening wanna die
If I ain't dead already
Ooh girl you know the reason why.

Bridge:

E                         A E
My mother was of the sky
E                         A E
My father was of the earth
E                         A E
But I am of the universe
And you know what it's worth

||----------------------|
||-10(12)---8---8(9)----|
||------------9------9~-|
||----------------------|
||----------------------|
||----------------------|
A                E
I'm lonely wanna die
G
If I ain't dead already
B7                           E    A  E B7
Ooh girl you know the reason why.

The eagle picks my eye
The worm he licks my bone
I feel so suicidal
Just like Dylan's Mr. Jones
Lonely wanna die
If I ain't dead already
Ooh girl you know the reason why.

Black cloud crossed my mind
Blue mist round my soul
Feel so suicidal
Even hate my rock and roll
(swing beat)
Wanna die yeah wanna die
If I ain't dead already
Ooh girl you know the reason why.

(guitar solo)
   8x                4x                   4x
||----------------||-------------------||---------------------|
||----------------||-------------------||---------------------|
||-9h12-9h12-9h12-||-12h14-12h14-12h14-||-9h12-9h12-9h12-9h12-|
||-9h12-9h12-9h12-||-12h14-12h14-12h14-||-9h12-9h12-9h12-9h12-|
||----------------||-------------------||---------------------|
||----------------||-------------------||---------------------|

||--------------------------------------------------------|
||------------------12-9-12-9-----------------------------|
||-11~--9-9-11-11~--12-9-12-9--12-9-12--9-12-9------------|
||-11~--9-9-11-11~-------------12-9-12--9-12-9-12---------|
||---------------------------------------------12--10-----|
||----------------------------------------------------12~-|

||--------------------------------------------------------------|
||-15(17)-15(17)~--15(17)-15(17)~---15(17)-15(17)-15(17)-15(17)-|
||--------------------------------------------------------------|
||--------------------------------------------------------------|
||--------------------------------------------------------------|
||--------------------------------------------------------------|

||-15(17)-15(17)--15(17)-15(17)-15(17)-12~-|
||-----------------------------------------|
||-----------------------------------------|
||-----------------------------------------|
||-----------------------------------------|
||-----------------------------------------|

||------------------------------------------------------------|
||------------------------------------------------------------|
||-------------12-----12----12------12-14-14(16)-14(16)14-----|
||-------12h14----14-----14----14-----------------------------|
||-12h14------------------------------------------------------|
||------------------------------------------------------------|

||------------------------------|
||-15(17)15---------------------|
||----------14(16)14-12(13)-----|
||--------------------------14--|
||------------------------------|
||------------------------------|

(repeat 1st verse off mike)

_____________________________________________________________________________


Mother Nature’s Son
The Beatles
D = xx0232
Dsus4 = xx0233
Dadd9 = xx0430
Bm = 224432
D6add9 = 222232
E = 022100
A = 002220
A7 = 002020
Dm = xx0231
G = 320003
Dmaj7 = xx0222
D7 = xx0212
Gm = 355333

D     Dsus4       Dadd9   D    Bm     D6add9   E
Born a poor young country boy  Mother Nature's son
A       A7       A               A7             D    Dm  G  D  Dm  G  D
All day long I'm sitting singing songs for everyone

D    Dsus4   Dadd9    D       Bm      D6add9  E
Sit beside a mountain stream  See her waters rise
A      A7     A               A7            D   Dm  G  D
Listen to the pretty sound of music as she flies

      D           G           D
Do do do do do do do do do do do
D           G           D   Dmaj7  D7
do do do do do do do do do
                  G     Gm
Do do do do do do do do
            D
Yeah yeah yeah

D       Dsus4 Dadd9    D      Bm     D6add9   E
Find me in my field of grass  Mother Nature's son
A       A7      A           A7               D  Dm  G  D
Swaying daisies sing a lazy song beneath the sun

      D           G           D
Do do do do do do do do do do do
D           G           D   Dmaj7  D7
do do do do do do do do do
                  G     Gm
Do do do do do do do do
            D
Yeah yeah yeah

(Hum a verse with correct chords)

D  Dm   G              D
Oh    Mother Nature's Son

_____________________________________________________________________________



Everybody’s Got Something to Hide Exept Me and My Monkey
The Beatles
./. : Repeat the previous Chord and Measure of 4-counts.
A   : 577655
B7  : 797877
D   : 254232
E   : 076454
G   : 355433

Intro: |E    |./.   |./.   |./.   |

1:

E               |./.            |
Come on come on, come on come on.
./.                   |./.                  |
Come on is such a joy, come on is such a joy.
./.                     |./.
Come on is take it easy, come on is take it easy.

Chorus:

       |A    |./.         |D    |./.
Take it easy,      take it easy.
     |B7                     |./.
Every-body's got something to hide,
                    |E     D  |G    |E  G  |D
except for me and my monkey.

2:
   |E                 |./.
The deeper you go, the higher you fly.
   |./.                |./.
The higher you fly, the deeper you go.
       |./.      |./.    |
So come on,  come on.
./.                   |./.                  |
Come on is such a joy, come on is such a joy.
./.                     |./.
Come on is make it easy, come on is make it easy.

Chorus:

       |A    |./.         |D    |./.
Take it easy,      take it easy.
     |B7                     |./.
Every-body's got something to hide,
                    |E     D  |G    |E  G  |D
except for me and my monkey.

3:
    |E                      |./.
Your inside is out, and your outside is in.
    |./.                    |./.
Your outside is in, and your inside is out.
       |./.      |./.    |
So come on,  come on.
./.                   |./.                  |
Come on is such a joy, come on is such a joy.
./.                     |./.
Come on is make it easy, come on is make it easy.

Chorus:

       |A    |./.         |D    |./.
Make it easy,      take it easy.
     |B7                     |./.
Every-body's got something to hide,
                    |E     D  |G    |E  G  |D      |
except for me and my monkey.                Come on. (Repeat)

Outro:

E      |./.   |./.   |D    |./.   |./.   |
Come on.  (Repeat)   |

E       |: Fade Out
Come on.  (Repeat)

_____________________________________________________________________________



Sexy Sadie
The Beatles

CHORDS:
        G 3-5-5-4-3-3          F# 2-4-4-3-2-2           Am 5-7-7-5-5-5---|
        C X-3-2-0-1-0           F 1-3-3-2-1-1           Bm 7-9-9-7-7-7---|
        D 0-0-0-3-2-3         Bbm X-2-4-4-3-4           C2 8-10-10-9-8-8-|

	Play the little arpeggio with chord:

	 Bbm
	E-2----------2-------|
	B-3--------3---3-----|
	G-4------4-------4---|
	D-4----4-----------4-|
	A-2------------------|
	E--------------------|


INTRO: G C D G F# F D

       G     F#    Bbm
        Sexy Sadie    what have you done

       C           D             G    F#
        You made a  fool of everyone

       C           D             G    F#
        You made a  fool of everyone

             F       D
        Sexy Sadie ooh what have you done


        Sexy Sadie you broke the rules
        You layed it down for all to see
        You layed it down for all to see
        Sexy Sadie oooh you broke the rules


       G                  Am                      Bm     C2
        One sunny day the world was waiting for a lover

       G           Am                  Bm     C2
        She came along to turn on everyone

       Am              Ab               G
        Sexy Sadie the greatest of them all


        Sexy Sadie how did you know
        The world was waiting just for you
        The world was waiting just for you
        Sexy Sadie oooh how did you know

        Sexy Sadie you'll get yours yet
        However big you think you are
        However big you think you are
        Sexy Sadie oooh you'll get yours yet

        We gave her everything we owned just to sit at her table
        Just a smile would lighten everything
        Sexy Sadie she's the latest and the greatest of them all

        G F# Bbm C D G F#

       C           D            G    F#
        She made a fool of everyone

       F           D
        Sexy Sadie

        G F# Bbm C D G F#

       C        D                 G    F#
        However big you think you are

       F           D
        Sexy Sadie

        G F# Bbm C D G F# F D ... (and fade)

_____________________________________________________________________________


Helter Skelter
The Beatles

E
When I get to the bottom,

                            G
I go back to the top of the slide.

                                      A
Where I stop and turn, and i go for a ride.

                                         C
Till I get to the bottom, and I see you again.

            E
Yeah, yeah, yeah.


E
Do you, don't you, want me to love you?

E
I'm coming down fast, but I'm miles above you.

E                          G
Tell me, tell me, tell me. Come on tell me the answer.

         A                                     E
Well you may be a lover, but you ain't no dancer.


     A
Now, helter skelter,

E
helter skelter,

A
helter skelter.

E
Yeah, hu, hu.


E
I will you, won't you, want me to make you?

E
I'm coming down fast, but don't let me break you!

G
Tell me, tell me, tell me the answer.

    A                                  E
You may be a lover, but you ain't no dancer.


          A
Look out! Helter skelter,

E
helter skelter,

A
helter skelter.

E
Yeah, yeah, yeah.

          E
Look out! Cause she's here come.


E
When I get to the bottom,

                            G
I go back to the top of the slide.

                                     A
When I stop and turn, and I go for a ride.

                                       C
And I get to the bottom, and I see you again!

            E
Yeah, yeah, yeah.


     E
But, do you, wont you, want me to make you?

E
I'm coming down faster, don't let me break you.

G
Tell me, tell me, tell me your answer.

    A                                   E
You may be a lover, but you ain't no dancer.


          A
Look out! Helter skelter,

E
helter skelter,

A
helter skelter.

E
Yeah.


          A
Look out! Helter skelter,

A
She's coming down fast!

A
Yes she is,

A
yes she is.

A
Coming down fast.

A
(somethihg inaudable)

_____________________________________________________________________________


Long Long Long
The Beatles

CAPO 3RD FRET*

Intro

  Em           G        Em          D         A
E---------------------------------------------0-0-0-0-0-0--|
B-----------------------------------------3---2-2-2-2-2-2--|
G-----------h--------------------h-----2------2-2-2-2-2-2--|
D-------h--0-2-------2-------h--0-2-0---------2-2-2-2-2-2--|
A---h--0-2--------0------h--0-2---------------0-0-0-0-0-0--|
E--0-3---------3--------0-3--------------------------------|

Verses
(Capo 3rd Fret)

(Bb)G-320003
(Am)F#m-244222
(Gm)Em-022000
(F)D-xx0232
(C)A-x02220
(C7)A7-x02020

            G      F#m  Em     D
It's been a long   long   long time

E-------------------2--|
B-------------------3--|
G----------h-----2-----|
D------h--0-2-0--------|
A--h--0-2--------------|
E-0-3------------------|

A                     Em         D   A
How could I ever have lost you

Em     D      A    A7
When I  loved you

2nd Verse

It took a long long long time

Now I'm so happy I found you

How I love you

Bridge
G          D        A        Em
So many tears I was searching

G       D           A   Em  G  A  A
So many tears I was wasting oh oh

3rd verse
Now I can see you be you

how can I ever misplace you

how I want you

Coda
Em    D    A
oh I  love you

Em                D          Bb
  you know that I need you

Em    D    A    A
Ooh I love you

_____________________________________________________________________________


Honey Pie
The Beatles

Intro:
Em             A7      C            Cm    G
 She was a working girl Norht of England way
Em                       A7  C    Cm   G
Now she's hit the big time In the U.S.A....

A7                         A9  D7    C  D7   C    D
And if she could only hear me, this is what I’d say...

G                              Eb
Honey Pie you are making me crazy
E                  A7
I'm in love but I'm lazy
D7                           G Eb D7
 So won't you please come home.
    G                              Eb
Oh, Honey Pie my position is tragic
E                       A7 A7#11
 Come and show me the magic
D7                     G  F# F
 Of your Hollywood song.

E      A7                           G13        G7
    You became a legend of the silver screen
                C
And now the thought of meeting you
E7                     Am   D7 C D
Makes me weak in the knee.

    G                                  Eb
Oh, Honey Pie you are driving me frantic
E                     A7 D7                    G
 Sail across the Atlantic To be where you belong.
      Eb7     D7         G
Honey Pie come back to me
G Eb E A7 A7#11 D7 G    Eb D7    G
                 oooh, yeah
G                Eb  E                         A7
 I like it like that, Oohh, I like this kinda, hot kind of music.
D7                 A7               D7                       G F# F
Hot kind of music, play it to me, Play it to me Hollywood blues

G              A                        G       G7
Will the wind that blew her boat Across the sea
C                E7              Am  D7 C  D
Kindly send her sailing back to me

G                              Eb
Honey Pie you are making me crazy
E                  A7
I'm in love but I'm lazy
D7                           G Eb D7
 So won't you please come home.
        Eb7      D7
Come...
G Eb7 E7 A7 D7 D7 A7     D7 Am7 G
Ha ha ha, oo, oh, Honey Pie...

_____________________________________________________________________________


Savoy Truffle
The Beatles

E7           E                  E7
Cream tangerine and montelimat
F#                                   A
A ginger sling with a pineapple heart
G                                     B7
cofee dessert yes you know its good news
     Em                       A7               Em6        A7        Cmaj7  G
but you'll have to have them all pulled out after the savoy truffle


E7           E                  E7
Cool cherry cream nice apple tart
F#                                      A
I fell you taste all the time were a part
G                                         B7
coconut fudge really blows down those blues
     Em                       A7           Em6         A7           Cmaj7  G
but you'll have to have them all pulled out after the savoy truffle


Em                        A
you might night feel it now'
          Asus4        A                  G          B
when the pain cuts through you're gonna know and how
Em                               A
the sweat is gonna fill your head
         Asus4        A           G           B
when it becomes too much you'll shout outloud


solo    E4bars  F#2bars  A2bars  G2bars  B71 1/2

        Em                A7          Em6           A7        Cmaj7  G
But you'll have to have them all pulled out after the Savoy Truffle
    Em                     A
You know what you eat you are
             Asus4   A       G     B
but what is sweet now turns so sour
Em                   A
we all know Obadiblada
             Asus4  A      G     B
but can you show me where you are

E7           E             E7
Cream Tangerine and montelimat
F#                                 A
a ginger sling with a pineapple heart
G                                        B7
coffee dessert yes you know it's good news
            Em                A7             Em6       A7        Cmaj7  G
But you'll have to have them all pulled out after the savoy truffle
           Em                 A7             Em6       A7         C 7    G
Yes you'll have to have them all pulled out after the savoy truffle


Chords:

E7:020100
B7:x21202
A7:XX2010
Em6:022020
Cmaj7:x32000
Asus4:x022230

_____________________________________________________________________________


Cry Baby Cry
The Beatles

  G      Am   F                G
Cry baby cry make your mother sigh
      Em7                A7     F
she's old enough to know better

    Em      Em+7                  Em7
The king of Marigold was in the kitchen
        Em6                 C7  G
cooking breakfast for the queen
    Em               Em+7             Em7
The queen was in the parlour playing piano
            Em6          C7
For the children of the king

CHORUS:
 G       Am    F               G
Cry baby cry make your mother sigh
      Em7                   A7       F       G
she's old enough to know better so cry baby cry

The king was in the garden picking flowers
For a friend who came to play
The queen was in the playroom painting pictures
For the childrens holiday ...CHORUS

The duchess of Kircaldy always smiling
And arriving late for tea
The duke was having problems with a message
At the local bird and bee ...CHORUS

At twelve o'clock a meeting round the table
For a seance in the dark
With voices out of nowhere put on specially
By the children for a lark...CHORUS TWICE (end on Em)

 Fm
Can you take me back where are people, can you take me back
Can you take me back where are people, brother can you take me back
Can you take me back?
Oh can you take me where are people, can you take me back?

_____________________________________________________________________________


Good Night
The Beatles

Gmaj7 / Cmaj7 / Gmaj7 / Cmaj7
G / Bm7 / Am7 Am11 / D7sus4 D7

[G]Now it's [Bm7]time to [Am]say good [Am]night
[Bm7]Good [Am7]night [C/G]Sleep [D]tight
[G]Now the [Bm7]sun turns [Am7]out his [C/G]light
[Bm7]Good [Am7]night [Am7]Sleep [D]tight
[Gmaj7]Dream sweet [Cmaj7]dreams for [Gmaj7]me  [Cmaj7]
[G]Dream sweet [C]dreams for [G]you.[C]

[G]Close your [Bm7]eyes and [Am7]I'll close [Am7]mine
[Bm7]Good [Am7]night [C6]Sleep [D]tight
[G]Now the [Bm7]moon be[Am7]gins to [C/G]shine
[Bsus4]Good [Am]night [C/G]Sleep [D]tight
[B5]Dream sweet [Cmaj7]dreams for [B5]me [Cmaj7]
[G]Dream sweet [C]dreams for [G]you. [C]

G / C / A / Dm
G / C / D / C

[G]Close your [Bm7]eyes and [Am7]I'll close [Am7]mine
[Bm]Good [Am]night [Am7]Sleep [Dsus4]tight
[D]
[G]Now the [Bm7]sun turns [Am7]out his [C/G]light
[Bm]Good [Am]night [C/G]Sleep [D]tight
[Gmaj7]Dream sweet [Cmaj7]dreams for [Gmaj7]me [C] [C6]
[G]Dream sweet [C/G]dreams for [G]you. [Am7]

G / Bm7 / Am7 Am11 / D7sus4 / G /
/ C / C D / G~

Good night Good night Everybody
Everybody everywhere
Good night.

_____________________________________________________________________________


Hope you'll enjoy it!
comments
print report bad tab
I want to post or [tab]
guest
You may want to rate the tab now too:
select rating
Please do not post tabs as comments. Select "correction" instead!