Oops, an error
Loading. Please wait.

White Album Disc 2 Tab

ver1
ver1

Album

Whole song

More versions @911Tabs.com
18,232 views 48 this week
no commentswrite comment
1 2 3 4 5
excellent!
x 1
Autoscroll
+/-
esc
set tempo
stop
Contributor
Hey! There's an official Ultimate Guitar app which is ideal
for learning songs when you're away from computer. Get the app
WARNING: You are trying to view
                                    content from Ultimate-Guitar.com
                                    in an unauthorized application,
                                    which is prohibited.

                                    Please use an official Ultimate
                                    Guitar Tabs application for iPhone,
                                    iPad or Android to access legitimate
                                    chords, guitar, bass, and drum tabs
                                    from Ultimate-Guitar.com database.

                                    Type "ultimate guitar tabs" in Apple
                                    App Store's or Android Market's
                                    search to find the application.

               THE BEATLES (WHITE ALBUM) 2

            1  BIRTHDAY
            2  YER BLUES
            3  MOTHER NATURE'S SON
            4  EVERYBODY'S GOT SOMETHING TO HIDE EXCEPT ME AND MY MONKEY
            5  SEXY SADIE
            6  HELTER SKELTER
            7  LONG LONG LONG
            8  REVOLUTION 1
            9  HONEY PIE
           10  SAVOY TRUFFLE
           11  CRY BABY CRY
           12  REVOLUTION #9
           13  GOOD NIGHT


  -----------------------------------------------------------------

  THE BEATLES - BIRTHDAY (Lennon & McCartney) From the WHITE ALBUM.
                Released on 22nd November1968.

  -----------------------------------------------------------------

  Tabbed by:PJVillanueva


  You say it's your birthday
  It's my birthday too--yeah
  They say it's your birthday
  We're gonna have a good time
  I'm glad it's your birthday
  Happy birthday to you.

  Yes we're going to a party party
  Yes we're going to a party party
  Yes we're going to a party party.

  I would like you to dance--Birthday
  Take a cha-cha-cha-chance-Birthday
  I would like you to dance--Birthday
  Dance

  You say it's your birthday
  Well it's my birthday too--yeah
  You say it's your birthday
  We're gonna have a good time
  I'm glad it's your birthday
  Happy birthday to you.


                                                    x x   x   x x

  e|------- ------- ------- -------|------- ------- ------- -------|
  B|-------------------------------|-------------------------------|
  G|-------------------------------|-------------------------------|
  D|-------------------------------|-------------------------------|
  A|-------------------------------|-------------------------------|
  E|-------------------------------|-------------------------------|

    A
  e|------- ------- ------- -------|------- ------- ------- -------|
  B|-------------------------------|-------------------------------|
  G|------------9---11B12-11----9--|-------------------------------|
  D|7---7-9/11---------------------|7------------------------------|
  A|-------------------------------|-------------------------------|
  E|-------------------------------|-------------------------------|

  e|------- ------- ------- -------|------- ------- ------- -------|
  B|-------------------------------|-------------------------------|
  G|----------------0---2-------2--|-------------------------------|
  D|------------2------------------|-------------------------------|
  A|0---0-/-4----------------------|0------------------------------|
  E|-------------------------------|-------------------------------|

  e|------- ------- ------- -------|------- ------- ------- -------|
  B|-------------------------------|-------------------------------|
  G|------------9---11B12-11----9--|-------------------------------|
  D|7---7-9/11---------------------|7------------------------------|
  A|-------------------------------|-------------------------------|
  E|-------------------------------|-------------------------------|

  e|------- ------- ------- -------|------- ------- ------- -------|
  B|-------------------------------|-------------------------------|
  G|----------------0---2-------2--|-------------------------------|
  D|------------2------------------|-------------------------------|
  A|0---0-/-4----------------------|0------------------------------|
  E|-------------------------------|-------------------------------|

    D
  e|------- ------- ------- -------|------- ------- ------- -------|
  B|------------10--12B13-12----10-|-------------------------------|
  G|7---7-9/11---------------------|-------------------------------|
  D|-------------------------------|12-----------------------------|
  A|-------------------------------|-------------------------------|
  E|-------------------------------|-------------------------------|

  e|------- ------- ------- -------|------- ------- ------- -------|
  B|-------------------------------|-------------------------------|
  G|------------2-/-5---7-------7--|-------------------------------|
  D|0---0-/-4----------------------|0------------------------------|
  A|-------------------------------|-------------------------------|
  E|-------------------------------|-------------------------------|

    A
  e|------- ------- ------- -------|------- ------- ------- -------|
  B|-------------------------------|-------------------------------|
  G|------------9---11B12-11----9--|-------------------------------|
  D|7---7-9/11---------------------|7------------------------------|
  A|-------------------------------|-------------------------------|
  E|-------------------------------|-------------------------------|

  e|------- ------- ------- -------|------- ------- ------- -------|
  B|-------------------------------|-------------------------------|
  G|----------------0---2-------2--|-------------------------------|
  D|------------2------------------|-------------------------------|
  A|0---0-/-4----------------------|0------------------------------|
  E|-------------------------------|-------------------------------|

    E
  e|------- ------- ------- -------|------- ------- ------- -------|
  B|------------12--14B15-14----12-|-------------------------------|
  G|9---911/13---------------------|-------------------------------|
  D|-------------------------------|14-----------------------------|
  A|-------------------------------|-------------------------------|
  E|-------------------------------|-------------------------------|

  e|------- ------- ------- -------|------- ------- ------- -------|
  B|-------------------------------|-------------------------------|
  G|-------------------------------|-------------------------------|
  D|----------------0---2----------|-------------------------------|
  A|------------2------------------|-------------------------------|
  E|0---0---4----------------------|0------------------------------|

    A
  e|------- ------- ------- -------|------- ------- ------- -------|
  B|-------------------------------|-------------------------------|
  G|------------9---11B12-11----9--|-------------------------------|
  D|7---7-9/11---------------------|7------------------------------|
  A|-------------------------------|-------------------------------|
  E|-------------------------------|-------------------------------|

  e|------- ------- ------- -------|------- ------- ------- -------|
  B|-------------------------------|-------------------------------|
  G|----------------0---2-------2--|-------------------------------|
  D|------------2------------------|-------------------------------|
  A|0---0-/-4----------------------|0------------------------------|
  E|-------------------------------|-------------------------------|


    00:22

  e|------- ------- ------- -------|------- ------- ------- -------|
  B|-------------------------------|-------------------------------|
  G|------------9---11B12-11----9--|-------------------------------|
  D|7---7-9/11---------------------|7------------------------------|
  A|-------------------------------|-------------------------------|
  E|-------------------------------|-------------------------------|
                                You say it's    birthday
                                            your
  e|------- ------- ------- -------|------- ------- ------- -------|
  B|-------------------------------|-------------------------------|
  G|----------------0---2-------2--|-------------------------------|
  D|------------2------------------|-------------------------------|
  A|0---0-/-4----------------------|0------------------------------|
  E|-------------------------------|-------------------------------|


  e|------- ------- ------- -------|------- ------- ------- -------|
  B|-------------------------------|-------------------------------|
  G|------------9---11B12-11----9--|-------------------------------|
  D|7---7-9/11---------------------|7------------------------------|
  A|-------------------------------|-------------------------------|
  E|-------------------------------|-------------------------------|
                                It's    birthday        yeah
                                    my          too,
  e|------- ------- ------- -------|------- ------- ------- -------|
  B|-------------------------------|-------------------------------|
  G|----------------0---2-------2--|-------------------------------|
  D|------------2------------------|-------------------------------|
  A|0---0-/-4----------------------|0------------------------------|
  E|-------------------------------|-------------------------------|


    D
  e|------- ------- ------- -------|------- ------- ------- -------|
  B|------------10--12B13-12----10-|-------------------------------|
  G|7---7-9/11---------------------|-------------------------------|
  D|-------------------------------|12-----------------------------|
  A|-------------------------------|-------------------------------|
  E|-------------------------------|-------------------------------|
                                They    it's    birthday
                                    say     your
  e|------- ------- ------- -------|------- ------- ------- -------|
  B|-------------------------------|-------------------------------|
  G|------------2-/-5---7-------7--|-------------------------------|
  D|0---0-/-4----------------------|0------------------------------|
  A|-------------------------------|-------------------------------|
  E|-------------------------------|-------------------------------|


    A
  e|------- ------- ------- -------|------- ------- ------- -------|
  B|-------------------------------|-------------------------------|
  G|------------9---11B12-11----9--|-------------------------------|
  D|7---7-9/11---------------------|7------------------------------|
  A|-------------------------------|-------------------------------|
  E|-------------------------------|-------------------------------|
                                We're       have    good    time
                                    gonna       a
  e|------- ------- ------- -------|------- ------- ------- -------|
  B|-------------------------------|-------------------------------|
  G|----------------0-----------2--|-------------------------------|
  D|------------2------------------|-------------------------------|
  A|0---0-/-4----------------------|0------------------------------|
  E|-------------------------------|-------------------------------|


    E
  e|------- ------- ------- -------|------- ------- ------- -------|
  B|------------12--14B15-14----12-|-------------------------------|
  G|9---911/13---------------------|-------------------------------|
  D|-------------------------------|14-----------------------------|
  A|-------------------------------|-------------------------------|
  E|-------------------------------|-------------------------------|
                                I'm glad    your
                                        it's    birthday
  e|------- ------- ------- -------|------- ------- ------- -------|
  B|-------------------------------|-------------------------------|
  G|-------------------------------|-------------------------------|
  D|----------------0---2-------2--|-------------------------------|
  A|------------2------------------|-------------------------------|
  E|0---0---4----------------------|0------------------------------|


    A
  e|------- ------- ------- -------|------- ------- ------- -------|
  B|-------------------------------|-------------------------------|
  G|------------9---11B12-11----9--|-------------------------------|
  D|7---7-9/11---------------------|7------------------------------|
  A|-------------------------------|-------------------------------|
  E|-------------------------------|-------------------------------|
                            Happy   birthday    to      you
  e|------- ------- ------- -------|------- ------- ------- -------|
  B|-------------------------------|-------------------------------|
  G|----------------0---2-------2--|-------------------------------|
  D|------------2------------------|-------------------------------|
  A|0---0-/-4----------------------|0------------------------------|
  E|-------------------------------|-------------------------------|


    00:42
    X   x   X   x   X   x   X   x   X   x   X   x   X   x   X   x

  e|------- ------- ------- -------|------- ------- ------- -------|
  B|-------------------------------|-------------------------------|
  G|-------------------------------|-------------------------------|
  D|-------------------------------|-------------------------------|
  A|-------------------------------|-------------------------------|
  E|-------------------------------|-------------------------------|


    X   x   X   x   X   x   X   x   X   x   X   x   X   x   X   x

  e|------- ------- ------- -------|------- ------- ------- -------|
  B|-------------------------------|-------------------------------|
  G|-------------------------------|-------------------------------|
  D|-------------------------------|-------------------------------|
  A|-------------------------------|-------------------------------|
  E|-------------------------------|-------------------------------|


    X   x   X   x   X   x   X   x   X   x   X   x   X   x   X   x

  e|------- ------- ------- -------|------- ------- ------- -------|
  B|-------------------------------|-------------------------------|
  G|-------------------------------|-------------------------------|
  D|-------------------------------|-------------------------------|
  A|-------------------------------|-------------------------------|
  E|-------------------------------|-------------------------------|


    X   x   X   x   X   x   X   x   X   X   X   X   X   X   X   X

  e|------- ------- ------- -------|------- ------- ------- -------|
  B|-------------------------------|-------------------------------|
  G|-------------------------------|-------------------------------|
  D|-------------------------------|-------------------------------|
  A|-------------------------------|-------------------------------|
  E|-------------------------------|-------------------------------|


    00:56

  e|------- ------- ------- -------|------- ------- ------- -------|
  B|-------------------------------|-------------------------------|
  G|-------------------------------|-------------------------------|
  D|2---2---2---2---2---2---2---2--|2---2---2---2---2---2---2---2--|
  A|2---2---2---2---2---2---2---2--|2---2---2---2---2---2---2---2--|
  E|0---0---0---0---0---0---0---0--|0---0---0---0---0---0---0---0--|

  e|4---4-- ------- ------- ----4--|------- ------- ------- -------|
  B|5---5-----------------------5--|-------------------------------|
  G|4---4-----------------------4--|-------------------------------|
  D|-------------------------------|-------------------------------|
  A|-------------------------------|-------------------------------|
  E|-------------------------------|-------------------------------|


    E5
  e|------- ------- ------- -------|------- ------- ------- -------|
  B|-------------------------------|-------------------------------|
  G|-------------------------------|-------------------------------|
  D|2---2---2---2---2---2---2---2--|2---2---2---2---2---2---2---2--|
  A|2---2---2---2---2---2---2---2--|2---2---2---2---2---2---2---2--|
  E|0---0---0---0---0---0---0---0--|0---0---0---0---0---0---0---0--|
            Yes we're       to  a   party       party
                    going
  e|4------ ------- ------- ----4--|------- ------- ------- ----4--|
  B|5---------------------------5--|----------------------------5--|
  G|4---------------------------4--|----------------------------4--|
  D|-------------------------------|-------------------------------|
  A|-------------------------------|-------------------------------|
  E|-------------------------------|-------------------------------|

  e|------- ------- ------- -------|------- ------- ------- -------|
  B|-------------------------------|-------------------------------|
  G|-------------------------------|-------------------------------|
  D|2---2---2---2---2---2---2---2--|2---2---2---2---2---2---2---2--|
  A|2---2---2---2---2---2---2---2--|2---2---2---2---2---2---2---2--|
  E|0---0---0---0---0---0---0---0--|0---0---0---0---0---0---0---0--|
            Yes we're       to  a   party       party
                    going
  e|------- ------- ------- ----4--|------- ------- ------- ----4--|
  B|----------------------------5--|----------------------------5--|
  G|----------------------------4--|----------------------------4--|
  D|-------------------------------|-------------------------------|
  A|-------------------------------|-------------------------------|
  E|-------------------------------|-------------------------------|

  e|------- ------- ------- -------|------- ------- ------- -------|
  B|-------------------------------|-------------------------------|
  G|-------------------------------|-------------------------------|
  D|2---2---2---2---2---2---2---2--|2---2---2---2---2---2---2---2--|
  A|2---2---2---2---2---2---2---2--|2---2---2---2---2---2---2---2--|
  E|0---0---0---0---0---0---0---0--|0---0---0---0---0---0---0---0--|
            Yes we're       to  a   party       party
                    going
  e|------- ------- ------- ----4--|------- ------- ----4-- -------|
  B|----------------------------5--|--------------------5----------|
  G|----------------------------4--|--------------------4----------|
  D|-------------------------------|-------------------------------|
  A|-------------------------------|-------------------------------|
  E|-------------------------------|-------------------------------|


    01:10
     C                               G7
  e|-8---8- -8---8- -8---8- -8---8-|-7---7- -7---7- -7---7- -7---7-|
  B|-8---8---8---8---8---8---8---8-|-8---8---8---8---8---8---8---8-|
  G|-9---9---9---9---9---9---9---9-|10--10--10--10--10--10--10--10-|
  D|10--10--10--10--10--10--10--10-|-9---9---9---9---9---9---9---9-|
  A|-------------------------------|-------------------------------|
  E|-------------------------------|-------------------------------|
                             I   would   you to  dance
                                    like
  e|------- ------- ------- -------|------- ------- ------- -------|
  B|-------------------------------|-------------------------------|
  G|-------------------------------|-------------------------------|
  D|----------------3---3---4---4--|5---5---3---3---2---2----------|
  A|3---3-/-7---7------------------|------------------------5---5--|
  E|-------------------------------|-------------------------------|

     C                               G7
  e|-8---8- -8---8- -8---8- -8---8-|-7---7- -7---7- -7---7- -7---7-|
  B|-8---8---8---8---8---8---8---8-|-8---8---8---8---8---8---8---8-|
  G|-9---9---9---9---9---9---9---9-|10--10--10--10--10--10--10--10-|
  D|10--10--10--10--10--10--10--10-|-9---9---9---9---9---9---9---9-|
  A|-------------------------------|-------------------------------|
  E|-------------------------------|-------------------------------|
                             Take   cha  cha cha chance
   (Birthday)                    a
  e|------- ------- ------- -------|------- ------- ------- -------|
  B|-------------------------------|-------------------------------|
  G|-------------------------------|-------------------------------|
  D|----------------3---3---4---4--|5---5---3---3---2---2----------|
  A|3---3-/-7---7------------------|------------------------5---5--|
  E|-------------------------------|-------------------------------|

     C                               G7
  e|-8---8- -8---8- -8---8- -8---8-|-7---7- -7---7- -7---7- -7---7-|
  B|-8---8---8---8---8---8---8---8-|-8---8---8---8---8---8---8---8-|
  G|-9---9---9---9---9---9---9---9-|10--10--10--10--10--10--10--10-|
  D|10--10--10--10--10--10--10--10-|-9---9---9---9---9---9---9---9-|
  A|-------------------------------|-------------------------------|
  E|-------------------------------|-------------------------------|
                             I   would   you to  dance
    (Birthday)                      like
  e|------- ------- ------- -------|------- ------- ------- -------|
  B|-------------------------------|-------------------------------|
  G|-------------------------------|-------------------------------|
  D|----------------3---3---4---4--|5---5---3---3---2---2----------|
  A|3---3-/-7---7------------------|------------------------5---5--|
  E|-------------------------------|-------------------------------|

     C                               G7
  e|-8---8- -8---8- -8---8- -8---8-|-7---7- -7---7- -7---7- -7---7-|
  B|-8---8---8---8---8---8---8---8-|-8---8---8---8---8---8---8---8-|
  G|-9---9---9---9---9---9---9---9-|10--10--10--10--10--10--10--10-|
  D|10--10--10--10--10--10--10--10-|-9---9---9---9---9---9---9---9-|
  A|-------------------------------|-------------------------------|
  E|-------------------------------|-------------------------------|
                                      Dance
   (Birthday)
  e|------- ------- ------- -------|------- ------- ------- -------|
  B|-------------------------------|-------------------------------|
  G|-------------------------------|-------------------------------|
  D|----------------3---3---4---4--|5---5---6---6---7---7---8---8--|
  A|3---3-/-7---7------------------|-------------------------------|
  E|-------------------------------|-------------------------------|

    E                               Esus4
  e|4---4-- 4---4-- 4---4-- 4---4--|5---5-- 5---4-- 4---4-- 4---4--|
  B|5---5---5---5---5---5---5---5--|5---5---5---5---5---5---5---5--|
  G|4---4---4---4---4---4---4---4--|4---4---4---4---4---4---4---4--|
  D|-------------------------------|-------------------------------|
  A|-------------------------------|-------------------------------|
  E|-------------------------------|-------------------------------|
    E5
  e|------- ------- ------- -------|------- ------- ------- -------|
  B|-------------------------------|-------------------------------|
  G|-------------------------------|-------------------------------|
  D|2---2---2---2---2---2---2---2--|2---2---2---2---2---2---2---2--|
  A|2---2---2---2---2---2---2---2--|2---2---2---2---2---2---2---2--|
  E|0---0---0---0---0---0---0---0--|0---0---0---0---0---0---0---0--|

  e|------- ------- ------- ----12-|------- 12----- ----12- -------|
  B|----------------------------15B17-------15B17-------15B17------|
  G|-------------------------------|-------------------------------|
  D|9---9---9---9------------------|-------------------------------|
  A|-------------------------------|-------------------------------|
  E|-------------------------------|-------------------------------|


    01:27
    A
  e|------- ------- ------- -------|------- ------- ------- -------|
  B|-------------------------------|-------------------------------|
  G|------------9---11B12-11----9--|-------------------------------|
  D|7---7-9/11---------------------|7------------------------------|
  A|-------------------------------|-------------------------------|
  E|-------------------------------|-------------------------------|

  e|------- ------- ------- -------|------- ------- ------- -------|
  B|-------------------------------|-------------------------------|
  G|----------------0---2-------2--|-------------------------------|
  D|------------2------------------|-------------------------------|
  A|0---0-/-4----------------------|0------------------------------|
  E|-------------------------------|-------------------------------|

  e|------- ------- ------- -------|-----9- ----10- --8/9-- -------|
  B|-------------------------------|----10------10----910-------10-|
  G|-------------------------------|-----9------11----8/9----------|
  D|-------------------------------|-------------------------------|
  A|-------------------------------|-------------------------------|
  E|-------------------------------|-------------------------------|


  e|------- ------- ------- -------|------- ------- ------- -------|
  B|-------------------------------|-------------------------------|
  G|------------9---11B12-11----9--|-------------------------------|
  D|7---7-9/11---------------------|7------------------------------|
  A|-------------------------------|-------------------------------|
  E|-------------------------------|-------------------------------|

  e|------- ------- ------- -------|------- ------- ------- -------|
  B|-------------------------------|-------------------------------|
  G|----------------0---2-------2--|-------------------------------|
  D|------------2------------------|-------------------------------|
  A|0---0-/-4----------------------|0------------------------------|
  E|-------------------------------|-------------------------------|

  e|------- ------- ------- -------|-----9- ----10- --8/9-- -------|
  B|-------------------------------|----10------10----910-------10-|
  G|-------------------------------|-----9------11----8/9----------|
  D|-------------------------------|-------------------------------|
  A|-------------------------------|-------------------------------|
  E|-------------------------------|-------------------------------|

    D
  e|------- ------- ------- -------|------- ------- ------- -------|
  B|------------10--12B13-12----10-|-------------------------------|
  G|7---7-9/11---------------------|-------------------------------|
  D|-------------------------------|12-----------------------------|
  A|-------------------------------|-------------------------------|
  E|-------------------------------|-------------------------------|

  e|------- ------- ------- -------|------- ------- ------- -------|
  B|-------------------------------|-------------------------------|
  G|------------2-/-5---7-------7--|-------------------------------|
  D|0---0-/-4----------------------|0------------------------------|
  A|-------------------------------|-------------------------------|
  E|-------------------------------|-------------------------------|

  e|------- ------- ------- -------|----10- ----10- --9/10- -------|
  B|-------------------------------|----10------12----9/10---------|
  G|-------------------------------|----11------12---10/11---------|
  D|-------------------------------|----------------------------12-|
  A|-------------------------------|-------------------------------|
  E|-------------------------------|-------------------------------|


    A
  e|------- ------- ------- -------|------- ------- ------- -------|
  B|-------------------------------|-------------------------------|
  G|------------9---11B12-11----9--|-------------------------------|
  D|7---7-9/11---------------------|7------------------------------|
  A|-------------------------------|-------------------------------|
  E|-------------------------------|-------------------------------|

  e|------- ------- ------- -------|------- ------- ------- -------|
  B|-------------------------------|-------------------------------|
  G|----------------0---2-------2--|-------------------------------|
  D|------------2------------------|-------------------------------|
  A|0---0-/-4----------------------|0------------------------------|
  E|-------------------------------|-------------------------------|

  e|------- ------- ------- -------|-----9- ----10- --8/9-- -------|
  B|-------------------------------|----10------10----910-------10-|
  G|-------------------------------|-----9------11----8/9----------|
  D|-------------------------------|-------------------------------|
  A|-------------------------------|-------------------------------|
  E|-------------------------------|-------------------------------|


    E
  e|------- ------- ------- -------|------- ------- ------- -------|
  B|------------12--14B15-14----12-|-------------------------------|
  G|9---911/13---------------------|-------------------------------|
  D|-------------------------------|14-----------------------------|
  A|-------------------------------|-------------------------------|
  E|-------------------------------|-------------------------------|

  e|------- ------- ------- -------|------- ------- ------- -------|
  B|-------------------------------|-------------------------------|
  G|-------------------------------|-------------------------------|
  D|----------------0---2-------2--|-------------------------------|
  A|------------2------------------|-------------------------------|
  E|0---0---4----------------------|0------------------------------|

  e|------- ------- ------- -------|----7-- -----9- --6/7-- -------|
  B|-------------------------------|----9-------10----8/9----------|
  G|-------------------------------|----9--------9----8/9-------9--|
  D|-------------------------------|-------------------------------|
  A|-------------------------------|-------------------------------|
  E|-------------------------------|-------------------------------|


    A
  e|------- ------- ------- -------|------- ------- ------- -------|
  B|-------------------------------|-------------------------------|
  G|------------9---11B12-11----9--|-------------------------------|
  D|7---7-9/11---------------------|7------------------------------|
  A|-------------------------------|-------------------------------|
  E|-------------------------------|-------------------------------|

  e|------- ------- ------- -------|------- ------- ------- -------|
  B|-------------------------------|-------------------------------|
  G|----------------0---2-------2--|-------------------------------|
  D|------------2------------------|-------------------------------|
  A|0---0-/-4----------------------|0------------------------------|
  E|-------------------------------|-------------------------------|

  e|------- ------- ------- -------|-----9- ----10- --8/9-- -------|
  B|-------------------------------|----10------10----910-------10-|
  G|-------------------------------|-----9------11----8/9----------|
  D|-------------------------------|-------------------------------|
  A|-------------------------------|-------------------------------|
  E|-------------------------------|-------------------------------|

    01:48

  e|5------ ------- ------- -------|------- ------- ------- -------|
  B|----5-------8-------8B10--R--8-|5------------------------------|
  G|-------------------------------|----7---5----------------------|
  D|-------------------------------|------------7---5--------------|
  A|-------------------------------|-------------------------------|
  E|-------------------------------|-------------------------------|


  e|------- ------- ----5-- ----8--10B12R10 8108--- ------- -------|
  B|----5-------8------------------|------------10--8--------------|
  G|-------------------------------|-------------------------------|
  D|7------------------------------|-------------------------------|
  A|-------------------------------|-------------------------------|
  E|-------------------------------|-------------------------------|

    01:55
     C                               G7
  e|-8---8- -8---8- -8---8- -8---8-|-7---7- -7---7- -7---7- -7---7-|
  B|-8---8---8---8---8---8---8---8-|-8---8---8---8---8---8---8---8-|
  G|-9---9---9---9---9---9---9---9-|10--10--10--10--10--10--10--10-|
  D|10--10--10--10--10--10--10--10-|-9---9---9---9---9---9---9---9-|
  A|-------------------------------|-------------------------------|
  E|-------------------------------|-------------------------------|
                             I   would   you to  dance
                                    like
  e|------- ------- ------- -------|------- ------- ------- -------|
  B|-------------------------------|-------------------------------|
  G|-------------------------------|-------------------------------|
  D|----------------3---3---4---4--|5---5---3---3---2---2----------|
  A|3---3-/-7---7------------------|------------------------5---5--|
  E|-------------------------------|-------------------------------|

     C                               G7
  e|-8---8- -8---8- -8---8- -8---8-|-7---7- -7---7- -7---7- -7---7-|
  B|-8---8---8---8---8---8---8---8-|-8---8---8---8---8---8---8---8-|
  G|-9---9---9---9---9---9---9---9-|10--10--10--10--10--10--10--10-|
  D|10--10--10--10--10--10--10--10-|-9---9---9---9---9---9---9---9-|
  A|-------------------------------|-------------------------------|
  E|-------------------------------|-------------------------------|
                             Take   cha  cha cha chance
   (Birthday)                       a
  e|------- ------- ------- -------|------- ------- ------- -------|
  B|-------------------------------|-------------------------------|
  G|-------------------------------|-------------------------------|
  D|----------------3---3---4---4--|5---5---3---3---2---2----------|
  A|3---3-/-7---7------------------|------------------------5---5--|
  E|-------------------------------|-------------------------------|

     C                               G7
  e|-8---8- -8---8- -8---8- -8---8-|-7---7- -7---7- -7---7- -7---7-|
  B|-8---8---8---8---8---8---8---8-|-8---8---8---8---8---8---8---8-|
  G|-9---9---9---9---9---9---9---9-|10--10--10--10--10--10--10--10-|
  D|10--10--10--10--10--10--10--10-|-9---9---9---9---9---9---9---9-|
  A|-------------------------------|-------------------------------|
  E|-------------------------------|-------------------------------|
                             I   would   you to  dance
   (Birthday)                       like
  e|------- ------- ------- -------|------- ------- ------- -------|
  B|-------------------------------|-------------------------------|
  G|-------------------------------|-------------------------------|
  D|----------------3---3---4---4--|5---5---3---3---2---2----------|
  A|3---3-/-7---7------------------|------------------------5---5--|
  E|-------------------------------|-------------------------------|

     C                               G7
  e|-8---8- -8---8- -8---8- -8---8-|-7---7- -7---7- -7---7- -7---7-|
  B|-8---8---8---8---8---8---8---8-|-8---8---8---8---8---8---8---8-|
  G|-9---9---9---9---9---9---9---9-|10--10--10--10--10--10--10--10-|
  D|10--10--10--10--10--10--10--10-|-9---9---9---9---9---9---9---9-|
  A|-------------------------------|-------------------------------|
  E|-------------------------------|-------------------------------|
                                             Dance
   (Birthday)
  e|------- ------- ------- -------|------- ------- ------- -------|
  B|-------------------------------|-------------------------------|
  G|-------------------------------|-------------------------------|
  D|----------------3---3---4---4--|5---5---6---6---7---7---8---8--|
  A|3---3-/-7---7------------------|-------------------------------|
  E|-------------------------------|-------------------------------|

    E                               Esus4
  e|4---4-- 4---4-- 4---4-- 4---4--|5---5-- 5---4-- 4---4-- 4---4--|
  B|5---5---5---5---5---5---5---5--|5---5---5---5---5---5---5---5--|
  G|4---4---4---4---4---4---4---4--|4---4---4---4---4---4---4---4--|
  D|-------------------------------|-------------------------------|
  A|-------------------------------|-------------------------------|
  E|-------------------------------|-------------------------------|
    E5
  e|------- ------- ------- -------|------- ------- ------- -------|
  B|-------------------------------|-------------------------------|
  G|-------------------------------|-------------------------------|
  D|2---2---2---2---2---2---2---2--|2---2---2---2---2---2---2---2--|
  A|2---2---2---2---2---2---2---2--|2---2---2---2---2---2---2---2--|
  E|0---0---0---0---0---0---0---0--|0---0---0---0---0---0---0---0--|

  e|------- ------- ------- ----12-|------- 12----- ----12- -------|
  B|----------------------------15B17-------15B17-------15B17------|
  G|-------------------------------|-------------------------------|
  D|9---9---9---9------------------|-------------------------------|
  A|-------------------------------|-------------------------------|
  E|-------------------------------|-------------------------------|


    02:12
    A
  e|------- ------- ------- -------|------- ------- ------- -------|
  B|-------------------------------|-------------------------------|
  G|------------9---11B12-11----9--|-------------------------------|
  D|7---7-9/11---------------------|7------------------------------|
  A|-------------------------------|-------------------------------|
  E|-------------------------------|-------------------------------|
                                You say it's    birthday
                                            your
  e|------- ------- ------- -------|------- ------- ------- -------|
  B|-------------------------------|-------------------------------|
  G|----------------0---2-------2--|-------------------------------|
  D|------------2------------------|-------------------------------|
  A|0---0-/-4----------------------|0------------------------------|
  E|-------------------------------|-------------------------------|

  e|------- ------- ------- -------|-----9- ----10- --8/9-- -------|
  B|-------------------------------|----10------10----910-------10-|
  G|-------------------------------|-----9------11----8/9----------|
  D|-------------------------------|-------------------------------|
  A|-------------------------------|-------------------------------|
  E|-------------------------------|-------------------------------|


  e|------- ------- ------- -------|------- ------- ------- -------|
  B|-------------------------------|-------------------------------|
  G|------------9---11B12-11----9--|-------------------------------|
  D|7---7-9/11---------------------|7------------------------------|
  A|-------------------------------|-------------------------------|
  E|-------------------------------|-------------------------------|
                                It's    birthday        yeah
                                    my          too,
  e|------- ------- ------- -------|------- ------- ------- -------|
  B|-------------------------------|-------------------------------|
  G|----------------0---2-------2--|-------------------------------|
  D|------------2------------------|-------------------------------|
  A|0---0-/-4----------------------|0------------------------------|
  E|-------------------------------|-------------------------------|

  e|------- ------- ------- -------|-----9- ----10- --8/9-- -------|
  B|-------------------------------|----10------10----910-------10-|
  G|-------------------------------|-----9------11----8/9----------|
  D|-------------------------------|-------------------------------|
  A|-------------------------------|-------------------------------|
  E|-------------------------------|-------------------------------|

    D
  e|------- ------- ------- -------|------- ------- ------- -------|
  B|------------10--12B13-12----10-|-------------------------------|
  G|7---7-9/11---------------------|-------------------------------|
  D|-------------------------------|12-----------------------------|
  A|-------------------------------|-------------------------------|
  E|-------------------------------|-------------------------------|
                                You say it's    birthday
                                            your
  e|------- ------- ------- -------|------- ------- ------- -------|
  B|-------------------------------|-------------------------------|
  G|------------2-/-5---7-------7--|-------------------------------|
  D|0---0-/-4----------------------|0------------------------------|
  A|-------------------------------|-------------------------------|
  E|-------------------------------|-------------------------------|

  e|------- ------- ------- -------|----10- ----10- --9/10- -------|
  B|-------------------------------|----10------12----9/10---------|
  G|-------------------------------|----11------12---10/11---------|
  D|-------------------------------|----------------------------12-|
  A|-------------------------------|-------------------------------|
  E|-------------------------------|-------------------------------|

    A
  e|------- ------- ------- -------|------- ------- ------- -------|
  B|-------------------------------|-------------------------------|
  G|------------9---11B12-11----9--|-------------------------------|
  D|7---7-9/11---------------------|7------------------------------|
  A|-------------------------------|-------------------------------|
  E|-------------------------------|-------------------------------|

  e|------- ------- ------- -------|------- ------- ------- -------|
  B|-------------------------------|-------------------------------|
  G|----------------0---2-------2--|-------------------------------|
  D|------------2------------------|-------------------------------|
  A|0---0-/-4----------------------|0------------------------------|
  E|-------------------------------|-------------------------------|
                                We're       have    good    time
                                    gonna       a
  e|------- ------- ------- -------|-----9- ----10- --8/9-- -------|
  B|-------------------------------|----10------10----910-------10-|
  G|-------------------------------|-----9------11----8/9----------|
  D|-------------------------------|-------------------------------|
  A|-------------------------------|-------------------------------|
  E|-------------------------------|-------------------------------|

    E
  e|------- ------- ------- -------|------- ------- ------- -------|
  B|------------12--14B15-14----12-|-------------------------------|
  G|9---911/13---------------------|-------------------------------|
  D|-------------------------------|14-----------------------------|
  A|-------------------------------|-------------------------------|
  E|-------------------------------|-------------------------------|
                                I'm glad    your
                                        it's    birthday
  e|------- ------- ------- -------|------- ------- ------- -------|
  B|-------------------------------|-------------------------------|
  G|-------------------------------|-------------------------------|
  D|----------------0---2-------2--|-------------------------------|
  A|------------2------------------|-------------------------------|
  E|0---0---4----------------------|0------------------------------|

  e|------- ------- ------- -------|----7-- -----9- --6/7-- -------|
  B|-------------------------------|----9-------10----8/9----------|
  G|-------------------------------|----9--------9----8/9-------9--|
  D|-------------------------------|-------------------------------|
  A|-------------------------------|-------------------------------|
  E|-------------------------------|-------------------------------|


    A
  e|------- ------- ------- -------|------- ------- ------- -------|
  B|-------------------------------|-------------------------------|
  G|------------9---11B12-11-------|------------9---11B12-11-------|
  D|7---7-9/11------------------7--|----7-9/11------------------7--|
  A|-------------------------------|-------------------------------|
  E|-------------------------------|-------------------------------|
                           Happy    birthday    to      you
  e|------- ------- ------- -------|------- ------- ------- -------|
  B|-------------------------------|-------------------------------|
  G|----------------0--------------|----------------0--------------|
  D|------------2-------4----------|------------2-------4----------|
  A|0---0-/-4-------------------0--|----0-/-4-------------------0--|
  E|-------------------------------|-------------------------------|

  e|------- ------- ------- -------|-----9- ----10- --8/9-- -------|
  B|-------------------------------|----10------10----910-------10-|
  G|-------------------------------|-----9------11----8/9----------|
  D|-------------------------------|-------------------------------|
  A|-------------------------------|-------------------------------|
  E|-------------------------------|-------------------------------|

                                (.

  e|------- ------- ------- -------|
  B|-------------------------------|
  G|------------9---11B12-11-9-----|
  D|----7-9/11------------------7--|
  A|-------------------------------|
  E|-------------------------------|

  e|------- ------- ------- -------|
  B|-------------------------------|
  G|----------------0--------------|
  D|------------2-------4---2------|
  A|----0-/-4-------------------0--|
  E|-------------------------------|

  e|--------5------------------------------5--------------------|
  B|----------------5---------------5-------------5-------------|
  G|------------------------2----------------------------2------|
  D|------------------------------------------------------------|
  A|------------------------------------------------------------|
  E|------------------------------------------------------------|

  e|------------------------------------------------------------|
  B|5---------------5-------------------------------------------|
  G|--------2----------------2----------------------------------|
  D|------------------------------------------------------------|
  A|------------------------------------------------------------|
  E|------------------------------------------------------------|
    .......... Fade .................

        B  Bend
        R  Release
        /  slide up
        \  slide down
        H  hammer-on
        P  pull-off
        ~  vibrato
        +  harmonic
        x  Mute note
        . - play note like a dot in standard notation
        ^ - ties two notes together
        (. Pause

  -----------------------------------------------------------

  THE BEATLES - YER BLUES (Lennon & McCartney) From THE WHITE
                ALBUM. Released on 22nd November 1968.

  -----------------------------------------------------------

  Tabbed by:PJVillanueva


  Yes I'm lonely wanna die
  Yes I'm lonely wanna die
  If I ain't dead already
  Ooh girl you know the reason why.

  In the morning wanna die
  In the evening wanna die
  If I ain't dead already
  Ooh girl you know the reason why.

  My mother was of the sky
  My father was of the earth
  But I am of the universe
  And you know what it's worth
  I'm lonely wanna die
  If I ain't dead already
  Ooh girl you know the reason why.

  The eagle picks my eye
  The worm he licks my bone
  I feel so suicidal
  Just like Dylan's Mr. Jones
  Lonely wanna die
  If I ain't dead already
  Ooh girl you know the reason why.

  Black cloud crossed my mind
  Blue mist round my soul
  Feel so suicidal
  Even hate my rock and roll
  Wanna die yeah wanna die
  If I ain't dead already
  Ooh girl you know the reason why.


                                Two
e|--------- --------- ---------|--------- --------- ---------|
B|-----------------------------|-----------------------------|
G|-----------------------------|-----------------------------|
D|-----------------------------|-----------------------------|
A|-----------------------------|-----------------------------|
E|-----------------------------|-----------------------------|


  three                     x   x     x   x     x   x     x
e|--------- --------- ---------|--------- --------- ---------|
B|-----------------------------|-----------------------------|
G|-----------------------------|-----------------------------|
D|-----------------------------|-----------------------------|
A|-----------------------------|-----------------------------|
E|-----------------------------|-----------------------------|
                                          Yes,      I'm


  E
e|--------- --------- ---------|--------- --------- ---------|
B|-----------------------------|-----------------------------|
G|--------------------7--7--7--|7----------------------------|
D|--------------------9--9--9--|9----------------------------|
A|-----------------------------|-----------------------------|
E|-----------------------------|-----------------------------|
  lonely
e|--------- --------- ---------|--------- --------- ---------|
B|-----------------------------|-----------------------------|
G|-----------------------------|-----------------------------|
D|-----------------------------|----------5-------B-7---R-5--|
A|7----------------------------|-----------------------------|
E|-----------------------------|-----------------------------|


e|--------- --------- ---------|--------- --------- ---------|
B|-----------------------------|-----------------------------|
G|-----------------------------|-----------------------------|
D|-----------------------------|-----------------------------|
A|-----------------------------|-----------------------------|
E|-----------------------------|-----------------------------|
                                          Wanna
e|--------- --------- ---------|--------- --------- ---------|
B|-----------------------------|-----------------------------|
G|-----------------------------|-----------------------------|
D|-----------------------------|-----------------------------|
A|7----------------------------|-----------------------------|
E|-----------------------------|-----------------------------|

e|--------- --------- ---------|--------- --------- ---------|
B|-----------------------------|-----------------------------|
G|--------------------7--7--7--|7----------------------------|
D|--------------------9--9--9--|9----------------------------|
A|-----------------------------|-----------------------------|
E|-----------------------------|-----------------------------|
  die
e|--------- --------- ---------|--------- --------- ---------|
B|-----------------------------|-----------------------------|
G|-----------------------------|-----------------------------|
D|-----------------------------|5-B-7---------R-5-B-7---R-5--|
A|-----------------------------|-----------------------------|
E|-----------------------------|-----------------------------|


e|--------- --------- ---------|--------- --------- ---------|
B|-----------------------------|-----------------------------|
G|-----------------------------|-----------------------------|
D|-----------------------------|-----------------------------|
A|-----------------------------|-----------------------------|
E|-----------------------------|-----------------------------|
                                          Yes,      I'm
e|--------- --------- ---------|--------- --------- ---------|
B|-----------------------------|-----------------------------|
G|-----------------------------|-----------------------------|
D|-----------------------------|-----------------------------|
A|7----------------------------|-----------------------------|
E|-----------------------------|-----------------------------|

  A
e|--------- --------- ---------|--------- --------- ---------|
B|-----------------------------|-----------------------------|
G|--------------------7--7--7--|7----------------------------|
D|--------------------9--9--9--|9----------------------------|
A|-----------------------------|-----------------------------|
E|-----------------------------|-----------------------------|
  lonely
e|--------- --------- ---------|--------- --------- ---------|
B|-----------------------------|-----------------------------|
G|--------------------9--------|-----------------------------|
D|----------------9------------|5-B-7---------R-5-B-7---R-5-B|
A|7----------------------------|-----------------------------|
E|-----------------------------|-----------------------------|


e|--------- --------- ---------|--------- --------- ---------|
B|-----------------------------|-----------------------------|
G|-----------------------------|-----------------------------|
D|-----------------------------|-----------------------------|
A|-----------------------------|-----------------------------|
E|-----------------------------|-----------------------------|
                                          wanna
e|--------- --------- ---------|--------- --------- ---------|
B|-----------------------------|-----------------------------|
G|-----------------------------|-----------------------------|
D|-----------------------------|-----------------------------|
A|7----------------------------|-----------------------------|
E|-----------------------------|-----------------------------|

  E
e|--------- --------- ---------|--------- --------- ---------|
B|-----------------------------|-----------------------------|
G|--------------------7--7--7--|7----------------------------|
D|--------------------9--9--9--|9----------------------------|
A|-----------------------------|-----------------------------|
E|-----------------------------|-----------------------------|
  die
e|--------- --------- ---------|--------- --------- ---------|
B|-----------------------------|-----------------------------|
G|--------------------9--------|-----------------------------|
D|----------------9------------|5-B-7---------R-5-B-7---R-5--|
A|7----------------------------|-----------------------------|
E|-----------------------------|-----------------------------|


e|--------- --------- ---------|--------- --------- ---------|
B|-----------------------------|-----------------------------|
G|--------------------7--7--7--|7----------------------------|
D|--------------------6--6--6--|6----------------------------|
A|-----------------------------|-----------------------------|
E|-----------------------------|-----------------------------|
                                          If   I   ain't
e|--------- --------- ---------|--------- --------- ---------|
B|-----------------------------|-----------------------------|
G|-----------------------------|-----------------------------|
D|-----------------------------|-----------------------------|
A|7----------------------------|-----------------------------|
E|-----------------------------|-----------------------------|

  G
e|--------- --------- ---------|--------- --------- ---------|
B|-----------------------------|-----------------------------|
G|-----------------------------|--------------------------6-/|
D|-----------------------------|----------5------------------|
A|--------------------5--------|7-------------------7--------|
E|3------/--7------------------|-----------------------------|
     dead  already                                        Oooohh
e|--------- --------- ---------|--------- --------- ---------|
B|--------------------8--------|-----------------------------|
G|-----------------------------|-----------------------------|
D|-----------------------------|7--B--9----------------------|
A|-----------------------------|-----------------------------|
E|-----------------------------|-----------------------------|


  B
e|------7-\ 5-------- 4--------|3-----2-- --------- ---------|
B|------7-\-5---------4--------|3-----2----------------------|
G|8-------\-6---------4--------|3-----2----------------------|
D|-----------------------------|-----------------------------|
A|-----------------------------|-----------------------------|
E|-----------------------------|-----------------------------|
                                                Girl,     you

                      E7
e|--------- ---------|--------- --------- ---------|
B|-------------------|5----------------------------|
G|-------------------|7----------------------------|
D|-------------------|6----------------------------|
A|-------------------|7----------------------------|
E|-------------------|-----------------------------|
  know  the reason    why
e|--------- ---------|--------- --------- ---------|
B|-------------------|-----------------------------|
G|-------------------|--------------------9--------|
D|-------------------|----------------9------------|
A|-------------------|7----------------------------|
E|-------------------|-----------------------------|


  A7                            E7
e|--------- --------- ---------|--------- --------- ---------|
B|5----------------------------|5----------------------------|
G|6----------------------------|7----------------------------|
D|5----------------------------|6----------------------------|
A|0----------------------------|7----------------------------|
E|-----------------------------|-----------------------------|

e|--------- --------- ---------|--------- --------- ---------|
B|-----------------------------|-----------------------------|
G|-----------------------------|-----------------------------|
D|5-B-7---------R-5-B-7--R--5--|-----------------------------|
A|-----------------------------|7---------------5------------|
E|-----------------------------|--------------------7--------|

  B7
e|--------- --------- ---------|
B|-----------------------------|
G|8----------------------------|
D|7----------------------------|
A|9----------------------------|
E|7----------------------------|
            In        the  morning
e|--------- --------- ---------|
B|-----------------------------|
G|-----------------------------|
D|-----------------------------|
A|-----------------------------|
E|7---------7---------7--------|

e|--------- --------- ---------|--------- --------- ---------|
B|-----------------------------|-----------------------------|
G|--------------------7--7--7--|7----------------------------|
D|--------------------9--9--9--|9----------------------------|
A|-----------------------------|-----------------------------|
E|-----------------------------|-----------------------------|

e|--------- --------- ---------|--------- --------- ---------|
B|-----------------------------|-----------------------------|
G|-----------------------------|-----------------------------|
D|-----------------------------|----------5-------B-7---R-5--|
A|7----------------------------|-----------------------------|
E|-----------------------------|-----------------------------|


e|--------- --------- ---------|--------- --------- ---------|
B|-----------------------------|-----------------------------|
G|-----------------------------|-----------------------------|
D|-----------------------------|-----------------------------|
A|-----------------------------|-----------------------------|
E|-----------------------------|-----------------------------|
                                          Wanna
e|--------- --------- ---------|--------- --------- ---------|
B|-----------------------------|-----------------------------|
G|-----------------------------|-----------------------------|
D|-----------------------------|-----------------------------|
A|7----------------------------|-----------------------------|
E|-----------------------------|-----------------------------|

e|--------- --------- ---------|--------- --------- ---------|
B|-----------------------------|-----------------------------|
G|--------------------7--7--7--|7----------------------------|
D|--------------------9--9--9--|9----------------------------|
A|-----------------------------|-----------------------------|
E|-----------------------------|-----------------------------|
  die
e|--------- --------- ---------|--------- --------- ---------|
B|-----------------------------|-----------------------------|
G|--------------------9--------|-----------------------------|
D|----------------9------------|5-B-7---------R-5-B-7---R-5--|
A|7----------------------------|-----------------------------|
E|-----------------------------|-----------------------------|


e|--------- --------- ---------|--------- --------- ---------|
B|-----------------------------|-----------------------------|
G|-----------------------------|-----------------------------|
D|-----------------------------|-----------------------------|
A|-----------------------------|-----------------------------|
E|-----------------------------|-----------------------------|
                                          In        the  evening
e|--------- --------- ---------|--------- --------- ---------|
B|-----------------------------|-----------------------------|
G|-----------------------------|-----------------------------|
D|-----------------------------|-----------------------------|
A|7----------------------------|-----------------------------|
E|-----------------------------|-----------------------------|

  A
e|--------- --------- ---------|--------- --------- ---------|
B|-----------------------------|-----------------------------|
G|--------------------7--7--7--|7----------------------------|
D|--------------------9--9--9--|9----------------------------|
A|-----------------------------|-----------------------------|
E|-----------------------------|-----------------------------|

e|--------- --------- ---------|--------- --------- ---------|
B|-----------------------------|-----------------------------|
G|-----------------------------|-----------------------------|
D|-----------------------------|5-B-7---------R-5-B-7---R-5-B|
A|-----------------------------|-----------------------------|
E|-----------------------------|-----------------------------|


e|--------- --------- ---------|--------- --------- ---------|
B|-----------------------------|-----------------------------|
G|-----------------------------|-----------------------------|
D|-----------------------------|-----------------------------|
A|-----------------------------|-----------------------------|
E|-----------------------------|-----------------------------|
                                          wanna
e|--------- --------- ---------|--------- --------- ---------|
B|-----------------------------|-----------------------------|
G|-----------------------------|-----------------------------|
D|-----------------------------|-----------------------------|
A|7----------------------------|-----------------------------|
E|-----------------------------|-----------------------------|

  E
e|--------- --------- ---------|--------- --------- ---------|
B|-----------------------------|-----------------------------|
G|--------------------7--7--7--|7----------------------------|
D|--------------------9--9--9--|9----------------------------|
A|-----------------------------|-----------------------------|
E|-----------------------------|-----------------------------|
  die
e|--------- --------- ---------|--------- --------- ---------|
B|-----------------------------|-----------------------------|
G|--------------------9--------|-----------------------------|
D|----------------9------------|5-B-7---------R-5-B-7---R-5--|
A|7----------------------------|-----------------------------|
E|-----------------------------|-----------------------------|


e|--------- --------- ---------|--------- --------- ---------|
B|-----------------------------|-----------------------------|
G|--------------------7--7--7--|7----------------------------|
D|--------------------9--9--9--|9----------------------------|
A|-----------------------------|-----------------------------|
E|-----------------------------|-----------------------------|
                                          If   I   ain't
e|--------- --------- ---------|--------- --------- ---------|
B|-----------------------------|-----------------------------|
G|-----------------------------|-----------------------------|
D|-----------------------------|-----------------------------|
A|7----------------------------|-----------------------------|
E|-----------------------------|-----------------------------|

  G
e|--------- --------- ---------|--------- --------- ---------|
B|-----------------------------|-----------------------------|
G|-----------------------------|--------------------------6-/|
D|-----------------------------|----------5------------------|
A|--------------------5-----5-H|7-------------------7--------|
E|3------/--7------------------|-----------------------------|
     dead  already                                        Oooohh
e|--------- --------- ---------|--------- --------- ---------|
B|--------------------8--------|-----------------------------|
G|-----------------------------|7--B--9----------------------|
D|-----------------------------|-----------------------------|
A|-----------------------------|-----------------------------|
E|-----------------------------|-----------------------------|

  B
e|------7-\ 5-------- 4--------|3-----2-- --------- ---------|
B|------7-\-5---------4--------|3-----2----------------------|
G|8-------\-6---------4--------|3-----2----------------------|
D|-----------------------------|-----------------------------|
A|-----------------------------|-----------------------------|
E|-----------------------------|-----------------------------|
                                                Girl,     you


                      E7
e|--------- ---------|--------- --------- ---------|
B|-------------------|5----------------------------|
G|-------------------|7----------------------------|
D|-------------------|6----------------------------|
A|-------------------|7----------------------------|
E|-------------------|-----------------------------|
  know  the reason    why
e|--------- ---------|--------- --------- ---------|
B|-------------------|-----------------------------|
G|-------------------|--------------------9--------|
D|-------------------|----------------9------------|
A|-------------------|7----------------------------|
E|-------------------|-----------------------------|


  A7                            E7
e|--------- --------- ---------|--------- --------- ---------|
B|5----------------------------|5----------------------------|
G|6----------------------------|7----------------------------|
D|5----------------------------|6----------------------------|
A|0----------------------------|7----------------------------|
E|-----------------------------|-----------------------------|

e|--------- --------- ---------|--------- --------- ---------|
B|-----------------------------|-----------------------------|
G|-----------------------------|-----------------------------|
D|5-B-7---------R-5-B-7--R--5--|-----------------------------|
A|-----------------------------|7---------------5---------5--|
E|-----------------------------|--------------------7--------|


  B7
e|--------- --------- ---------|
B|-----------------------------|
G|8---------------8------------|
D|7---------------7------------|
A|9---------------9------------|
E|7---------------7------------|
                      My
e|--------- --------- ---------|
B|-----------------------------|
G|-----------------------------|
D|-----------------------------|
A|-----------------------------|
E|7----------------------------|


  E                    A6     E                    A6
e|0----- ------ ------ 2-----|0----- ------ ------ 2-----|
B|0--------------------2-----|0--------------------2-----|
G|1--------------------2-----|1--------------------2-----|
D|2--------------------2-----|2--------------------2-----|
A|2--------------------0-----|2--------------------0-----|
E|0--------------------------|0--------------------------|
  mother was of the sky   My  father was of the earth, but


  E
e|0----- ------ ------ ------|
B|0--------------------------|
G|1--------------------------|
D|2--------------------------|
A|2--------------------------|
E|0--------------------------|
  I am of the universe    and

e|--------- --------- ---------|--------- --------- ---------|
B|10B12---------------8-B-9----|-----------------------------|
G|-----------------------------|-----------------------------|
D|-----------------------------|-----------------------------|
A|-----------------------------|-----------------------------|
E|-----------------------------|-----------------------------|
  you    know         what it's worth                  I'm


  A
e|--------- --------- ---------|--------- --------- ---------|
B|-----------------------------|-----------------------------|
G|--------------------7--7--7--|7----------------------------|
D|--------------------9--9--9--|9----------------------------|
A|-----------------------------|-----------------------------|
E|-----------------------------|-----------------------------|
  lonely
e|--------- --------- ---------|--------- --------- ---------|
B|-----------------------------|-----------------------------|
G|-----------------------------|-----------------------------|
D|-----------------------------|5-B-7---------R-5-B-7---R-5-B|
A|-----------------------------|-----------------------------|
E|-----------------------------|-----------------------------|

e|--------- --------- ---------|--------- --------- ---------|
B|-----------------------------|-----------------------------|
G|--------------------7--7--7--|7---------7--7--7---7--------|
D|--------------------9--9--9--|9---------9--9--9---9--------|
A|-----------------------------|-----------------------------|
E|-----------------------------|-----------------------------|
                                          wanna
e|--------- --------- ---------|--------- --------- ---------|
B|-----------------------------|-----------------------------|
G|-----------------------------|-----------------------------|
D|-----------------------------|-----------------------------|
A|7----------------------------|-----------------------------|
E|-----------------------------|-----------------------------|

  E
e|--------- --------- ---------|--------- --------- ---------|
B|5----------------------------|-----------------------------|
G|7----------------------------|----------7--7--7---7--------|
D|6----------------------------|----------9--9--9---9--------|
A|7----------------------------|-----------------------------|
E|-----------------------------|-----------------------------|
  die
e|--------- --------- ---------|--------- --------- ---------|
B|-----------------------------|-----------------------------|
G|--------------------9--------|-----------------------------|
D|----------------9------------|5-B-7---------R-5-B-7---R-5--|
A|7----------------------------|-----------------------------|
E|-----------------------------|-----------------------------|


e|--------- --------- ---------|--------- --------- ---------|
B|5----------------------------|-----------------------------|
G|7----------------------------|----------7--7--7---7--------|
D|6----------------------------|----------9--9--9---9--------|
A|7----------------------------|-----------------------------|
E|-----------------------------|-----------------------------|
                                          If   I   ain't
e|--------- --------- ---------|--------- --------- ---------|
B|-----------------------------|-----------------------------|
G|-----------------------------|-----------------------------|
D|-----------------------------|-----------------------------|
A|7----------------------------|-----------------------------|
E|-----------------------------|-----------------------------|

  G
e|--------- --------- ---------|--------- --------- ---------|
B|-----------------------------|-----------------------------|
G|-----------------------------|--------------------------6-/|
D|-----------------------------|----------5------------------|
A|--------------------5--------|7-------------------7--------|
E|3------/--7------------------|-----------------------------|
     dead  already                                        Oooohh
e|--------- --------- ---------|--------- --------- ---------|
B|-----------------------------|-----------------------------|
G|-----------------------------|-----------------------------|
D|-----------------------------|7--B--9----------------------|
A|-----------------------------|-----------------------------|
E|-----------------------------|-----------------------------|


  B
e|------7-\ 5-------- 4--------|3-----2-- --------- ---------|
B|------7-\-5---------4--------|3-----2----------------------|
G|8-------\-6---------4--------|3-----2----------------------|
D|-----------------------------|-----------------------------|
A|-----------------------------|-----------------------------|
E|-----------------------------|-----------------------------|
                                                Girl,     you


                      E7
e|--------- ---------|--------- --------- ---------|
B|-------------------|5----------------------------|
G|-------------------|7----------------------------|
D|-------------------|6----------------------------|
A|-------------------|7----------------------------|
E|-------------------|-----------------------------|
  know  the reason    why
e|--------- ---------|--------- --------- ---------|
B|-------------------|-----------------------------|
G|-------------------|--------------------9--------|
D|-------------------|----------------9------------|
A|-------------------|7----------------------------|
E|-------------------|-----------------------------|

e|--------- --------- ---------|--------- --------- ---------|
B|5----------------------------|5----------------------------|
G|6----------------------------|7---------------8------------|
D|5----------------------------|6---------------7------------|
A|0----------------------------|7---------------9------------|
E|-----------------------------|----------------7------------|

e|--------- --------- ---------|--------- --------- ---------|
B|-----------------------------|-----------------------------|
G|-----------------------------|-----------------------------|
D|5-B-7---------R-5-B-7--R--5--|-----------------------------|
A|-----------------------------|7---------------5---------5--|
E|-----------------------------|--------------------7--------|

e|--------- --------- ---------|
B|-----------------------------|
G|8---------8-----8------------|
D|7---------7-----7------------|
A|9---------9-----9------------|
E|7---------7-----7------------|
                            The
e|--------- --------- ---------|
B|-----------------------------|
G|-----------------------------|
D|-----------------------------|
A|-----------------------------|
E|7---------7-----7------------|

  E                    A      E                    A
e|0----- ------ ------ 0-----|0----- ------ ------ ------|
B|0--------------------2-----|0--------------------2-----|
G|1--------------------2-----|1--------------------2-----|
D|2--------------------2-----|2--------------------2-----|
A|2--------------------0-----|2--------------------0-----|
E|0--------------------------|0--------------------------|
  eagle  picks my eye     The worm he licks my bone    I
e|------ ------ ------ 12----|------ ------ ------ 12----|
B|---------------------12----|---------------------12----|
G|---------------------13----|---------------------13----|
D|---------------------------|---------------------------|
A|---------------------------|---------------------------|
E|---------------------------|---------------------------|

  E
e|0----- ------ ------ ------|
B|0--------------------------|
G|1--------------------------|
D|2--------------------------|
A|2--------------------------|
E|0--------------------------|
  feel so suicidal

e|12-12-12-12---12-12 12-12----|12-12-12-12---12-12 12-12----|
B|12-12-12-12---12-12-12-12----|12-12-12-12---12-12-12-12----|
G|13-13-13-13---13-13-13-13----|13-13-13-13---13-13-13-13----|
D|-----------------------------|-----------------------------|
A|-----------------------------|-----------------------------|
E|-----------------------------|-----------------------------|


  A
e|--------- --------- ---------|--------- --------- ---------|
B|-----------------------------|-----------------------------|
G|--------------------7--7--7--|7----------------------------|
D|--------------------9--9--9--|9----------------------------|
A|-----------------------------|-----------------------------|
E|-----------------------------|-----------------------------|
  lonely
e|--------- --------- ---------|--------- --------- ---------|
B|-----------------------------|-----------------------------|
G|--------------------9--------|-----------------------------|
D|----------------9------------|5-B-7---------R-5-B-7---R-5-B|
A|7----------------------------|-----------------------------|
E|-----------------------------|-----------------------------|


e|--------- --------- ---------|--------- --------- ---------|
B|-----------------------------|-----------------------------|
G|--------------------7--7--7--|7---------7--7--7---7--------|
D|--------------------9--9--9--|9---------9--9--9---9--------|
A|-----------------------------|-----------------------------|
E|-----------------------------|-----------------------------|
                                          wanna
e|--------- --------- ---------|--------- --------- ---------|
B|-----------------------------|-----------------------------|
G|-----------------------------|-----------------------------|
D|-----------------------------|-----------------------------|
A|7----------------------------|-----------------------------|
E|-----------------------------|-----------------------------|


  E
e|--------- --------- ---------|--------- --------- ---------|
B|5----------------------------|--------------------5--5--5--|
G|7----------------------------|--------------------7--7--7--|
D|6----------------------------|--------------------6--6--6--|
A|7----------------------------|--------------------7--7--7--|
E|-----------------------------|-----------------------------|
  die
e|--------- --------- ---------|--------- --------- ---------|
B|-----------------------------|-----------------------------|
G|--------------------9--------|-----------------------------|
D|----------------9------------|5-B-7---------R-5-B-7---R-5--|
A|7----------------------------|-----------------------------|
E|-----------------------------|-----------------------------|


e|--------- --------- ---------|--------- --------- ---------|
B|-----------------------------|-----------------------------|
G|--------------------7--7--7--|----------7--7--7---7--------|
D|--------------------9--9--9--|----------9--9--9---9--------|
A|-----------------------------|-----------------------------|
E|-----------------------------|-----------------------------|
                                          If   I   ain't
e|--------- --------- ---------|--------- --------- ---------|
B|-----------------------------|-----------------------------|
G|-----------------------------|-----------------------------|
D|-----------------------------|-----------------------------|
A|7----------------------------|-----------------------------|
E|-----------------------------|-----------------------------|


  G
e|--------- --------- ---------|--------- --------- ---------|
B|-----------------------------|-----------------------------|
G|-----------------------------|--------------------------6-/|
D|-----------------------------|----------5------------------|
A|--------------------5--------|7-------------------7--------|
E|3------/--7------------------|-----------------------------|
     dead  already                                        Oooohh
e|--------- --------- ---------|--------- --------- ---------|
B|-----------------------------|-----------------------------|
G|-----------------------------|-----------------------------|
D|-----------------------------|7---------7--B--9------------|
A|-----------------------------|-----------------------------|
E|-----------------------------|-----------------------------|


  B
e|------7-\ 5-------- 4--------|3-----2-- --------- ---------|
B|------7-\-5---------4--------|3-----2----------------------|
G|8-------\-6---------4--------|3-----2----------------------|
D|-----------------------------|-----------------------------|
A|-----------------------------|-----------------------------|
E|-----------------------------|-----------------------------|
                                                Girl,     you


                      E7
e|--------- ---------|--------- --------- ---------|
B|-------------------|5----------------------------|
G|-------------------|7----------------------------|
D|-------------------|6----------------------------|
A|-------------------|7----------------------------|
E|-------------------|-----------------------------|
  know  the reason    why
e|--------- ---------|--------- --------- ---------|
B|-------------------|-----------------------------|
G|-------------------|--------------------9--------|
D|-------------------|----------------9------------|
A|-------------------|7----------------------------|
E|-------------------|-----------------------------|


  A7                            E7                  B7
e|--------- --------- ---------|--------- --------- ---------|
B|5-------------------5--------|5----------------------------|
G|6-------------------6--------|7-------------------8--------|
D|5-------------------5--------|6-------------------7--------|
A|0-------------------0--------|7-------------------9--------|
E|-----------------------------|--------------------7--------|

e|--------- --------- ---------|--------- --------- ---------|
B|-----------------------------|-----------------------------|
G|-----------------------------|-----------------------------|
D|5-B-7---------R-5-B-7--R--5--|-----------------------------|
A|-----------------------------|7---------------5------------|
E|-----------------------------|--------------------7--------|

e|--------- --------- ---------|
B|-----------------------------|
G|8---------8---------8--------|
D|7---------7---------7--------|
A|9---------9---------9--------|
E|7---------7---------7--------|

e|--------- --------- ---------|
B|-----------------------------|
G|-----------------------------|
D|-----------------------------|
A|-----------------------------|
E|7----------------------------|


  E                    A6     E                    A6
e|0----- ------ ------ 2-----|0----- ------ ------ 2-----|
B|0--------------------2-----|0--------------------2-----|
G|1--------------------2-----|1--------------------2-----|
D|2--------------------2-----|2--------------------2-----|
A|2--------------------0-----|2--------------------0-----|
E|0--------------------------|0--------------------------|
  Black cloud crossed my mind Blue mist round my soul
e|------ ------ ------ 12-\--|------ ------ ------ 12-\--|
B|---------------------12-\--|---------------------12-\--|
G|---------------------13-\--|---------------------13-\--|
D|---------------------------|---------------------------|
A|---------------------------|---------------------------|
E|---------------------------|---------------------------|

  E                           E7
e|0----- ------ ------ ------|------ ------ ------ ------|
B|0--------------------------|5-5-5--5-5-5--5-5-5--5-5-5-|
G|1--------------------------|7-7-7--7-7-7--7-7-7--7-7-7-|
D|2--------------------------|6-6-6--6-6-6--6-6-6--6-6-6-|
A|2--------------------------|7-7-7--7-7-7--7-7-7--7-7-7-|
E|0--------------------------|---------------------------|
  Feel so suicidal     even   hate my rock and roll wanna
e|------ ------ ------ ------|121212 12---- ------ ------|
B|---------------------------|121212-12----10B12-8-------|
G|---------------------------|131313-13----------------9-|
D|---------------------------|---------------------------|
A|---------------------------|---------------------------|
E|---------------------------|---------------------------|

  A
e|------ ------ ------ ------|------ ------ ------ ------|
B|---------------------------|---------------------------|
G|---------------------------|-------------------------0-|
D|--------------2---2--2H4P2-|--------------2---2--2-----|
A|0---0--3---4---------------|0---0--3---4---------------|
E|---------------------------|---------------------------|
   die                           yeah              wanna
e|------ ------ ------ ------|------ ------ ------ ------|
B|---------------------------|---------------------------|
G|--------------7---7--9H11P9|---------------------------|
D|-----------9---------------|-------9-\-7--5------5-----|
A|---------------------------|------------------7--------|
E|---------------------------|---------------------------|

  E
e|------ ------ ------ ------|------ ------ ------ ------|
B|---------------------------|---------------------------|
G|---------------------------|---------------------------|
D|-------------------------2-|---------------------------|
A|--------------2---2--4-----|--------------2---2--2H4P2-|
E|0---0--3---4---------------|0---0--3---4---------------|
  die                                              If I
e|------ ------ ------ ------|------ ------ ------ ------|
B|---------------------------|-----------5---------------|
G|-------9---7---------------|---------4----7---4--------|
D|--------------9---7--5-----|-------6-------------7---5-|
A|7------------------------7-|---------------------------|
E|---------------------------|---------------------------|

  G                           B
e|------ ------ ------ ------|------ ------ ------ ------|
B|---------------------------|---------------------------|
G|---------------------------|---------------------------|
D|---------------------------|--------------4---4--4H6P4-|
A|--------------5---5--5H7P5-|-------5---6---------------|
E|3---3--6---7---------------|7---7----------------------|
  ain't dead already,   Ooohh  girl, you know the reason why
e|------ ------ ------ ------|------ ------ ------ ------|
B|-----------8---------------|---------------------------|
G|---------7----10-----7-----|---------------------------|
D|----5--9-------------------|--------------7------------|
A|---------------------------|-----------9---------9-----|
E|---------------------------|7---7-/11------------------|


  E             A             B
e|------ ------ ------ ------|------ ------ ------ ------|
B|---------------------------|---------------------------|
G|---------------------------|4---4--4---4------4--4---4-|
D|2------------------------0-|4---4--4---4------4--4---4-|
A|--------------0---0--0H2---|2---2--2---2------2--2---2-|
E|----0--3---4---------------|---------------------------|

e|------ ------ ------ ------|------ ------ ------ --0-3-|
B|---------------------------|-----------------------0-3-|
G|---------------------------|---------------------------|
D|---------------------------|---------------------------|
A|---------------------------|---------------------------|
E|---------------------------|---------------------------|

  E7
e|0-3-0- 3-0-3- 0-3-0- 3-0-3-|0-3-0- 3-0-3- 0-3-0- 3-0-3-|
B|0-3-0--3-0-3--0-3-0--3-0-3-|0-3-0--3-0-3--0-3-0--3-0-3-|
G|---------------------------|---------------------------|
D|---------------------------|---------------------------|
A|---------------------------|---------------------------|
E|---------------------------|---------------------------|


e|0-3-0- 3-0-3- 0-3-0- 3-0-3-|0-3-0- 3-0-3- 0-3-0- 3-0-3-|
B|0-3-0--3-0-3--0-3-0--3-0-3-|0-3-0--3-0-3--0-3-0--3-0-3-|
G|---------------------------|---------------------------|
D|---------------------------|---------------------------|
A|---------------------------|---------------------------|
E|---------------------------|---------------------------|

  A7
e|0-3-0- 3-0-3- 0-3-0- 3-0-3-|0-3-0- 3-0-3- 0-3-0- 3-0-3-|
B|0-2-0--2-0-2--0-2-0--2-0-2-|0-2-0--2-0-2--0-2-0--2-0-2-|
G|---------------------------|---------------------------|
D|---------------------------|---------------------------|
A|---------------------------|---------------------------|
E|---------------------------|---------------------------|


  E7
e|0-3-0- 3-0-3- 0-3-0- 3-0-3-|0-3-0- 3-0-3- 0-3-0- 3-0---|
B|0-3-0--3-0-3--0-3-0--3-0-3-|0-3-0--3-0-3--0-3-0--3-0---|
G|---------------------------|---------------------------|
D|---------------------------|---------------------------|
A|---------------------------|---------------------------|
E|---------------------------|---------------------------|


  F#7                         B7
e|3----- --0-3- 0-3-0- --0-3-|------ --0-0- 3-0--- 0-----|
B|3--------0-3--0-3-0--3-0-3-|---------0-0--3-0----0-----|
G|---------------------2-----|------------------2----2-0-|
D|---------------------------|---------------------------|
A|---------------------------|---------------------------|
E|---------------------------|---------------------------|


  E             A             B
e|------ 0---0- ------ 0---0-|------ ------ ------ ------|
B|-------0---0---------0---0-|---------------------------|
G|-------0---0---------0---0-|---------------------------|
D|2---2-------------2--------|---------------------------|
A|---------------------------|-------0H1-2------2--2-----|
E|---------------------------|----0----------------------|

e|------ ------ ------ ------|------ ------ ------ --1212|
B|---------------------------|---------------------------|
G|---------------------------|---------------------------|
D|---------------------------|---------------------------|
A|---------------------------|---------------------------|
E|---------------------------|---------------------------|

e|------ ------ ------ ------|------ ------ ------ ------|
B|---------------------------|---------------------------|
G|---------------------------|---------------------------|
D|---------------------------|-----------------------9-9-|
A|---------------------------|---------------------------|
E|---------------------------|---------------------------|

  E
e|12--12 ----12 --1212 121212|12--12 ----12 --1212 121212|
B|---------------------------|---------------------------|
G|---------------------------|---------------------------|
D|---------------------------|---------------------------|
A|---------------------------|---------------------------|
E|---------------------------|---------------------------|

e|------ ------ ------ ------|------ ------ ------ ------|
B|---------------------------|12----------------12-------|
G|--------------14-------12H14-------14-----14-----------|
D|14---------14--------14----|---------------------------|
A|---------------------------|---------------------------|
E|---------------------------|---------------------------|

e|12--12 ----12 ------ ------|17---- 17---- 17---- 17----|
B|---------------------------|---------------------------|
G|---------------------------|---------------------------|
D|---------------------------|---------------------------|
A|---------------------------|---------------------------|
E|---------------------------|---------------------------|

e|------ ------ ------ ------|----12 ------ ------ ------|
B12B14R12--------------------|---------------------------|
G|-------14--14------------14B16-----14-----12-----------|
D|---------------------------|---------------------14----|
A|---------------------------|---------------------------|
E|---------------------------|---------------------------|

  A7
e|17---- ----12 ------ ------|------ ------ ------ ------|
B|---------------------------|---------------------------|
G|---------------------------|-------12-----------14P12--|
D|---------------------------|12H14-------------14-----14|
A|----------------------10H12|---------------------------|
E|---------------------------|---------------------------|

e|------ ------ ------ ------|------ ------ ------ ------|
B|---------------------------|---------------------------|
G|--------------12-------12H14---------------------12----|
D|-----------14--------14----|14-----14--12--------------|
A|12-------------------------|---------------------------|
E|---------------------------|---------------------------|


  E
e|------ ------ ------ ------|------ ------ ------ ------|
B|---------------------------|---------------------------|
G|12------------------14P12--|12-----------------------12|
D|-------14--14-----14-----14|-----------14-------12H14--|
A|---------------------------|---------------10H12-------|
E|---------------------------|---------------------------|

e|------ ------ ------ ------|------ ------ ------ ------|
B|---------------------------|---------------------------|
G14B16R1412------------12----14B16R1412-----12-----------|
D|--------------12-----------|---------------------14----|
A|---------------------------|---------------------------|
E|---------------------------|---------------------------|

e|------ ------ ------ ------|----12 ------ ------ ------|
B|---------------------------|--------------12-----------|
G|14B16--12--12----12-14B1612|---------------------12----|
D|---------------------------|-------------------------14|
A|---------------------------|---------------------------|
E|---------------------------|---------------------------|

e|------ ------ ------ ------|----12 ------ ------ ----12|
B|---------------------------|--------------12-----------|
G|----12-14B1612-------1214B16---------------------------|
D|14----------------14-------|---------------------------|
A|---------------------------|---------------------------|
E|---------------------------|---------------------------|


       x    X    X
e|--------- ---------|
B|-------------------|
G|-------------------|
D|-------------------|
A|-------------------|
E|-------------------|
            Yes,  I'm


  E
e|--------- --------- ---------|--------- --------- ---------|
B|-----------------------------|-----------------------------|
G|--------------------7--7--7--|7----------------------------|
D|--------------------9--9--9--|9----------------------------|
A|-----------------------------|-----------------------------|
E|-----------------------------|-----------------------------|
  lonely
e|--------- --------- ---------|--------- --------- ---------|
B|-----------------------------|-----------------------------|
G|-----------------------------|-----------------------------|
D|-----------------------------|----------5-------B-7---R-5--|
A|7----------------------------|-----------------------------|
E|-----------------------------|-----------------------------|


e|--------- --------- ---------|--------- --------- ---------|
B|-----------------------------|-----------------------------|
G|-----------------------------|-----------------------------|
D|-----------------------------|-----------------------------|
A|-----------------------------|-----------------------------|
E|-----------------------------|-----------------------------|
                                          Wanna
e|--------- --------- ---------|--------- --------- ---------|
B|-----------------------------|-----------------------------|
G|-----------------------------|-----------------------------|
D|-----------------------------|-----------------------------|
A|7----------------------------|-----------------------------|
E|-----------------------------|-----------------------------|

e|--------- --------- ---------|--------- --------- ---------|
B|--------------------5--5--5--|5----------------------------|
G|--------------------7--7--7--|7----------------------------|
D|--------------------6--6--6--|6----------------------------|
A|--------------------7--7--7--|7----------------------------|
E|-----------------------------|-----------------------------|
  die
e|--------- --------- ---------|--------- --------- ---------|
B|-----------------------------|-----------------------------|
G|--------------------9--------|-----------------------------|
D|----------------9------------|5-B-7---------R-5-B-7---R-5--|
A|7----------------------------|-----------------------------|
E|-----------------------------|-----------------------------|


e|--------- --------- ---------|--------- --------- ---------|
B|-----------------------------|-----------------------------|
G|-----------------------------|-----------------------------|
D|-----------------------------|-----------------------------|
A|-----------------------------|-----------------------------|
E|-----------------------------|-----------------------------|
                                          Yes,      I'm
e|--------- --------- ---------|--------- --------- ---------|
B|-----------------------------|-----------------------------|
G|-----------------------------|-----------------------------|
D|-----------------------------|-----------------------------|
A|7----------------------------|-----------------------------|
E|-----------------------------|-----------------------------|

  A
e|--------- --------- ---------|--------- --------- ---------|
B|-----------------------------|-----------------------------|
G|--------------------7--7--7--|7----------------------------|
D|--------------------9--9--9--|9----------------------------|
A|-----------------------------|-----------------------------|
E|-----------------------------|-----------------------------|
  lonely
e|--------- --------- ---------|--------- --------- ---------|
B|-----------------------------|-----------------------------|
G|-----------------------------|-----------------------------|
D|-----------------------------|5-B-7---------R-5-B-7---R-5-B|
A|-----------------------------|-----------------------------|
E|-----------------------------|-----------------------------|


e|--------- --------- ---------|--------- --------- ---------|
B|-----------------------------|-----------------------------|
G|-----------------------------|-----------------------------|
D|-----------------------------|-----------------------------|
A|-----------------------------|-----------------------------|
E|-----------------------------|-----------------------------|
                                          wanna
e|--------- --------- ---------|--------- --------- ---------|
B|-----------------------------|-----------------------------|
G|-----------------------------|-----------------------------|
D|-----------------------------|-----------------------------|
A|7----------------------------|-----------------------------|
E|-----------------------------|-----------------------------|

  E
e|--------- --------- ---------|--------- --------- ---------|
B|-----------------------------|-----------------------------|
G|--------------------7--7--7--|7----------------------------|
D|--------------------9--9--9--|9----------------------------|
A|-----------------------------|-----------------------------|
E|-----------------------------|-----------------------------|
  die
e|--------- --------- ---------|--------- --------- ---------|
B|-----------------------------|-----------------------------|
G|--------------------9--------|-----------------------------|
D|----------------9------------|5-B-7---------R-5-B-7---R-5--|
A|7----------------------------|-----------------------------|
E|-----------------------------|-----------------------------|


e|--------- --------- ---------|--------- --------- ---------|
B|-----------------------------|-----------------------------|
G|--------------------7--7--7--|7----------------------------|
D|--------------------9--9--9--|9----------------------------|
A|-----------------------------|-----------------------------|
E|-----------------------------|-----------------------------|

e|--------- --------- ---------|--------- --------- ---------|
B|-----------------------------|-----------------------------|
G|-----------------------------|-----------------------------|
D|-----------------------------|-----------------------------|
A|7----------------------------|-----------------------------|
E|-----------------------------|-----------------------------|

  G
e|--------- --------- ---------|--------- --------- ---------|
B|-----------------------------|-----------------------------|
G|-----------------------------|--------------------------6-/|
D|-----------------------------|----------5------------------|
A|--------------------5--------|7-------------------7--------|
E|3------/--7------------------|-----------------------------|

e|--------- --------- ---------|--------- --------- ---------|
B|--------------------8--------|-----------------------------|
G|-----------------------------|-----------------------------|
D|-----------------------------|7--B--9----------------------|
A|-----------------------------|-----------------------------|
E|-----------------------------|-----------------------------|


  B
e|------7-\ 5-------- 4--------|3-----2-- --------- ---------|
B|------7-\-5---------4--------|3-----2----------------------|
G|8-------\-6---------4--------|3-----2----------------------|
D|-----------------------------|-----------------------------|
A|-----------------------------|-----------------------------|
E|-----------------------------|-----------------------------|

                      E7
e|--------- ---------|--------- --------- ---------|
B|-------------------|5----------------------------|
G|-------------------|7----------------------------|
D|-------------------|6----------------------------|
A|-------------------|7----------------------------|
E|-------------------|0-------------------4--------|

e|--------- ---------|--------- --------- ---------|
B|-------------------|-----------------------------|
G|-------------------|--------------------9--------|
D|-------------------|----------------9------------|
A|-------------------|7----------------------------|
E|-------------------|-----------------------------|


  A7                            E7
e|--------- --------- ---------|--------- --------- ---------|
B|5----------------------------|5----------------------------|
G|6----------------------------|7----------------------------|
D|5----------------------------|6----------------------------|
A|0----------------------------|7----------------------------|
E|-----------------------------|-----------------------------|

e|--------- --------- ---------|--------- --------- ---------|
B|-----------------------------|-----------------------------|
G|-----------------------------|-----------------------------|
D|5-B-7---------R-5-B-7--R--5--|-----------------------------|
A|-----------------------------|7---------------5------------|
E|-----------------------------|--------------------7--------|

  B7
e|--------- --------- ---------|
B|-----------------------------|
G|8----------------------------|
D|7----------------------------|
A|9----------------------------|
E|7----------------------------|
            In        the  morning
e|--------- --------- ---------|
B|-----------------------------|
G|-----------------------------|
D|-----------------------------|
A|-----------------------------|
E|7---------------7---7--------|


  E
e|--------- --------- ---------|--------- --------- ---------|
B|-----------------------------|-----------------------------|
G|--------------------7--7--7--|7----------------------------|
D|--------------------9--9--9--|9----------------------------|
A|-----------------------------|-----------------------------|
E|-----------------------------|-----------------------------|

e|--------- --------- ---------|--------- --------- ---------|
B|-----------------------------|-----------------------------|
G|-----------------------------|-----------------------------|
D|-----------------------------|----------5-------B-7---R-5--|
A|7----------------------------|-----------------------------|
E|-----------------------------|-----------------------------|
  ...........................Fade............................

e|--------- --------- ---------|--------- --------- ---------|
B|-----------------------------|-----------------------------|
G|-----------------------------|-----------------------------|
D|-----------------------------|-----------------------------|
A|-----------------------------|-----------------------------|
E|-----------------------------|-----------------------------|

e|--------- --------- ---------|--------- --------- ---------|
B|-----------------------------|-----------------------------|
G|-----------------------------|-----------------------------|
D|-----------------------------|-----------------------------|
A|7----------------------------|-----------------------------|
E|-----------------------------|-----------------------------|
  ...........................................................


e|--------- --------- ---------|--------- --------- ---------|
B|-----------------------------|-----------------------------|
G|--------------------7--7--7--|7----------------------------|
D|--------------------6--6--6--|6----------------------------|
A|-----------------------------|-----------------------------|
E|-----------------------------|-----------------------------|

e|--------- --------- ---------|--------- --------- ---------|
B|-----------------------------|-----------------------------|
G|-----------------------------|-----------------------------|
D|-----------------------------|5-B-7---------R-5-B-7---R-5--|
A|-----------------------------|-----------------------------|
E|-----------------------------|-----------------------------|
  ...........................................................

e|--------- --------- ---------|--------- --------- ---------|
B|-----------------------------|-----------------------------|
G|-----------------------------|-----------------------------|
D|-----------------------------|-----------------------------|
A|-----------------------------|-----------------------------|
E|-----------------------------|-----------------------------|

e|--------- --------- ---------|--------- --------- ---------|
B|-----------------------------|-----------------------------|
G|-----------------------------|-----------------------------|
D|-----------------------------|-----------------------------|
A|7----------------------------|-----------------------------|
E|-----------------------------|-----------------------------|
  ...........................................................


        B  Bend
        R  Release
        /  slide up
        \  slide down
        H  hammer-on
        P  pull-off
        ~  vibrato
        +  harmonic
        x  Mute note
        . - play note like a dot in standard notation
        ^ - ties two notes together
        (.  Pause

    ------------------------------------------------------------

    THE BEATLES - MOTHER NATURE'S SON (Lennon & McCartney) From
                  the WHITE ALBUM. Released 22nd November 1968.

    ------------------------------------------------------------

    Tabbed by:PJVillanueva


    Born a poor young country boy
    Mother Nature's son
    All day long I'm sitting singing songs for everyone.

    Sit beside a mountain stream
    See her waters rise
    Listen to the pretty sound of music as she flies.

    Find me in my field of grass
    Mother Nature's son
    Swaying daises sing a lazy song beneath the sun.

    Mother Nature's son.

    INTRO
                                                          X X  X

  e|------- 2------ ------- 2------|------- 2------ ------- -------|
  B|--------3---------------3------|--------3----------------------|
  G|4---------------2--------------|1------------------------------|
  D|-------------------------------|-------------------------------|
  A|-------------------------------|-------------------------------|
  E|-------------------------------|----------------0--------------|

    00:08

  e|5---5-- 5---5-- 3---3-- 3---3--|0---0-0 0---3-- 3P2-2-2 2-2-2--|
  B|----3---3---3-------3---3---3--|----3-3-3---3-------3-3-3-3-3--|
  G|----2---2---2-------2---2---2--|----2-2-2---2-------2-2-2-2-2--|
  D|0---------------0--------------|0---------------0--------------|
  A|-------------------------------|-------------------------------|
  E|-------------------------------|-------------------------------|

  e|------- ------- ------- -------|------- ------- ------- -------|
  B|-------------------------------|-------------------------------|
  G|7------------------------------|-------------------------------|
  D|-------------------------------|-------------------------------|
  A|-------------------------------|-------------------------------|
  E|-------------------------------|-------------------------------|

  e|0H2-2-- 2-2-2-- 2H3-3-- 3-3-3--|0H2-2-2 2---2-0 0H2-2-2 2---2--|
  B|----3---3-3-3-------3---3-3-3--|3---3-3-3---3-------3-3-3---3--|
  G|----2---2-2-2-------2---2-2-2--|2---2-2-2---2-------2-2-2---2--|
  D|0---------------0--------------|0---------------0--------------|
  A|-------------------------------|-------------------------------|
  E|-------------------------------|-------------------------------|

  e|------- ------- ------- -------|------- ------- ------- -------|
  B|-------------------------------|-------------------------------|
  G|7------------------------------|-------------------------------|
  D|-------------------------------|-------------------------------|
  A|-------------------------------|-------------------------------|
  E|-------------------------------|-------------------------------|

    VERSE
    00:20

  e|2---2-- 2-2-2-- 2H3-3-3 3-3-3--|3---3-- 3---3P2 2---2-- 2-2-2--|
  B|----3---3-3-3-------3-3-3-3-3--|----3---3---3-------3---3-3-3--|
  G|----2---2-2-2-------2-2-2-2-2--|----4---4---4-------2---2-2-2--|
  D|0---------------0--------------|0---------------0--------------|
  A|-------------------------------|-------------------------------|
  E|-------------------------------|-------------------------------|

  e|------- ------- ------- -------|------- ------- ------- -------|
  B|-------------------------------|-------------------------------|
  G|7------------------------------|-------------------------------|
  D|-------------------------------|-------------------------------|
  A|-------------------------------|-------------------------------|
  E|-------------------------------|-------------------------------|
    Born    a       poor    young   country         boy


  e|----2-- 2-2-2-- ----2-- 2-2-2--|----2-- 2---2-- ----2-- 2---2--|
  B|----3---3-3-3-------3---3-3-3--|----3-3-3---3-------3---3-3-3--|
  G|4---------------2--------------|1-----------1---------------1--|
  D|-------------------------------|-------------------------------|
  A|-------------------------------|-------------------------------|
  E|-------------------------------|----------------0--------------|

  e|------- ------- ------- -------|------- ------- ------- -------|
  B|-------------------------------|-------------------------------|
  G|7------------------------------|-------------------------------|
  D|-------------------------------|-------------------------------|
  A|-------------------------------|-------------------------------|
  E|-------------------------------|-------------------------------|
    Mother          Nature's        son

    00:31

  e|----5-- ----5-- ----5-- ----5--|----5-- ----5-- ----5-- ----5--|
  B|2---2---3---3---2---2---3---3--|2---2---3---3---2---2---3---3--|
  G|----2-------2-------2-------2--|----2-------2-------2-------2--|
  D|----2-------4-------2-------4--|----2-------4-------2-------4--|
  A|0-------0-------0-------0------|0-------0-------0-------0------|
  E|-------------------------------|-------------------------------|

  e|------- ------- ------- -------|------- ------- ------- -------|
  B|-------------------------------|-------------------------------|
  G|7------------------------------|-------------------------------|
  D|-------------------------------|-------------------------------|
  A|-------------------------------|-------------------------------|
  E|-------------------------------|-------------------------------|
    All     day long        I'm     sitting     songs     everyone.
                                          singing       for


  e|2---2-- 2-3P2-- 1---1-- 1-3-3-3|3---3-3 3-5-3-- 2---2-- 2---2--|
  B|----3---3-3-3-------1---1---1--|----3-3-3---3-------3---3-3-3--|
  G|----2---2-2-2-------2---2---2--|----4-4-4---4-------2---2-2-2--|
  D|0---------------0--------------|0---------------0--------------|
  A|-------------------------------|-------------------------------|
  E|-------------------------------|-------------------------------|

  e|------- ------- ------- -------|------- ------- ------- -------|
  B|-------------------------------|-------------------------------|
  G|7------------------------------|-------------------------------|
  D|-------------------------------|-------------------------------|
  A|-------------------------------|-------------------------------|
  E|-------------------------------|-------------------------------|


  e|2---2-- 2-3P2-- 1---1-- 1-3/5--|3---3-3 3-5-3-- 2---2-2 2---2--|
  B|----3---3-3-3-------1---1------|----3-3-3---3-------3-3-3-3-3--|
  G|----2---2-2-2-------2---2------|----4-4-4---4-------2-2-2-2-2--|
  D|0---------------0--------------|0---------------0--------------|
  A|-------------------------------|-------------------------------|
  E|-------------------------------|-------------------------------|

  e|------- ------- ------- -------|------- ------- ------- -------|
  B|-------------------------------|-------------------------------|
  G|7------------------------------|-------------------------------|
  D|-------------------------------|-------------------------------|
  A|-------------------------------|-------------------------------|
  E|-------------------------------|-------------------------------|

  e|------- ------- ------- -------|------- ------- ------- -------|
  B|-------------------------------|-------------------------------|
  G|7------------------------------|-------------------------------|
  D|-------------------------------|-------------------------------|
  A|-------------------------------|-------------------------------|
  E|-------------------------------|-------------------------------|


    00:48

  e|2---2-2 2---2-- 2H3-3-- 3-3-3--|3---3-- 3---3-- 2---2-2 2-2-2--|
  B|----3-3-3---3-------3---3-3-3--|----3---3---3-------3-3-3-3-3--|
  G|----2-2-2---2-------2---2-2-2--|----2---4---4-------2-2-2-2-2--|
  D|0---------------0--------------|0---------------0--------------|
  A|-------------------------------|-------------------------------|
  E|-------------------------------|-------------------------------|

  e|------- ------- ------- -------|------- ------- ------- -------|
  B|-------------------------------|-------------------------------|
  G|7------------------------------|-------------------------------|
  D|-------------------------------|-------------------------------|
  A|-------------------------------|-------------------------------|
  E|-------------------------------|-------------------------------|

  e|5------ ------- 7------ -------|7------ ------- 5------ -------|
  B|7---------------8--------------|8---------------7--------------|
  G|7---------------7--------------|7---------------7--------------|
  D|7---------------9--------------|9---------------7--------------|
  A|-------------------------------|-------------------------------|
  E|-------------------------------|-------------------------------|
    Sit     beside          a       mountain        stream


  e|----2-- 2-2-2-- ----2-- 2-2-2--|----2-- 2---2-- ------- -------|
  B|----3---3-3-3-------3---3-3-3--|----3---3-3-3------------------|
  G|4---------------2--------------|1-----------1------------------|
  D|-------------------------------|----------------------------2--|
  A|-------------------------------|------------------------2------|
  E|-------------------------------|----------------0--/4----------|

  e|------- ------- ------- -------|------- ------- ------- -------|
  B|-------------------------------|-------------------------------|
  G|7------------------------------|-------------------------------|
  D|-------------------------------|-------------------------------|
  A|-------------------------------|-------------------------------|
  E|-------------------------------|-------------------------------|

  e|7------ ------- 7------ -------|------- ------- ------- -------|
  B|7---------------7--------------|7---------------5--------------|
  G|7---------------7--------------|7---------------7--------------|
  D|9---------------7--------------|6---------------6--------------|
  A|-------------------------------|-------------------------------|
  E|-------------------------------|-------------------------------|
    See     her     waters          rise

    00:31

  e|----5-- ----5-- ----5-- ----5--|----5-- ----5-- ----5-- ----5--|
  B|2---2---3---3---2---2---3---3--|2---2---3---3---2---2---3---3--|
  G|----2-------2-------2-------2--|----2-------2-------2-------2--|
  D|----2-------4-------2-------4--|----2-------4-------2-------4--|
  A|0-------0-------0-------0------|0-------0-------0-------0------|
  E|-------------------------------|-------------------------------|

  e|------- ------- ------- -------|------- ------- ------- -------|
  B|-------------------------------|-------------------------------|
  G|7------------------------------|-------------------------------|
  D|-------------------------------|-------------------------------|
  A|-------------------------------|-------------------------------|
  E|-------------------------------|-------------------------------|

  e|------- ------- ------- -------|------- ------- ------- -------|
  B|5-------7-------5-------7------|5-------7-------5--------------|
  G|6-------7-------6-------7------|6-------7-------6--------------|
  D|7-------7-------7-------7------|7-------7-------7--------------|
  A|-------------------------------|-------------------------------|
  E|-------------------------------|-------------------------------|
    Listen      to          the     pretty      of  music   as  she
                                        sound                     flies


  e|2---2-- 2-3P2-- 1---1-- 1-3/5--|3---3-3 3-5-3-- 2---2-2 2------|
  B|----3---3-3-3-------1---1-1/6--|----3-3-3---3-------3-3-3------|
  G|----2---2-2-2-------2---2------|----4-4-4---4-------2-2-2------|
  D|0---------------0--------------|0---------------0--------------|
  A|-------------------------------|-------------------------------|
  E|-------------------------------|-------------------------------|

  e|------- ------- ------- -------|------- ------- ------- -------|
  B|-------------------------------|-------------------------------|
  G|7------------------------------|-------------------------------|
  D|-------------------------------|-------------------------------|
  A|-------------------------------|-------------------------------|
  E|-------------------------------|-------------------------------|

  e|------- ------- ------- -------|------- ------- ------- -------|
  B|7---------8-7---6--------------|8---------10-8--7--------------|
  G|7---------------5--------------|7---------------7--------------|
  D|7---------------7--------------|9---------------7--------------|
  A|-------------------------------|-------------------------------|
  E|-------------------------------|-------------------------------|
                                                            doo doo

    01:10

  e|5------ ------- ------- 5------|7------ ------- 5------ -------|
  B|7-------7-------8-------7------|8-------8-------7-------7------|
  G|--------7-------9--------------|--------9---------------7------|
  D|0-------0-------0-------0------|0-------0-------0-------0------|
  A|-------------------------------|-------------------------------|
  E|-------------------------------|-------------------------------|

  e|------- ------- ------- -------|------- ------- ------- -------|
  B|-------------------------------|-------------------------------|
  G|7------------------------------|-------------------------------|
  D|-------------------------------|-------------------------------|
  A|-------------------------------|-------------------------------|
  E|-------------------------------|-------------------------------|

  e|5------ ------- 0------ 5------|7------ 7------ 5------ -------|
  B|7-------7-------8-------7------|8-P-7---8-------7--------------|
  G|7-------7-------7-------7------|7-------9---7---7--------------|
  D|--------0---------------7------|-------------------------------|
  A|-------------------------------|-------------------------------|
  E|-------------------------------|-------------------------------|
    doooo   doooo   doooo   doooo   doo doo doo doo doooo


  e|5------ ------- ------- 5------|7------ -------|
  B|7-------7-------8-------7------|8-------8------|
  G|--------7-------9--------------|--------9------|
  D|0-------0-------0-------0------|0-------0------|
  A|-------------------------------|---------------|
  E|-------------------------------|---------------|

  e|------- ------- ------- -------|------- -------|
  B|-------------------------------|---------------|
  G|-------------------------------|---------------|
  D|-------------------------------|---------------|
  A|-------------------------------|---------------|
  E|-------------------------------|---------------|

  e|5------ ------- 0------ 5------|7------ 7------|
  B|7-------7-------8-------7------|8-P-7---8------|
  G|7-------7-------7-------7------|7-------9---7--|
  D|--------0----------------------|---------------|
  A|-------------------------------|---------------|
  E|-------------------------------|---------------|
    doooo   doooo   doooo   doooo   doo doo doo doo


  e|5---5-5 5-7-5-- 5---5-5 5-7-5--|5---5-5 5-7-5-- 7------ 5------|
  B|7---7-7-7---7---7---7-7-7---7--|----7-7-7-7-7---7---7---7---7--|
  G|7---7-7-7---7---6---6-6-6---6--|----5-5-5-5-5---5---5---5---5--|
  D|0-------0-------0--------------|0---------------0--------------|
  A|-------------------------------|-------------------------------|
  E|-------------------------------|-------------------------------|

  e|------- ------- ------- -------|------- ------- ------- -------|
  B|-------------------------------|-------------------------------|
  G|-------------------------------|-------------------------------|
  D|-------------------------------|-------------------------------|
  A|-------------------------------|-------------------------------|
  E|-------------------------------|-------------------------------|

  e|5------ ------- ------- -------|------- ------- 7------ 5------|
  B|7------------------------------|----------------8-------7------|
  G|7---------------6--------------|5---------------7-------7------|
  D|-------------------------------|-------------------------------|
  A|-------------------------------|-------------------------------|
  E|-------------------------------|-------------------------------|
    Doooo                                       Mmm doooooooo   doo


  e|3---3-3 3-5-3-- 3---3-3 3-5-3--|2---2-- 2-2-2-- 2---2-- 2-2-2--|
  B|3---3-3-3-3-3---3---3-3-3-3-3--|----3---3-3-3-------3---3-3-3--|
  G|4---4-4-4-4-4---3---3-3-3-3-3--|----2---2-2-2-------2---2-2-2--|
  D|0---------------0--------------|0---------------0--------------|
  A|-------------------------------|-------------------------------|
  E|-------------------------------|-------------------------------|

  e|------- ------- ------- -------|------- ------- ------- -------|
  B|-------------------------------|-------------------------------|
  G|-------------------------------|-------------------------------|
  D|-------------------------------|-------------------------------|
  A|-------------------------------|-------------------------------|
  E|-------------------------------|-------------------------------|

  e|------- ------- ------- -------|------- ------- ------- -------|
  B|8------------------------------|7------------------------------|
  G|7------------------------------|7------------------------------|
  D|9---------------8--------------|7------------------------------|
  A|-------------------------------|-------------------------------|
  E|-------------------------------|-------------------------------|
    oooooooooooooooooooooooooooooooooooooooooooooooooo


    01:32

  e|2---2-2 2---2-- 2H3-3-- 3-3-3--|3---3-- 3---3-- 2---2-2 2-2-2--|
  B|----3-3-3---3-------3---3-3-3--|----3---3---3-------3-3-3-3-3--|
  G|----2-2-2---2-------2---2-2-2--|----4---4---4-------2-2-2-2-2--|
  D|0---------------0--------------|0---------------0--------------|
  A|-------------------------------|-------------------------------|
  E|-------------------------------|-------------------------------|

  e|------- ------- ------- -------|------- ------- ------- -------|
  B|-------------------------------|-------------------------------|
  G|-------------------------------|-------------------------------|
  D|-------------------------------|-------------------------------|
  A|-------------------------------|-------------------------------|
  E|-------------------------------|-------------------------------|

  e|5------ ------- 7------ -------|7------ ------- 5------ -------|
  B|7---------------8--------------|8---------------7--------------|
  G|7---------------7--------------|7---------------7--------------|
  D|7---------------9--------------|9---------------7--------------|
  A|-------------------------------|-------------------------------|
  E|-------------------------------|-------------------------------|
    Find    me      in      my      field       of  grass


  e|----2-2 2-2-2-- ----2-- 2-2-2--|----2-- 2---2-- ------- -------|
  B|----3-3-3-3-3-------3---3-3-3--|----3---3-3-3------------------|
  G|4---------------2--------------|1-----------1------------------|
  D|-------------------------------|----------------------------2--|
  A|-------------------------------|------------------------2------|
  E|-------------------------------|----------------0--/4----------|

  e|------- ------- ------- -------|------- ------- ------- -------|
  B|-------------------------------|-------------------------------|
  G|-------------------------------|-------------------------------|
  D|-------------------------------|-------------------------------|
  A|-------------------------------|-------------------------------|
  E|-------------------------------|-------------------------------|

  e|7------ ------- 7------ -------|------- ------- ------- -------|
  B|7---------------7--------------|7---------------5--------------|
  G|7---------------7--------------|7---------------7--------------|
  D|9---------------7--------------|6---------------6--------------|
  A|-------------------------------|-------------------------------|
  E|-------------------------------|-------------------------------|
    Mother          Nature's        son

    00:00

  e|----5-- ----5-- ----5-- ----5--|----5-- ----5-- ----5-- ----5--|
  B|2---2---3---3---2---2---3---3--|2---2---3---3---2---2---3---3--|
  G|----2-------2-------2-------2--|----2-------2-------2-------2--|
  D|----2-------4-------2-------4--|----2-------4-------2-------4--|
  A|0-------0-------0-------0------|0-------0-------0-------0------|
  E|-------------------------------|-------------------------------|

  e|------- ------- ------- -------|------- ------- ------- -------|
  B|-------------------------------|-------------------------------|
  G|-------------------------------|-------------------------------|
  D|-------------------------------|-------------------------------|
  A|-------------------------------|-------------------------------|
  E|-------------------------------|-------------------------------|

  e|------- ------- ------- -------|------- ------- ------- -------|
  B|5-------7-------5-------7------|5-------7-------8--------------|
  G|6-------7-------6-------7------|6-------7-------6--------------|
  D|7-------7-------7-------7------|7-------7-------7--------------|
  A|-------------------------------|-------------------------------|
  E|-------------------------------|-------------------------------|
    Swaying       daises            sing  lazy  song    beneath the
                                        a                         sun


  e|2---2-2 2-3-2-- 1---1-- 1-3----|3---3-3 3-5-3-- 2---2-- 2------|
  B|----3-3-3-3-3-------1---1-1----|----3-3-3-3-3-------3----------|
  G|----2-2-2-2-2-------2---2-2----|----4-4-4-4-4-------2----------|
  D|0---------------0--------------|0---------------0-------0---0--|
  A|-------------------------------|-------------------------------|
  E|-------------------------------|-------------------------------|

  e|------- ------- ------- -------|------- ------- ------- -------|
  B|-------------------------------|-------------------------------|
  G|-------------------------------|-------------------------------|
  D|-------------------------------|-------------------------------|
  A|-------------------------------|-------------------------------|
  E|-------------------------------|-------------------------------|

  e|5------ ------- 5------ -------|7------ ------- 5------ -------|
  B|7---------------6---------8-6--|8---------10-8--7--------------|
  G|7---------------5--------------|7---------------7--------------|
  D|7---------------7--------------|9---------------7--------------|
  A|-------------------------------|-------------------------------|
  E|-------------------------------|-------------------------------|
                                                            doo doo


    01:54

  e|5------ ------- ------- 5------|7------ ------- 5---5-5 5-5----|
  B|7-------7-------8-------7------|8-------8-------7---7-7-7-7----|
  G|--------7-------9--------------|--------9-----------7-7-7-7----|
  D|0-------0-------0-------0------|0-------0-------0-------0------|
  A|-------------------------------|-------------------------------|
  E|-------------------------------|-------------------------------|

  e|------- ------- ------- -------|------- ------- ------- -------|
  B|-------------------------------|-------------------------------|
  G|-------------------------------|-------------------------------|
  D|-------------------------------|-------------------------------|
  A|-------------------------------|-------------------------------|
  E|-------------------------------|-------------------------------|

  e|5------ ------- 0------ 5------|7------ 7------ 5------ -------|
  B|7-------7-------8-------7------|8---7---8-------7--------------|
  G|7-------7-------7-------7------|7-------9---7---7--------------|
  D|--------0----------------------|-------------------------------|
  A|-------------------------------|-------------------------------|
  E|-------------------------------|-------------------------------|
    doooo   doooo   doooo   doooo   doo doo doo doo doooo


  e|5------ ------- ------- 5------|7------ -------|
  B|7-------7-------8-------7------|8-------8------|
  G|--------7-------9--------------|--------9------|
  D|0-------0-------0-------0------|0-------0------|
  A|-------------------------------|---------------|
  E|-------------------------------|---------------|

  e|------- ------- ------- -------|------- -------|
  B|-------------------------------|---------------|
  G|-------------------------------|---------------|
  D|-------------------------------|---------------|
  A|-------------------------------|---------------|
  E|-------------------------------|---------------|

  e10---9-- 7------ 7------ -------|7------ 7------|
  B|7-------7---10--8---7-------7--|8---10--8---8--|
  G|7-------7-------7-------9------|7-------9------|
  D|7-------7-------7-------7------|---------------|
  A|-------------------------------|---------------|
  E|-------------------------------|---------------|
    doooo   doooo   doooo   doooo   doooooo doo doo


  e|5---5-5 5-7-5-- 5---5-5 5-7-5--|5---5-5 --5---- 7------ 5------|
  B|----7-7-7-7-7---7---7-7-7-7-7--|7---7-7---7-----7---7---7---7--|
  G|----7-7-7-7-7---6---6-6-6-6-6--|5---5-5---5-5---5---5---5---5--|
  D|0-------0-------0--------------|0---------------0--------------|
  A|-------------------------------|-------------------------------|
  E|-------------------------------|-------------------------------|

  e|------- ------- ------- -------|------- ------- ------- -------|
  B|-------------------------------|-------------------------------|
  G|-------------------------------|-------------------------------|
  D|-------------------------------|-------------------------------|
  A|-------------------------------|-------------------------------|
  E|-------------------------------|-------------------------------|

  e10------ ------- 9------ -------|8------ ------- 7------ 5------|
  B|7---------------7--------------|7---------------7-------7------|
  G|7---------------7--------------|7-------7-------7-------7------|
  D|-------------------------------|-------------------------------|
  A|-------------------------------|-------------------------------|
  E|-------------------------------|-------------------------------|
    Dooooooooooooooooooooooooo        doooo dododoooooooo  doodoooo

                                                    X X X X   X X

  e|3---3-3 3-5-3-- 3---3-3 --3----|2---2-2 2-2-2-- 2H3-2H3 2------|
  B|----3-3-3-3-3---3---3-3---3----|----3-3-3-3-3-------3---3-3-3--|
  G|----4-4-4-4-4---3---3-3---3----|----2-2-2-2-2-------2---2-2-2--|
  D|0---------------0--------------|0---------------0--------------|
  A|-------------------------------|-------------------------------|
  E|-------------------------------|-------------------------------|

  e|------- ------- ------- -------|------- ------- ------- -------|
  B|-------------------------------|-------------------------------|
  G|-------------------------------|-------------------------------|
  D|-------------------------------|-------------------------------|
  A|-------------------------------|-------------------------------|
  E|-------------------------------|-------------------------------|

  e|7------ ------- 6------ -------|5------ ------- ------- -------|
  B|8---------------8--------------|7------------------------------|
  G|7---------------7--------------|7------------------------------|
  D|-------------------------------|-------------------------------|
  A|-------------------------------|-------------------------------|
  E|-------------------------------|-------------------------------|
    ooooooooooooooooo     Yeah    yeah
                              yeah
    X
    02:15

  e|2---2-2 2-2-2-- 2H3-3-3 3---3--|3---3-3 3---3-- 2---2-2 2-2-2--|
  B|----3-3-3-3-3-------3-3-3---3--|----3-3-3---3-------3-3-3-3-3--|
  G|----2-2-2-2-2-------2-2-2---2--|----4-4-4---4-------2-2-2-2-2--|
  D|0---------------0--------------|0---------------0--------------|
  A|-------------------------------|-------------------------------|
  E|-------------------------------|-------------------------------|

  e|------- ------- ------- -------|------- ------- ------- -------|
  B|-------------------------------|-------------------------------|
  G|-------------------------------|-------------------------------|
  D|-------------------------------|-------------------------------|
  A|-------------------------------|-------------------------------|
  E|-------------------------------|-------------------------------|

  e|------- ------- ------- -------|------- ------- ------- -------|
  B|-------------------------------|-------------------------------|
  G|----2-------2-------2-------2--|----2-------2-------2-/-7-~----|
  D|4-------4-------5-------5------|5-------5-------4--------------|
  A|-------------------------------|-------------------------------|
  E|-------------------------------|-------------------------------|
    Mmmmmmmmmmmmmmmmmmmmmmmmmmmmmmmmmmmmmmmmmmmmmmmmmmmmmmmmmmm


  e|----2-- 2-2-2-- ----2-- 2---2--|----2-- 2---2-- ------- -------|
  B|----3---3-3-3-------3---3-3-3--|----3---3-3-3------------------|
  G|4---------------2--------------|1-----------1------------------|
  D|-------------------------------|----------------------------2--|
  A|-------------------------------|------------------------2------|
  E|-------------------------------|----------------0--/4----------|

  e|------- ------- ------- -------|------- ------- ------- -------|
  B|-------------------------------|-------------------------------|
  G|-------------------------------|-------------------------------|
  D|-------------------------------|-------------------------------|
  A|-------------------------------|-------------------------------|
  E|-------------------------------|-------------------------------|

  e|10----- 10----- 9------ 10P9P7-|7------ ------- ------- -------|
  B|-------------------------------|-------------------------------|
  G|-------------------------------|-------------------------------|
  D|-9-------9------7--------7-----|6---------------------------2--|
  A|-------------------------------|------------------------2------|
  E|-------------------------------|----------------0--/4----------|
    Ooooooooooooo   Ooooooooooooooooooooooooo


  e|----5-- ----5-- ----5-- ----5--|----5-- ----5-- ----5-- ----5--|
  B|2---2---3---3---2---2---3---3--|2---2---3---3---2---2---3---3--|
  G|----2-------2-------2-------2--|----2-------2-------2-------2--|
  D|----2-------4-------2-------4--|----2-------4-------2-------4--|
  A|0-------0-------0-------0------|0-------0-------0-------0------|
  E|-------------------------------|-------------------------------|

  e|------- ------- ------- -------|------- ------- ------- -------|
  B|-------------------------------|-------------------------------|
  G|-------------------------------|-------------------------------|
  D|-------------------------------|-------------------------------|
  A|-------------------------------|-------------------------------|
  E|-------------------------------|-------------------------------|

  e|12----- 10----- 9------ -------|------- ------- ------- -------|
  B|------------------------12-----|10-----------------------------|
  G|-9-------7------6--------------|--------12------11------9------|
  D|-------------------------9-----|-7-----------------------------|
  A|-------------------------------|--------10-------9------7------|
  E|-------------------------------|-------------------------------|
    Ooooooooooooooooooooooooooooo   Ooooooooooooouuuuuuuuuuuuwawaaa


  e|2---2-- 2-3-2-- 1---1-- 1-3----|3---3-3 3-5-3-- 2---2-- 2---2--|
  B|----3---3-3-3-------1---1-1----|----3-3-3-3-3-------3---3-3-3--|
  G|----2---2-2-2-------2---2-2----|----4-4-4-4-4-------2---2-2-2--|
  D|0---------------0--------------|0---------------0--------------|
  A|-------------------------------|-------------------------------|
  E|-------------------------------|-------------------------------|

  e|------- ------- ------- -------|------- ------- ------- -------|
  B|-------------------------------|-------------------------------|
  G|-------------------------------|-------------------------------|
  D|-------------------------------|-------------------------------|
  A|-------------------------------|-------------------------------|
  E|-------------------------------|-------------------------------|

  e|------- ------- 5-\---- 1-/----|7-\---- 3-/---- 10-~--- -------|
  B|-------------------------------|-------------------------------|
  G|7---------------5-\-----2-/----|7-\-----4-/-----11-~-----------|
  D|------------7------------------|-------------------------------|
  A|5-------7/9--------------------|-------------------------------|
  E|-------------------------------|-------------------------------|
    aaaaaaaaaaaaaaaaaaaaaaaaaaaaaaaaaaaahh                      Ooo


                                                   (.

  e|2---2-- 2-3---- 1---1-1 1-3----|3---3-- --3-3-- 2------ -------|
  B|----3---3-3---------1-1-1-1----|----3-----3-3---3--------------|
  G|----2---2-2---------2-2-2-2----|----4-----4-4---2--------------|
  D|0---------------0--------------|0---------------0--------------|
  A|-------------------------------|-------------------------------|
  E|-------------------------------|-------------------------------|

  e|------- ------- ------- -------|------- ------- ------- -------|
  B|-------------------------------|-------------------------------|
  G|-------------------------------|-------------------------------|
  D|-------------------------------|-------------------------------|
  A|-------------------------------|-------------------------------|
  E|-------------------------------|-------------------------------|

  e|5------ ------- 5------ -------|7------ ------- 5------ -------|
  B|7---------------7--------------|8---------------7--------------|
  G|7---------------5--------------|7---------------5--------------|
  D|7---------------7--------------|9---------------7--------------|
  A|-------------------------------|-------------------------------|
  E|-------------------------------|-------------------------------|
    ooooaaaaaaaaaaaaaaaaaaaaaahh    Mother        son
                                          Nature

  e|------- ------- ------- -------|------- ------- ------- -------|
  B|-------------------------------|-------------------------------|
  G|-------------------------------|-------------------------------|
  D|-------------------------------|-------------------------------|
  A|-------------------------------|-------------------------------|
  E|-------------------------------|-------------------------------|

        B  Bend
        R  Release
        /  Slide up
        \  Slide down
        H  Hammer-on
        P  Pull-off
        ~  Vibrato
        +  Harmonic
        x  Mute note
        .  Play note like a dot in standard notation
        ^  Ties two notes together
        (. Pause

    ----------------------------------------------------------

    THE BEATLES - EVERYBODY'S GOT SOMETHING TO HIDE EXCEPT ME
                  AND MY MONKEY (Lennon & McCartney) From the
                  WHITE ALBUM. Released on November 22nd 1968.

    ----------------------------------------------------------

    Tabbed by:PJVillanueva


    Come on come on come on come on
    Come on is such a joy
    Come on is such a joy
    Come on is is take it easy
    Come on take it easy
    Take it easy take it easy
    Everybodys got something to hide except for me and
    My monkey.

    The deeper you go the higher you fly
    The higher you fly the deeper you go
    So come on come on
    Come on is such a joy
    Come on is such a joy
    Come on make it easy
    Come on make it easy.

    Take it easy take it easy
    Everybodys got something to hide except for me and
    My monkey.

    Your inside is out and your outside is in
    Your outside is in and your inside is out
    So come on come on
    Come on is such a joy
    Come on is such a joy
    Come on make it easy
    Come on make it easy
    Make it easy make it easy
    Everybodys got something to hide except for me and my monkey


        E       A                       E       A
  e|----4-- ----5-- ----9-- -------|----4-- ----5-- ----9-- -------|
  B|----5-------5------10----------|----5-------5------10----------|
  G|----4-------6-------9----------|----4-------6-------9----------|
  D|-------------------------------|-------------------------------|
  A|-------------------------------|-------------------------------|
  E|-------------------------------|-------------------------------|

  e|----4-- ----5-- ----9-- -------|----4-- ----5-- ----9-- -------|
  B|----5-------5------10----------|----5-------5------10----------|
  G|----4-------6-------9----------|----4-------6-------9----------|
  D|-------------------------------|-------------------------------|
  A|-------------------------------|-------------------------------|
  E|-------------------------------|-------------------------------|

    00:08

  e|----4-- ----5-- ------- -------|----4-- ----5-- ------- -------|
  B|----5-------5------------------|----5-------5------------------|
  G|----4-------6------------------|----4-------6------------------|
  D|-------------------------------|-------------------------------|
  A|-------------------------------|-------------------------------|
  E|-------------------------------|-------------------------------|

  e|------- ------- ------- -------|------- ------- ------- -------|
  B|-------------------------------|-------------------------------|
  G|-------------------------------|-------------------------------|
  D|-------------------------------|-------------------------------|
  A|----7-------7-7----7-7-/9\--5--|----7-7---7---x/7---5----------|
  E|0-------0----------------------|0-----------------------5---7--|
    Come    come                    Come    come
        on      on                      on      on

  e|----4-- ----5-- ----5-- -------|----4-- ----5-- ----5-- -------|
  B|----5-------5-------5----------|----5-------5-------5----------|
  G|----4-------6-------6----------|----4-------6-------6----------|
  D|-------------------------------|-------------------------------|
  A|-------------------------------|-------------------------------|
  E|-------------------------------|-------------------------------|

  e|------- ------- ------- -------|------- ------- ------- -------|
  B|-------------------------------|-------------------------------|
  G|-------------------------------|-------------------------------|
  D|-------------------------------|-------------------------------|
  A|----7-7---7---7-7-5-7--/10--5--|----7-7---7--7-/9---454\2--/5--|
  E|0------------------------------|0--------------------HP--------|
    Come    is  such                Come    is  such
        on       a joy                  on       a joy

  e|----4-- ----5-- ----5-- -------|----4-- ----5-- ----5-- -------|
  B|----5-------5-------5----------|----5-------5-------5----------|
  G|----4-------6-------6----------|----4-------6-------6----------|
  D|-------------------------------|-------------------------------|
  A|-------------------------------|-------------------------------|
  E|-------------------------------|-------------------------------|

  e|------- ------- ------- -------|------- ------- ------- -------|
  B|-------------------------------|-------------------------------|
  G|-------------------------------|-------------------------------|
  D|-------------------------------|-------------------------------|
  A|----7-7---7----/9---5---7---7--|----7-7---7--5-/9---5---7---7-7|
  E|0------------------------------|0------------------------------|
    Come    is  take                Come    is  take            take
        on       it easy                on       it easy          it


    00:20
    A5      A6 ....
  e|------- ------- ------- -------|------- ------- ------- -------|
  B|-------------------------------|-------------------------------|
  G|-------------------------------|-------------------------------|
  D|-------------------------------|-------------------------------|
  A|7---7---9-------7---7---9---7--|7---7---9---7---7---7---9---7--|
  E|5---5---5-------5---5---5---5--|5---5---5---5---5---5---5---5--|

  e|------- ------- ------- -------|------- ------- ------- -------|
  B|-------------------------------|-------------------------------|
  G|-------------------------------|-------------------------------|
  D|-------------------------------|-------------------------------|
  A|7---7---7---x---7---7---7---7--|7---7---7---7---7---7---7---7-/|
  E|5---5---5---x---5---5---5---5--|5---5---5---5---5---5---5---5-/|
    easy                                                        take
                                                                  it


    D5      D6 ....
  e|------- ------- ------- -------|------- ------- ------- -------|
  B|-------------------------------|-------------------------------|
  G|-------------------------------|-------------------------------|
  D|7---7---9-------7---7---9---7--|7---7---9---7---7---7---9------|
  A|5---5---5-------5---5---5---5--|5---5---5---5---5---5---5------|
  E|-------------------------------|-------------------------------|

  e|------- ------- ------- -------|------- ------- ------- -------|
  B|-------------------------------|-------------------------------|
  G|-------------------------------|-------------------------------|
  D|-------------------------------|-------------------------------|
  A|12--12--12--12--12--12--12--12-|12--12--12--12--12--12--12--12-|
  E|10--10--10--10--10--10--10--10-|10--10--10--10--10--10--10--10-|
    easy                                                    Everybody's

    B5      B6 ....
  e|------- ------- ------- -------|------- ------- ------- -------|
  B|-------------------------------|-------------------------------|
  G|-------------------------------|-------------------------------|
  D|-------------------------------|-------------------------------|
  A|9---9--11---9---9---9--11---9--|9---9--11---9---9---9--11------|
  E|7---7---7---7---7---7---7---7--|7---7---7---7---7---7---7------|

  e|------- ------- ------- -------|------- ------- ------- -------|
  B|-------------------------------|-------------------------------|
  G|-------------------------------|-------------------------------|
  D|-------------------------------|-------------------------------|
  A\9---9---9---9---9---9---9---9--|9---9---9---9---9---9---9---9--|
  E\7---7---7---7---7---7---7---7--|7---7---7---7---7---7---7---7--|
            got     something   hide    except  for me  and my
                            to

    00:32                           x   x       x   x
    A           D           G
  e|------- ------- -------|7------ ------- ------- -------|
  B|5-----------7----------|8------------------------------|
  G|6-----------7----------|7------------------------------|
  D|7-----------7----------|-------------------------------|
  A|-----------------------|-------------------------------|
  E|-----------------------|-------------------------------|


  e|------- ------B -----R-|------- ------- ------- -------|
  B|--R---------1517---1715|-------------------------------|
  GB1412----12-------------|12-~---------------------------|
  D|----14-----------------|-------------------------------|
  A|-----------------------|-------------------------------|
  E|-----------------------|-------------------------------|
    monkey


                                    x   x       x   x
    E6           Em7        D6
  e|------- ----12- -------|14----- ------- ------- -------|
  B|14----------12---------|12-----------------------------|
  G|13----------12---------|14-----------------------------|
  D|14----------12---------|12-----------------------------|
  A|-----------------------|-------------------------------|
  E|-----------------------|-------------------------------|

  e|------- ---1517 ---1715|------- ------- ------- -------|
  BB17R15--------B-------R-|-------------------------------|
  G|--------16-------------|14-~---------------------------|
  D|-----------------------|-------------------------------|
  A|-----------------------|-------------------------------|
  E|-----------------------|-------------------------------|
                                                          The


    00:39

  e|4---4-- ------- ----5-- 5------|4---4-- ------- ----5-- 5------|
  B|5---5---------------5---5------|5---5---------------5---5------|
  G|4---4---------------6---6------|4---4---------------6---6------|
  D|-------------------------------|-------------------------------|
  A|-------------------------------|-------------------------------|
  E|-------------------------------|-------------------------------|

  e|------- ------- ------- -------|------- ------- ------- -------|
  B|-------------------------------|-------------------------------|
  G|-------------------------------|-------------------------------|
  D|-------------------------------|---------------/7---5----------|
  A|--7---7---7---7-/9--5---7------|--7---0---7-7-----------5---7--|
  E|0-------0-------------------0--|0-------0----------------------|
    deeper  you go              the higher  you fly             The


  e|4---4-- ------- ----5-- 5------|4---4-- ------- ----5-- 5------|
  B|5---5---------------5---5------|5---5---------------5---5------|
  G|4---4---------------6---6------|4---4---------------6---6------|
  D|-------------------------------|-------------------------------|
  A|-------------------------------|-------------------------------|
  E|-------------------------------|-------------------------------|

  e|------- ------- ------- -------|------- ------- ------- -------|
  B|-------------------------------|-------------------------------|
  G|-------------------------------|---------------------HP--------|
  D|-------------------------------|---------------/9---575-----5--|
  A|----7-7---7---7-/9--5---7------|------------------------7------|
  E|0-------0-------------------0--|0---0---0---0------------------|
    higher  you fly             the deeper  you go,     so  come
                                                                on

  e|4---4-- ----5-- ----5-- -------|4---4-- ----5-- ----5-- -------|
  B|5---5-------5-------5----------|5---5-------5-------5----------|
  G|4---4-------6-------6----------|4---4-------6-------6----------|
  D|-------------------------------|-------------------------------|
  A|-------------------------------|-------------------------------|
  E|-------------------------------|-------------------------------|

  e|------- ------- ------- -------|------- ------- ------- -------|
  B|-------------------------------|-------------------------------|
  G|-------------------------------|-------------------------------|
  D|-------------------------------|-------------------------------|
  A|----------------------------5--|----7-7---7---7-/9--5---7---7--|
  E|0---0---0---0---0---0----------|0------------------------------|
                            come
                                on

  e|4---4-- ----5-- ----5-- -------|4---4-- ----5-- ----5-- -------|
  B|5---5-------5-------5----------|5---5-------5-------5----------|
  G|4---4-------6-------6----------|4---4-------6-------6----------|
  D|-------------------------------|-------------------------------|
  A|-------------------------------|-------------------------------|
  E|-------------------------------|-------------------------------|

  e|------- ------- ------- -------|------- ------- ------- -------|
  B|-------------------------------|-------------------------------|
  G|-------------------------------|-------------------------------|
  D|-------------------------------|---------------/7---5----------|
  A|----7-7---7---7-/9--5---7------|----7-7---5-7-5---------5---7--|
  E|0---------------------------0--|0------------------------------|
    Come    is  such                Come    is  such
        on       a joy                  on       a joy


    E           A       D ....
  e|4---4-- ----5-- ----5-- -------|4---4-- ----5-- ----5-- -------|
  B|5---5-------5-------7----------|5---5-------5-------7----------|
  G|4---4-------6-------7----------|4---4-------6-------7----------|
  D|-------------------------------|-------------------------------|
  A|-------------------------------|-------------------------------|
  E|-------------------------------|-------------------------------|

  e|------- ------- ------- -------|------- ------- ------- -------|
  B|-------------------------------|-------------------------------|
  G|-------------------------------|-------------------------------|
  D|-------------------------------|-------------------------------|
  A|----7-7---7-7-7---------5---7--|----7-7---7-7-7---------5---7--|
  E|0---------------5---7----------|0---------------5---7----------|
    Come    is  make                Come    is  make            take
        on       it easy                on       it easy          it


    01:00

  e|------- ------- ------- -------|------- ------- ------- -------|
  B|2-------2-------2-------2------|2-------2-------2-------2------|
  G|2-------2-------2-------2------|2-------2-------2---2---2------|
  D|2---2---4-------2---2---4---2--|2---2---4---2---2---2---2---2--|
  A|0---0---0-------0---0---0---0--|0---0---0---0---0---0---0---0--|
  E|-------------------------------|-------------------------------|

  e|------- ------- ------- -------|------- ------- ------- -------|
  B|-------------------------------|-------------------------------|
  G|-------------------------------|-------------------------------|
  D|-------------------------------|-------------------------------|
  A|7---7---7---7---7---7---7---7--|7---7---7---7---7---7---7---7--|
  E|5---5---5---7---5---5---5---5--|5---5---5---5---5---5---5------|
    easy                                                        take
                                                                  it

  e|------- 2------ ------- 2------|------- ------- ------- 2------|
  B|3---3---3-------3---3---3------|--------3-------3---3---3------|
  G|2---2---4-------2---2---4---2--|2---2---4---2---2---2---4------|
  D|0---0---2-------0---0---0---0--|0---0---0---0---0---0---0------|
  A|-------------------------------|-------------------------------|
  E|-------------------------------|-------------------------------|

  e|------- ------- ------- -------|------- ------- ------- -------|
  B|-------------------------------|-------------------------------|
  G|-------------------------------|-------------------------------|
  D|-------------------------------|-------------------------------|
  A|12--12--12--12--12--12--12--12-|12--12--12--12--12--12--12--12\|
  E|10--10--10--10--10--10--10--10-|10--10--10--10--10--10--10--10\|
    easy                                                    Everybody's


  e|------- ------- ------- -------|------- ------- ------- -------|
  B|----------------------------4--|4-------4-------4---4---4------|
  G|4---4---4---4---4---4---4---4--|4---4---4---4---4---4---4------|
  D|4---4---6---4---4---4---6---4--|4---4---6---4---4---4---6------|
  A|2---2---2---2---2---2---2---2--|2---2---2---2---2---2---2------|
  E|-------------------------------|-------------------------------|

  e|------- ------- ------- -------|------- ------- ------- -------|
  B|-------------------------------|-------------------------------|
  G|-------------------------------|-------------------------------|
  D|-------------------------------|-------------------------------|
  A\9---9---9---9---9---9---9---9--|9---9---9---9---9---9----------|
  E\7---7---7---7---7---7---7---7--|7---7---7---7---7---7----------|
            got     something   hide    except  for me  and my
                            to


    01:12                           x   x       x   x

  e|------- ------- -------|7------ ------- ------- -------|
  B|5-----------7----------|8------------------------------|
  G|6-----------7----------|7------------------------------|
  D|7-----------7----------|-------------------------------|
  A|-----------------------|-------------------------------|
  E|-----------------------|-------------------------------|


  e|------- ------B -----R-|------- ------- ------- -------|
  B|--R---------1517---1715|-------------------------------|
  GB1412----12-------------|12-~---------------------------|
  D|----14-----------------|-------------------------------|
  A|-----------------------|-------------------------------|
  E|-----------------------|-------------------------------|
    monkey


                                    x   x       x   x

  e|------- ------- -------|14----- ------- ------- -------|
  B|14----------12---------|12-----------------------------|
  G|13----------12---------|14-----------------------------|
  D|14----------12---------|12-----------------------------|
  A|-----------------------|-------------------------------|
  E|-----------------------|-------------------------------|

  e|------- ---1517 ---1715|------- ------- ------- -------|
  BB17R15--------B-------R-|-------------------------------|
  G|--------16-------------|14-~---------------------------|
  D|-----------------------|-------------------------------|
  A|-----------------------|-------------------------------|
  E|-----------------------|-------------------------------|
                                                        Your


    01:19

  e|4---4-- ------- ----5-- 5------|4---4-- ------- ----5-- 5------|
  B|5---5---------------5---5------|5---5---------------5---5------|
  G|4---4---------------6---6------|4---4---------------6---6------|
  D|-------------------------------|-------------------------------|
  A|-------------------------------|-------------------------------|
  E|-------------------------------|-------------------------------|

  e|------- ------- ------- -------|------- ------- ------- -------|
  B|-------------------------------|-------------------------------|
  G|-------------------------------|-------------------------------|
  D|-------------------------------|-------------------------------|
  A|----7-7--------/9---5---7---7--|----7-7---7-7--/9---5---7------|
  E|0---------0---0----------------|0---------------------------0--|
    inside  is  out         and     outside is  in              your
                                your

  e|4---4-- ------- ----5-- 5------|4---4-- ------- ----5-- 5------|
  B|5---5---------------5---5------|5---5---------------5---5------|
  G|4---4---------------6---6------|4---4---------------6---6------|
  D|-------------------------------|-------------------------------|
  A|-------------------------------|-------------------------------|
  E|-------------------------------|-------------------------------|

  e|------- ------- ------- -------|------- ------- ------- -------|
  B|-------------------------------|-------------------------------|
  G|-------------------------------|-------------------------------|
  D|-------------------------------|---------------/7---5----------|
  A|----7-7---7-7--/9---5---7------|----7---x-7--x----------5---7--|
  E|0---------------------------0--|0------------------------------|
    outside is  in          and     inside  is  out,    so  come
                                your                            on

  e|----4-- ----5-- ----5-- -------|----4-- ----5-- ----5-- -------|
  B|----5-------5-------5----------|----5-------5-------5----------|
  G|----4-------6-------6----------|----4-------6-------6----------|
  D|-------------------------------|-------------------------------|
  A|-------------------------------|-------------------------------|
  E|-------------------------------|-------------------------------|

  e|------- ------- ------- -------|------- ------- ------- -------|
  B|-------------------------------|-------------------------------|
  G|-------------------------------|-------------------------------|
  D|----------------5H7-5H7--------|---------------/7---5----------|
  A|------------------------5---7--|----7-7---7-------------5---7--|
  E|0---0---0---0------------------|0------------------------------|
                            come
                                on

    01:31

  e|4---4-- ----5-- ----5-- -------|4---4-- ----5-- ----5-- -------|
  B|5---5-------5-------7----------|5---5-------5-------7----------|
  G|4---4-------6-------7----------|4---4-------6-------7----------|
  D|-------------------------------|-------------------------------|
  A|-------------------------------|-------------------------------|
  E|-------------------------------|-------------------------------|

  e|------- ------- ------- -------|------- ------- ------- -------|
  B|-------------------------------|-------------------------------|
  G|-------------------------------|-------------------------------|
  D|-------------------------------|-----------------HP------------|
  A|----7-7---7-7---5-----------7--|----7-7---7-7---575---------7--|
  E|0-------------------7--/10-----|0-------------------7--/10-----|
    Come    is  such                Come    is  such
        on       a joy                  on       a joy


  e|4---4-- ----5-- ----5-- -------|4---4-- ----5-- ----5-- -------|
  B|5---5-------5-------7----------|5---5-------5-------7----------|
  G|4---4-------6-------7----------|4---4-------6-------7----------|
  D|-------------------------------|-------------------------------|
  A|-------------------------------|-------------------------------|
  E|-------------------------------|-------------------------------|

  e|------- ------- ------- -------|------- ------- ------- -------|
  B|-------------------------------|-------------------------------|
  G|-------------------------------|-------------------------------|
  D|-----------------HP------------|-------------------------------|
  A|----7-7---7---7-575---------7--|----7-7---7-7--/9---7---5---7--|
  E|0-------------------7--/10-----|0------------------------------|
    Come    is  make                Come    is  make            take
        on       it easy                on       it easy          it

    01:39

  e|------- ------- ------- -------|------- ------- ------- -------|
  B|----------------2--------------|-------------------------------|
  G|----------------2--------------|-------------------------------|
  D|2---2---4---2---2---2---4---2--|2---2---4---2---2---2---2------|
  A|0---0---0---0---0---0---0---0--|0---0---0---0---0---0---0------|
  E|-------------------------------|-------------------------------|

  e|------- ------- ------- -------|------- ------- ------- -------|
  B|-------------------------------|-------------------------------|
  G|-------------------------------|-------------------------------|
  D|----------------7--------------|----7---------------7---7------|
  A|7---7---7---7---7---7---7---7--|7---7---7---7---7---7---7---7--|
  E|5---5---5---7-------5---5---5--|5-------5---5---5-----------5--|
    easy                                                        Take
                                                                  it

  e|------- ------- ------- -------|2------ ------- ------- -------|
  B|3---3---3-------3---3---3---3--|3---3---3---3---3---3---3------|
  G|2---2---4-------2---2---4---2--|2---2---4---2---2---2---4------|
  D|0---0---2-------0---0---0---0--|0---0---0---0---0---0---0------|
  A|-------------------------------|-------------------------------|
  E|-------------------------------|-------------------------------|

  e|------- ------- ------- -------|------- ------- ------- -------|
  B|-------------------------------|-------------------------------|
  G|-------------------------------|-------------------------------|
  D|-------------------------------|-------------------------------|
  A|12--12--12--12--12--12--12--12-|12--12--12--12--12--12--12--\--|
  E|10--10--10--10--10--10--10--10-|10--10--10--10--10--10--10--\--|
    easy                                                    Everybody's

  e|------- ------- ------- -------|------- ------- ------- 5------|
  B|--------------------4-------4--|------------4------------------|
  G|4---4---4-------4---4---4---4--|4---4---4---4---4---4----------|
  D|4---4---6-------4---4---6---4--|4---4---6---4---4---4----------|
  A|2---2---2-------2---2---2---2--|2---2---2---2---2---2----------|
  E|-------------------------------|-------------------------------|

  e|------- ------- ------- -------|------- ------- ------- -------|
  B|-------------------------------|-------------------------------|
  G|-------------------------------|-------------------------------|
  D|-------------------------------|-------------------------------|
  A\9---9---9---9---9---9---9---9--|9---9---9---9---9---9----------|
  E\7---7---7---7---7---7---7---7--|7---7---7---7---7---7----------|
            got     something   hide    except  for me and  my
                            to

    01:52                           x   x       x   x
    A           D           Em7
  e|------- ------- -------|12----- ------- ------- -------|
  B|5-----------7----------|12-----------------------------|
  G|6-----------7----------|12-----------------------------|
  D|7-----------7----------|12-----------------------------|
  A|-----------------------|-------------------------------|
  E|-----------------------|-------------------------------|


  e|------- ------B -----R-|------- ------- ------- -------|
  B|--R---------1517---1715|-------------------------------|
  GB1412----12-------------|12-~---------------------------|
  D|----14-----------------|-------------------------------|
  A|-----------------------|-------------------------------|
  E|-----------------------|-------------------------------|
    monkey                                          Hey!


                                    x   x       x   x
    Bm7         Em7         D6
  e|12----- ----12- -------|14----- ------- ------- -------|
  B|14----------12---------|12-----------------------------|
  G|13----------12---------|14-----------------------------|
  D|14----------12---------|12-----------------------------|
  A|-----------------------|-------------------------------|
  E|-----------------------|-------------------------------|

  e|------- ---1517 ---1715|------- ------- ------- -------|
  BB17R15--------B-------R-|-------------------------------|
  G|--------16-------------|14-~---------------------------|
  D|-----------------------|-------------------------------|
  A|-----------------------|-------------------------------|
  E|-----------------------|-------------------------------|
                                 Come on  come on  come on
                                    come on  come on come on

    01:59

  e|------- ------- ------- -------|------- ------- ------- -------|
  B|9------------------------------|-------------------------------|
  G|9------------------------------|-------------------------------|
  D|9------------------------------|-------------------------------|
  A|7------------------------------|-------------------------------|
  E|-------------------------------|-------------------------------|
    come on  come on  come on
       come on  come on  come on ....

  e|------- ------- ------- -------|
  B|-------------------------------|
  G|-------------------------------|
  D|-------------------------------|
  A|-------------------------------|
  E|-------------------------------|

    02:05
    D             Db  D ....
  e|------- ------- ------- -------|------- ------- ------- -------|
  B|7---7-7---7---6-6/7-7-7---7---6|6/7-7-7---7---6-6/7-7-7---7---6|
  G|7---7-7---7---6-6/7-7-7---7---6|6/7-7-7---7---6-6/7-7-7---7---6|
  D|7---7-7---7---6-6/7-7-7---7---6|6/7-7-7---7---6-6/7-7-7---7---6|
  A|5---5-5---5---4-4/5-5-5---5---4|5/7-5-5---5---4-4/5-5-5---5---4|
  E|5---5-5---5---4-4/5-5-5---5---4|5/7-5-5---5---4-4/5-5-5---5---4|

  e|------- ------- ------- -------|
  B|6/7-7-7---7-7---6/7-7-7---7-7--|
  G|6/7-7-7---7-7---6/7-7-7---7-7--|
  D|6/7-7-7---7-7---6/7-7-7---7-7--|
  A|4/5-5-5---5-5---4/5-5-5---5-5--|
  E|4/5-5-5---5-5---4/5-5-5---5-5--|

    02:11

  e|----4-- ----5-- ------- -------|----4-- ----5-- ------- -------|
  B|----5-------5------------------|----5-------5------------------|
  G|----4-------6------------------|----4-------6------------------|
  D|-------------------------------|-------------------------------|
  A|-------------------------------|-------------------------------|
  E|-------------------------------|-------------------------------|


  e|------- ------- ------- -------|------- ------- ------- -------|
  B|-------------------------------|-------------------------------|
  G|-------------------------------|-------------------------------|
  D|-------------------------------|---------------/7---5----------|
  A|-------------7----7---7-/9\-5--|------7---7---7---------5---7--|
  E|0-0-0-0---0--------------------|0-0-0--------------------------|
    Come on  come on  come on
       come on  come on  come on ....

  e|----4-- ----5-- ----5-- -------|----4-- ----5-- ----5-- -------|
  B|----5-------5-------7----------|----5-------5-------7----------|
  G|----4-------6-------7----------|----4-------6-------7----------|
  D|-------------------------------|-------------------------------|
  A|-------------------------------|-------------------------------|
  E|-------------------------------|-------------------------------|

  e|------- ------- ------- -------|------- ------- ------- -------|
  B|-------------------------------|-------------------------------|
  G|-------------------------------|-------------------------------|
  D|-----------------PH------------|-----------------HP--HP--------|
  A|------7---7---5-757-7/9-----5--|------7---7---7-797-575\2--/5--|
  E|0---0--------------------------|0---0--------------------------|
    .......................... Fade out ...........................


  e|----4-- ----5-- ----5-- -------|----4-- ----5-- ----5-- -------|
  B|----5-------5-------5----------|----5-------5-------5----------|
  G|----4-------6-------6----------|----4-------6-------6----------|
  D|-------------------------------|-------------------------------|
  A|-------------------------------|-------------------------------|
  E|-------------------------------|-------------------------------|

  e|------- ------- ------- -------|------- ------- ------- -------|
  B|-------------------------------|-------------------------------|
  G|-------------------------------|-------------------------------|
  D|-------------------------------|-------------------------------|
  A|------7---7---5-/9--5---7------|--7---7---7---5-/9--5---7------|
  E|0---0-----------------------0--|0------------------------------|
    ...............................................................

        B  Bend
        R  Release
        /  Slide up
        \  Slide down
        H  Hammer-on
        P  Pull-off
        ~  Vibrato
        +  Harmonic
        x  Mute note
        .  Play note like a dot in standard notation
        ^  Ties two notes together
        (. Pause

  ------------------------------------------------------------

  THE BEATLES - SEXY SADIE (Lennon & McCartney) From the WHITE
                ALBUM. Released on November 22nd 1968.

  ------------------------------------------------------------

  Tabbed by:PJVillanueva


  Sexy Sadie what have you done
  You made a fool of everyone
  You made a fool of everyone
  Sexy Sadie ooh what have you done.

  Sexy Sadie you broke the rules
  You layed it down for all to see
  You layed it down for all to see
  Sexy Sadie oooh you broke the rules.

  One sunny day the world was waiting for a lover
  She came along to turn on everyone
  Sexy Sadie the greatest of them all.

  Sexy Sadie how did you know
  The world was waiting just for you
  The world was waiting just for you
  Sexy Sadie oooh how did you know.

  Sexy Sadie you'll get yours yet
  However big you think you are
  However big you think you are
  Sexy Sadie oooh you'll get yours yet.

  We gave her everything we owned just to sit at her table
  Just a smile would lighten everything
  Sexy Sadie she's the latest and the greatest of them all.

  She made a fool of everyone
  Sexy Sadie.

  However big you think you are
  Sexy Sadie.


e|------- ------- ------- 5------|3------ 3------ 5------ 7---8--|
B|------------------------5------|5-------5-------7-7-----8--10--|
G|------------------------7---7--|5-------5-------7--------------|
D|-------------------------------|----------------0---0----------|
A|-------------------------------|3---3--------3-----------------|
E|-------------------------------|-------------------------------|


e|10--7-- ------- ------- -------|------- ------- ------- -------|
B|12--8---8----------------------|------------------------------3|
G|-0------7---7---6---6-------6--|5---5-------5---2---2---4-5---4|
D|------------9---8---8-------8--|7---7-------7---4---4---5-7---5|
A|----------------9---9---9------|8-------8-------5--------------|
E|-------------------------------|-------------------------------|

  G               F#              Bm
e|------- ------- ------- -------|2------ 2------ 2------ 2------|
B|----3---3---3---2-------2------|3-------3-------3-------3------|
G|----4---4---4---3-------3------|4-------4-------4---4---2------|
D|----5---5---5---4-------4------|4-----------4-------------4----|
A|-------------------------------|2-----------------------2------|
E|3---3-------3---2---2-------2--|-------------------------------|
          Sexy Sadie                   What have you done?
e|------- ------- ------- -------|------- ------- 2------ -------|
B|-------------------------------|------------3-------3----------|
G|-------------------------------|--------4---------------4------|
D|--------5---------------4------|----4-----------------------4--|
A|----5-------5-------4-------2--|2------------------------------|
E|3---------------2--------------|-------------------------------|

  C               D               G               F#
e|0------ 0------ 5---5-- 7---8--|10--7-- ------- ------- -------|
B|1-------1-------7---7---8--10--|12--8---8----------------------|
G|0-------0-------7---7----------|-0------7---7---6-------6------|
D|----0---2-------0-------0------|------------9---8-------8------|
A|3-----------3------------------|----------------9-------9------|
E|-------------------------------|-------------------------------|
      You  made a fool of  everyone
e|------- ------- ------- -------|------- ------- ------- -------|
B|-------------------------------|-------------------------------|
G|--------5---------------7------|-------------------------------|
D|----5-------5-------7-------7--|--------5---------------4------|
A|3---------------5--------------|----5-------5-------4-------4--|
E|-------------------------------|3---------------2--------------|

  C               D               G               F#
e|0------ 0------ 2------ 2------|------- ------- ------- -------|
B|1-------1-------3-------3------|3-------3-------2-------2------|
G|5-------5-------2-------2------|4-------4-------3-------3------|
D|----------------0---2---4---0--|5-------5-------4-------4------|
A|3---2---3---4------------------|-------------------------------|
E|-------------------------------|3---3-------3---2---2-------2--|
      You made a fool of  evryone                         Sexy Sadie
e|------- ------- ------- -------|------- ------- ------- -------|
B|-------------------------------|-------------------------------|
G|--------5-------7-7-----7------|-------------------------------|
D|----5-------5-/-----7-------7--|--------5---------------4------|
A|3------------------------------|----5-------5-------4-------4--|
E|-------------------------------|3---------------2--------------|

  F               D
e|------- ------- ------- -------|
B|1-------1-------3-------3------|
G|2-------2-------2-------2------|
D|3-------3-------0-------0------|
A|-------------------------------|
E|1---1-------1---2---2-------2--|
              Ooh   what have you
e|------- ------- ------- -------|
B|------------------------3------|
G|------------------------5------|
D|--------3-----------4----------|
A|----3-------3---5--------------|
E|1------------------------------|

  G               F#              Bm
e|------- ------- ------- -------|2------ 2------ ----2-- 2---2--|
B|3-------3-------2-------2------|3-------3-----------3---3---3--|
G|4-------4-------3-------3------|4-------4-----------4---4---4--|
D|5-------5-------4-------4------|4-------4-----------4---4---4--|
A|-------------------------------|2-------2-----------2---2---2--|
E|3-----------3---2---2-------2--|-------------------------------|
  done    Sexy Sadie                You broke the rules
e|------- ------- ------- -------|------- ------- ------- -------|
B|-------------------------------|----------------7--------------|
G|-------------------------------|------------7-------7----------|
D|--------5---------------4------|--------9---------------9------|
A|----5-------5-------4-------4-/|----9--------------------------|
E|3---------------2--------------|7---------------------------7--|

  C               D               G               F#
e|0------ 0------ 5-----7 ----8--|10--7-- ------- ------- -------|
B|1-------1-------7-----8----10--|12--8---8----------------------|
G|0-------0-------7---7----------|-0------7---7---6-------6------|
D|----------------0-------0------|------------9---8-------8------|
A|3---2---3---4------------------|----------------9-------9------|
E|-------------------------------|-------------------------------|
     You laid it down for all to see
e|------- ------- ------- -------|------- ------- ------- -------|
B|-------------------------------|-------------------------------|
G|--------5---------------7------|-------------------------------|
D|----5-------5-------7-------7--|--------5---------------4------|
A|3---------------5--------------|----5-------5-------4-------4--|
E|-------------------------------|3---------------2--------------|

  C               D               G               F#
e|0------ 0------ 2------ 2------|------- ------- ------- -------|
B|1-------1-------3-------3------|3-------3-------2-------2------|
G|0-------0-------2-------2------|4-------4-------3-------3------|
D|----0---2-------0---2---4---0--|5-------5-------4-------4------|
A|3-----------3------------------|-------------------------------|
E|-------------------------------|3---3---3---3---2---2---2---2--|
      You laid it down for all to see                     Sexy Sadie
e|------- ------- ------- -------|------- ------- ------- -------|
B|-------------------------------|-------------------------------|
G|--------5---------------7------|-------------------------------|
D|----5-------5-/-----7-------7--|--------5---------------4------|
A|3---------------5--------------|----5-------5-------4-------4--|
E|-------------------------------|3---------------2--------------|

  F               D
e|------- ------- 2------ 2------|
B|1-------1-------3-------3------|
G|2-------2-------2-------2------|
D|3-------3-------0---2---4---0--|
A|--------3----------------------|
E|1---1-------1------------------|
             Ooh you broke the rules
e|------- ------- ------- -------|
B|------------------------3------|
G|------------------------5------|
D|--------3-----------4-------4--|
A|----3-------3---5--------------|
E|1------------------------------|

  G               Am              Bm              C
e|------- ------- ------- -------|------- ------- ------- -------|
B|0-------0-------1-------1------|3-------3-------1-------1------|
G|0-------0-------2-------2------|4-------4-------0-------0------|
D|0-------0-------2-------2------|4-------4-------2-------2------|
A|----------------0---0---0---0--|2---2---2---2---3---3---3---3--|
E|3---3---3---3------------------|-------------------------------|
   One sunny day the world was waiting for a lover
e|------- ------- ------- -------|------- ------- ------- -------|
B|-------------------------------|-------------------------------|
G|-------------------------------|--------------------------9-9-\|
D|----------3---------------7----|----------7--------------------|
A|------3H5-------------5H7------|------7H9-------------8H10-----|
E|3---------------5--------------|7---------------8--------------|

  G               Am              Bm              C
e|------- ------- ------- -------|------- ------- ------- -------|
B|0-------0-------1-------1------|3-------3-------1-------1------|
G|0-------0-------2-------2------|4-------4-------0-------0------|
D|0-------0-------2-------2------|4-------4-------2-------2------|
A|----------------0---0---0---0--|2---2---2---2---3---3---3---3--|
E|3---3---3---3------------------|-------------------------------|
    She came along to turn on everyone                        Sexy
e|------- ------- ------- -------|------- ------- ------- -------|
B|-------------------------------|-------------------------------|
G|-------------------------------|------------------------9------|
D|----------3---------------7----|----------7-----------8--10-8--|
A|------3H5-------------5H7------|------7H9----------------------|
E|3---------------5--------------|7---------------8--------------|

  A               G#              G               F#
e|------- ------- ------- -------|------- ------- ------- -------|
B|2-------2-------4-------4------|3-------3-------2-------2------|
G|2-------2-------5-------5------|4-------4-------3-------3------|
D|2-------2-------6-------6------|5-------5-------4-------4------|
A|0-----------0------------------|-------------------------------|
E|----------------4-----------4--|3-----------3---2-----------2--|
  Sadie     the greatest of them all      Sexy Sadie
e|------- ------- ------- -------|------- ------- ------- -------|
B|-------------------------------|-------------------------------|
G|-------------------------------|-------------------------------|
D|--------7---------------6------|--------5---------------4------|
A|----7-------7-------6-------6--|----5-------5-------4-------4--|
E|5---------------4--------------|3---------------2--------------|

  Bm
e|2------ 7---7-- 7-7-7-7 7-7-7-7|
B|3------------------------------|
G|4------------------------------|
D|4------------------------------|
A|2------------------------------|
E|-------------------------------|
     How did you know
e|------- ------- ------- -------|
B|----------------7--------------|
G|------------7-------7----------|
D|--------9---------------9------|
A|----9--------------------------|
E|7---------------------------7--|

  C               D               G               F#
e|0------ 0------ 5------ 7---8--|10--7-- ------- ------- -------|
B|1-------1-------7-------8--10--|12--8---8----------------------|
G|0-------0-------7---7----------|-0------7---7---6---6----------|
D|----0---2-------0-------0------|------------9---8---8----------|
A|3-----------3------------------|----------------9---9----------|
E|-------------------------------|-------------------------------|
   The world was waiting just for you
e|------- ------- ------- -------|------- ------- ------- -------|
B|--------5----------------------|-------------------------------|
G|------------------------7------|-------------------------------|
D|----5-------5-/-----7-------7--|--------5---------------4------|
A|3---------------5--------------|----5-------5-------4-------4--|
E|-------------------------------|3---------------2--------------|


  C               D               G               F#
e|3------ 3------ 5------ 5------|------- ------- ------- -------|
B|5-------5-------7-------7------|3-------3-------2-------2------|
G|5-------5-------7-------7------|4-------4-------3-------3------|
D|----------------0---2---4---0--|5-------5-------4-------4------|
A|3---2---3---4------------------|-------------------------------|
E|-------------------------------|3---3---3---3---2---2---2---2--|
   The world was waiting just for you                    Sexy Sadie
e|------- ------- ------- -------|------- ------- ------- -------|
B|-------------------------------|-------------------------------|
G|--------5---------------7------|-------------------------------|
D|----5-------5-------7-------7--|--------5---------------4------|
A|3---------------5--------------|----5-------5-------4-------4--|
E|-------------------------------|3---------------2--------------|

  F               D               G               F#
e|------- ------- ------- -------|------- ------- ------- -------|
B|1-------1-------3-------3------|3-------3-------2-------2------|
G|2-------2-------2-------2------|4-------4-------3-------3------|
D|3-------3-------0-------0------|5-------5-------4-------4------|
A|-------------------------------|-------------------------------|
E|1---1---1---1---2---2---2---2--|3---3---3---3---2---2---2---2--|
             Ooh   how did you know       Sexy Sadie
e|------- ------- ------- -------|------- ------- ------- -------|
B|------------------------3------|-------------------------------|
G|------------------------5------|-------------------------------|
D|--------3-----------4----------|--------5---------------4------|
A|----3-------3---5--------------|----5-------5-------4-------4--|
E|1------------------------------|3---------------2--------------|

  Bm
e|2------ 2------ 2------ 2------|
B|3-------3-------3-------3------|
G|4-------4-------4-------4------|
D|-------------------------------|
A|2-------------------2-2---2-2--|
E|-------------------------------|
    You'll get yours yet
e|------- ------- ------- -------|
B|----------------7--------------|
G|------------7-------7----------|
D|--------9---------------9------|
A|----9--------------------------|
E|7---------------------------7--|

  C               D               G               F#
e|0------ 0------ 5------ 7---8--|10--7-- ------- ------- -------|
B|1-------1-------7-------8--10--|12--8---8----------------------|
G|0-------0-------7---7----------|--------7---7---6--------------|
D|--------0---2---0--------------|------------9---8--------------|
A|3---3--------------------------|----------------9--------------|
E|-------------------------------|-------------------------------|
     However big you think you are
e|------- ------- ------- -------|------- ------- ------- -------|
B|--------5----------------------|-------------------------------|
G|----5-------5-----------7------|-------------------------------|
D|--------------------7-------7--|--------5---------------4------|
A|3---------------5--------------|----5-------5-------4-------4--|
E|-------------------------------|3---------------2--------------|

  C               D               G               F#
e|3------ 3------ 5------ 5------|------- ------- ------- -------|
B|5-------5-------7-------7------|3-------3-------2-------2------|
G|5-------5-------7-------7------|4-------4-------3-------3------|
D|----------------0---2---4---0--|5-------5-------4-------4------|
A|3---2---3---4------------------|-------------------------------|
E|-------------------------------|3---3---3---3---2---2---2---2--|
     However big you think you are                        Sexy Sadie
e|------- ------- ------- -------|------- ------- ------- -------|
B|-------------------------------|-------------------------------|
G|--------5-------7-------7------|-------------------------------|
D|----5-------5-------7-------7--|--------5---------------4------|
A|3------------------------------|----5-------5-------4-------4--|
E|-------------------------------|3---------------2--------------|

  F               D
e|------- ------- 2------ 2------|
B|1-------1-------3-------3------|
G|2-------2-------2-------2------|
D|3-------3-------0---0-------0--|
A|------------------------0------|
E|1---1---1---1------------------|
            Ooh you'll get yours yet
e|------- ------- ------- -------|
B|------------------------3------|
G|------------------------5------|
D|--------3-----------4----------|
A|----3-------3---5--------------|
E|1------------------------------|

  G               Am              Bm              C
e|------- ------- ------- -------|------- ------- ------- -------|
B|3-------3-------1-------1------|3-------3-------5-------5------|
G|4-------4-------2-------2------|4-------4-------5-------5------|
D|5-------5-------2-------2------|4-------4-------5-------5------|
A|----------------0-----------0--|2-----------2---3-----------3--|
E|3-----------3------------------|-------------------------------|
 We gave her everything we owned ............
e|------- ------- ------- -------|------- ------- ------- -------|
B|-------------------------------|-------------------------------|
G|-------------------------------|--------------------------9-\--|
D|----------3---------------7----|----------7--------------------|
A|------3H5-------------5H7------|------7H9-------------8H10-----|
E|3---------------5--------------|7---------------8--------------|

e|------- ------- ------- -------|------- ------- ------- -------|
B|3---------------5--------------|7---------------8--------------|
G|4---------------5--------------|7---------------9--------------|
D|5---------------7--------------|9--------------10--------------|
A|-------------------------------|-------------------------------|
E|-------------------------------|-------------------------------|

  G               Am              Bm              C
e|------- ------- ------- -------|------- ------- ------- -------|
B|3-------3-------1-------1------|3-------3-------1-------1------|
G|4-------4-------2-------2------|4-------4-------0-------0------|
D|5-------5-------2-------2------|4-------4-------2-------2------|
A|----------------0-----------0--|2-----------2---3---3---2---2--|
E|3-----------3------------------|-------------------------------|
  Just a smile would lighten everything                   Sexy
e|------- ------- ------- -------|------- ------- ------- -------|
B|-------------------------------|-------------------------------|
G|-------------------------------|-------------------------------|
D|----------3---------------7----|----------7-----------8---8----|
A|------3H5-------------5H7------|------7H9-------------------10-|
E|3---------------5--------------|7---------------8--------------|

e|------- ------- ------- -------|------- ------- ------- -------|
B|3---------------5--------------|7---------------8--------------|
G|4---------------5--------------|7---------------9--------------|
D|5---------------7--------------|9--------------10--------------|
A|-------------------------------|-------------------------------|
E|-------------------------------|-------------------------------|

  A               G#              G               F#
e|------- ------- ------- -------|------- ------- ------- -------|
B|2-------2-------4-------4------|3-------3-------2-------2------|
G|2-------2-------5-------5------|4-------4-------3-------3------|
D|2-------2-------6-------6------|5-------5-------4-------4------|
A|0---0---0---0------------------|-------------------------------|
E|----------------4---4-------4--|3---3---3---3---2---2-------2--|
 Sadie she's the latest and  the greatest of them all
e|------- ------- ------- -------|------- ------- ------- ----9--|
B|5---------------4--------------|3---------------2----------11--|
G|6---------------5--------------|4---------------3----------11--|
D|7---------------6--------------|5---------------4--------------|
A|-------------------------------|-------------------------------|
E|-------------------------------|-------------------------------|


  Bm
e|2------ 2------ 2------ 2------|
B|3-------3-------3-------3------|
G|4-------4-------4-------4------|
D|----------------4-------4------|
A|2-----------2-------2-----2-2--|
E|-------------------------------|

e|------- ------- ------- -------|
B|----------------7--------------|
G|------------7-------7----------|
D|--------9---------------9------|
A|----9--------------------------|
E|7---------------------------7--|
          AaaaH....
e|7------ ------- ------- -------|
B|7---7--------------------------|
G|7------------------------------|
D|-------------------------------|
A|-------------------------------|
E|7------------------------------|

  C               D               G               F#
e|0------ 0------ 2------ 2------|------- ------- ------- -------|
B|1-------1-------3-------3------|3-------3-------2-------2------|
G|0-------0-------2-------2------|4-------4-------3-------3------|
D|--------0---2---0---0---2---4--|5-------5-------4-------4------|
A|3---3--------------------------|-------------------------------|
E|-------------------------------|3---3---3---3---2---2-------2--|

e|------- ------- ------- -------|------- ------- ------- -------|
B|-------------------------------|-------------------------------|
G|-------------------------------|-------------------------------|
D|----3---5-------4---5---7---7--|9-B-10--9-B-10--8--------------|
A|-------------------------------|-------------------------------|
E|-------------------------------|-------------------------------|

e|12----- ------- 14----- -------|10----- ------- -9----- -------|
B|13--------------15-------------|12--------------11-------------|
G|12--------------14-------------|12--------------11-------------|
D|-------------------------------|-------------------------------|
A|-------------------------------|-------------------------------|
E|-------------------------------|-------------------------------|

  C               D               G               F#
e|0------ 0------ 2------ 2------|------- ------- ------- -------|
B|1-------1-------3-------3------|3-------3-------2-------2------|
G|0-------0-------2-------2------|4-------4-------3-------3------|
D|----------------0---2---4---0--|5-------5-------4-------4------|
A|3---3---3---3------------------|-------------------------------|
E|-------------------------------|3---3-------3---2---2-------2--|
      You made a fool of  evryone
e|------- ------- ------- -------|------- ------- ------- -------|
B|-------------------------------|-------------------------------|
G|-------------------------------|-------------------------------|
D|2---3---5-------4---5---7------|9-B-10--9-B-10--8--------------|
A|-------------------------------|-------------------------------|
E|-------------------------------|-------------------------------|

e|12----- ------- 14----- -------|10----- ------- -9----- -------|
B|13--------------15-------------|12--------------11-------------|
G|12--------------14-------------|12--------------11-------------|
D|-------------------------------|-------------------------------|
A|-------------------------------|-------------------------------|
E|-------------------------------|-------------------------------|

  F               D
e|------- ------- ------- -------|
B|1-------1-------3-------3------|
G|2-------2-------2-------2------|
D|3-------3-------0-------0------|
A|-------------------------------|
E|1---1-------1---2---2-------2--|

e|------- ------- ------- -------|
B|------------------------3------|
G|------------------------5------|
D|--------3-----------4----------|
A|----3-------3---5--------------|
E|1------------------------------|

e|------- ------- ------- -------|
B|-------------------------------|
G|-------------------------------|
D|7-B-9---7-B-9------------------|
A|----------------5--------------|
E|-------------------------------|

  G               F#              Bm
e|------- ------- ------- -------|2------ 2------ 2------ 2------|
B|3-------3-------2-------2------|3-------3-------3-------3------|
G|4-------4-------3-------3------|4-------4-------4-------4------|
D|5-------5-------4-------4------|-------------------------------|
A|-------------------------------|2-----------2-------2---2---2--|
E|3---3-------3---2---2-------2--|-------------------------------|

e|------- ------- ------- -------|------- ------- ------- -------|
B|-------------------------------|----------------7--------------|
G|-------------------------------|------------7-------7----------|
D|--------5---------------4------|--------9---------------9------|
A|----5-------5-------4-------4--|----9--------------------------|
E|3---------------2--------------|7---------------------------7--|

e|------- ------- ------- -------|------- ------- ------- -------|
B|-------------------------------|-------------------------------|
G|-------------------------------|----7-9-9B11----9B11R9---------|
D|9-B-10--9-B-10--11-------------|9-----------------------9------|
A|------------------------9------|-------------------------------|
E|-------------------------------|-------------------------------|

  C               D               G               F#
e|0------ 0------ 2------ 2------|------- ------- ------- -------|
B|1-------1-------3-------3------|3-------3-------2-------2------|
G|0-------0-------2-------2------|4-------4-------3-------3------|
D|----0---2-------0---2---4---0--|5-------5-------4-------4------|
A|3-----------3------------------|-------------------------------|
E|-------------------------------|3---3---3---3---2---2---2---2--|

e|------- ------- ------- -------|------- ------- ------- -------|
B|-------------------------------|-------------------------------|
G|-------------------------------|-------------------------------|
D|2---3---5-------4---5---7------|9-B-10--9-B-10--8--------------|
A|-------------------------------|-------------------------------|
E|-------------------------------|-------------------------------|

e|------- ------- ------- -------|------- ------- ----9-- -------|
B|-------------------------------|-------------------11----------|
G|-------------------------------|-------------------11----------|
D|-------------------------------|-------------------------------|
A|-------------------------------|-------------------------------|
E|-------------------------------|-------------------------------|


  C               D               G               F#
e|0------ 0------ 2------ 2------|------- ------- ------- -------|
B|1-------1-------3-------3------|3-------3-------2-------2------|
G|0-------0-------2-------2------|4-------4-------3-------3------|
D|----------------0---2---4---0--|5-------5-------4-------4------|
A|3---2---3---4------------------|-------------------------------|
E|-------------------------------|3---3-----3-----2---2-------2--|
     However big you think you are
e|------- ------- ------- -------|------- ------- ------- -------|
B|-------------------------------|-------------------------------|
G|-------------------------------|-------------------------------|
D|2---3---5-------4---5---7------|9-B-10--9-B-10--8--------------|
A|-------------------------------|-------------------------------|
E|-------------------------------|-------------------------------|

e|12----- ------- 14----- -------|10----- ------- -9----- -------|
B|13--------------15-------------|12--------------11-------------|
G|12--------------14-------------|12--------------11-------------|
D|-------------------------------|-------------------------------|
A|-------------------------------|-------------------------------|
E|-------------------------------|-------------------------------|


  F               D
e|------- ------- 2------ 2------|
B|1-------1-------3-------3------|
G|2-------2-------2-------2------|
D|3-------3-------0---0----------|
A|------------------------0---0--|
E|1---1---1---1------------------|

e|------- ------- ------- -------|
B|------------------------3------|
G|------------------------5------|
D|--------------------4----------|
A|----------------5--------------|
E|-------------------------------|

e|------- ------- ------- -------|
B|-------------------------------|
G|-------------------------------|
D|7-B-9---7-B-9------------------|
A|----------------5--------------|
E|-------------------------------|

  G               F#              Bm
e|------- ------- ------- -------|2------ 2------ ----2-- 2---2--|
B|3-------3-------2-------2------|3-------3-----------3---3---3--|
G|4-------4-------3-------3------|4-------4-----------4---4---4--|
D|5-------5-------4-------4------|-------------------------------|
A|-------------------------------|2-------2-----------2---2------|
E|3---3---3---3---2---2---2---2--|----------------------------2--|

e|------- ------- ------- -------|------- ------- ------- -------|
B|-------------------------------|----------------7--------------|
G|--------4---------------3------|------------7-------7----------|
D|----5-------5-------4-------4-/|--------9---------------9------|
A|5---------------4--------------|----9--------------------------|
E|-------------------------------|7---------------------------7--|

e|------- ------- ------- -------|------- ------- ------- -------|
B|-------------------------------|-------------------------------|
G|-------------------------------|----7-9-9B11----9B11R9---------|
D|9-B-10--9-B-10--11-------------|9-----------------------9------|
A|-------------------------------|-------------------------------|
E|-------------------------------|-------------------------------|

e|--10--- 10----- ------- -------|------- ------- ------- -------|
B|--12----12--------------12--12\|-------------------------------|
G|-------------------------------|-------------------------------|
D|-------------------------------|-------------------------------|
A|-------------------------------|-------------------------------|
E|-------------------------------|-------------------------------|


  C               D               G               F#
e|0------ 0------ 2------ 2------|------- ------- ------- -------|
B|1-------1-------3-------3------|3-------3-------2-------2------|
G|0-------0-------2-------2------|4-------4-------3-------3------|
D|----0---2-------0---2---4---0--|5---5---5-------4-------4------|
A|3-----------3------------------|-------------------------------|
E|-------------------------------|3---3---3---3---2---2---2---2--|
  ..............................Fade.............................
e|------- ------- ------- -------|------- ------- ------- -------|
B|-------------------------------|-------------------------------|
G|-------------------------------|-------------------------------|
D|2---3---5-------4---5---7------|9-B-10--9-B-10--8--------------|
A|-------------------------------|-------------------------------|
E|-------------------------------|-------------------------------|

e|------- ------- ------- -------|------- ------- ------- -------|
B|------------8-/-10--10---------|----------------3--------------|
G|-------------------------------|----------------3--------------|
D|-------------------------------|-------------------------------|
A|-------------------------------|-------------------------------|
E|-------------------------------|-------------------------------|


  C               D               G               F#
e|3------ 3------ 5------ 5------|------- ------- ------- -------|
B|5-------5-------7-------7------|3-------3-------2-------2------|
G|5-------5-------7-------7------|4-------4-------3-------3------|
D|----------------0---0---0---0--|5-------5-------4-------4------|
A|3---3---3---3------------------|-------------------------------|
E|-------------------------------|3---3---3---3---2---2---2---2--|
  ...............................................................
e|------- ------- ------- -------|------- ------- ------- -------|
B|-------------------------------|-------------------------------|
G|-------------------------------|-------------------------------|
D|2---3---5-------4---5---7------|9-B-10--9-B-10--8--------------|
A|-------------------------------|-------------------------------|
E|-------------------------------|-------------------------------|


        B  Bend
        R  Release
        /  slide up
        \  slide down
        H  hammer-on
        P  pull-off
        ~  vibrato
        +  harmonic
        x  Mute note
        . - play note like a dot in standard notation
        ^ - ties two notes together
        (. Pause

    ---------------------------------------------------------

    THE BATLES - HELTER SKELTER (Lennon & McCartney) From the
                 WHITE ALBUM. Released on 22nd November 1968.

    ---------------------------------------------------------

    Tabbed by:PJVillanueva


    HELTER SKELTER refers to a spiral slide around a tower
    which is still a popular fairground atraction in England.
    The song was originally a 24 minute engendrum with a lot
    of free noise at the end, which was later cut to 04:29.
    In the Coda of this version, John can be heard playing a
    sax in a mischievous manner. Mal Evans played a trumpet
    in a very similar fashion (they can be heard from 02:55,
    03:08 & 03:20). John played lead guitar too, Paul played
    lead guitar and bass, George played rhythm guitar and as
    always Ringo was on drums. You will agree that it'd have
    been odd tabbing John's childish ecstatic sax squeals and
    Mal's fake gypsy trumpet as well as the second ending.


    When I get to the bottom
    I go back to the top of the slide
    Where I stop and I turn
    And I go for a ride
    Till I get to the bottom and I see you again
    Yeah, yeah, yeah

    Do you don't you want me to love you
    I'm coming down fast but I'm miles above you
    Tell me tell me tell me  come on tell me the answer
    And you may be a lover but you ain't no dancer

    Go helter skelter
    Helter skelter helter skelter
    Yeah  Wooooooooh

    I will you won't you want me to make you
    I'm coming down fast but don't let me break you
    Tell me tell me tell me the answer
    You may be a lover but you ain't no dancer

    Look out
    Helter skelter helter skelter
    Helter skelter Yeah  Wooooooohh
    Look out cause here she comes

    When I get to the bottom
    I go back to the top of the slide
    Where I stop and I turn
    And I go for a ride
    Till I get to the bottom and I see you again
    Yeah, yeah, yeah

    Well will you won't you want me to make you
    I'm coming down fast but don't let me break you
    Tell me tell me tell me your answer
    You may be a lover but you ain't no dancer

    Look out
    Helter skelter helter skelter
    Helter skelter Yeah  Woooooohh

    Helter Skelter
    She's coming down fast
    Yes she is
    Yes she is
    coming down fast

    Uuhuh Helter Skelter
    Woooooooooooooohh!


  e|------- ------- ------- -------|------- ------- ------- ----0--|
  B|-------------------------------|---------------------------12\3|
  G|-------------------------------|-------------------------------|
  D|-------------------------------|-------------------------------|
  A|-------------------------------|-------------------------------|
  E|-------------------------------|-------------------------------|

  e|0-0-0-0 0-0-0-0 0-0-0-0 0-0-0-0|0-0-0-0 0-0-0-0 0-0-0-0 0-0-0-0|
  B|3-3-3-3-3-3-3-3-3-3-3-3-3-3-3-3|3-3-3-3-3-3-3-3-3-3-3-3-3-3-3-3|
  G|-------------------------------|-------------------------------|
  D|-------------------------------|-------------------------------|
  A|-------------------------------|-------------------------------|
  E|-------------------------------|-------------------------------|
                                When    to  bottom  back  the of  slide
                                  I get   the   I go    to  top the

  e|0-0-0-0 0-0-0-0 0-0-0-0 0-0-0-0|0-0-0-0 0-0-0-0 0-0-0-0 0---3--|
  B|2-2-2-2-2-2-2-2-2-2-2-2-2-2-2-2|1-1-1-1-1-1-1-1-1-1-1-1-1---3--|
  G|-------------------------------|----------------------------4--|
  D|-------------------------------|----------------------------5--|
  A|-------------------------------|----------------------------5--|
  E|-------------------------------|----------------------------3--|
        Where and I turn  I go  a ride  Till    to  bottom  see again
          I stop        and   for         I get   the   and   you
                                                          I

    00:12

  e|------- 3---3-3 ------- 3-----3|------- 0-----0 ------- 0---0--|
  B|--------3---3-3---------3-----3|--------0-----0---------0---0--|
  G|--------4---4-4---------4-----4|--------1-----1---------1---1--|
  D|5---5---5---5-5-5---5---5-----5|2---2---2-----2-2---2---2---2--|
  A|5---5---5---5-5-5---5---5-----5|2---2---2-----2-2---2---2---2--|
  E|3---3---3---3-3-3---3---3-----3|0---0---0-----0-0---0---0---0--|
                            yeah yeah yeah
                                yeah

  e|----0-- ----0-- ------- 0------|----0-- 0---0-- ----0-- 0---0--|
  B|----0-------0-----------0------|----0---0---0-------0---0---0--|
  G|----1-------1-----------1------|----1---1---1-------1---1---1--|
  D|2---2---2---2---2---2---2------|2---2---2---2-------2---2---2--|
  A|2---2---2---2---2---2---2------|2---2---2---2---2---2---2---2--|
  E|0---0---0---0---0---0---0------|0---0---0---0---0---0---0---0--|
    Do  you don't want  to    you                                 I'm
                you   me  love


    00:23

  e|----0-- ----0-- ----0-- ----0--|----0-- ----0-- ------- 0------|
  B|----0-------0-------0-------0--|----0-------0-----------0------|
  G|----1-------1-------1-------1--|----1-------1-----------1------|
  D|2---2---2---2---2---2---2---2--|2---2---2---2---2---2---2---2--|
  A|2---2---2---2---2---2---2---2--|2---2---2---2---2---2---2---2--|
  E|0---0---0---0---0---0---0---0--|0---0---0---0---0---0---0---0--|
    coming  fast  I'm   above you
        down    but miles
    Aaaaaaaaaaaaaaaaaaaaaaaaaaaaww

  e|----0-- ------- 0------ ----0--|3---3-- 3-----3 3---3-- 3---3--|
  B|----0-----------0-----------0--|3---3---3-----3-3---3---3---3--|
  G|----1-----------1-----------1--|4---4---4-----4-4---4---4---4--|
  D|2---2---2---2---2---2---2---2--|5---5---5-----5-5---5---5---5--|
  A|2---2---2---2---2---2---2---2--|5---5---5-----5-5---5---5---5--|
  E|0---0---0---0---0---0---0---0--|3---3---3-----3-3---3---3---3--|
    Tell    tell  tell      come  tell  me  answer              And
        me      me    me      on          the                     you
    Aaaaaaaaaaaaaaaaaaaaaaaaaaaaaaaaaaaaaaaaaaaaaaaaaaaaaaaaaaaaaaa

  e|5---5-- 5------ 5------ -------|----0-- ----0-- ----0-- -------|
  B|5---5---5-------5-----------0--|----0-------0-------0----------|
  G|6---6---6-------6-----------0--|----1-------1-------1----------|
  D|7---7---7-------7-----------0--|2---2---2---2---2---2---2---2--|
  A|7---7---7-------7--------------|2---2---2---2---2---2---2---2--|
  E|5---5---5-------5--------------|0---0---0---0---0---0---0---0--|

  e|------- ------- ------- -------|------- ------- ------- -------|
  B|-------------------------------|-------------------------------|
  G|-------------------------------|-------------------------------|
  D|-------------------------------|-------------------------------|
  A|-------------------------------|----------------------------7-\|
  E|-------------------------------|-------------------------------|
    may be  lover you     no  dancer                            Go
          a     but ain't
    aaaaaaaawww                         Da  da  da  da  da  da  da


    00:41

  e|0---0-- ----0-- 0---0-- ----0--|0---0-- ----0-- 0---0-- ----0--|
  B|2---2-------2---2---2-------2--|0---0-------0---0---0-------0--|
  G|2---2---2---2---2---2---2---2--|1---1-------1---1---1-------1--|
  D|2---2---2---2---2---2---2---2--|2---2---2---2---2---2---2---2--|
  A|0---0---0---0---0---0---0---0--|2---2---2---2---2---2---2---2--|
  E|-------------------------------|0---0---0---0---0---0---0---0--|

  e|------- ------- ------- -------|------- ------- ------- -------|
  B|-------------------------------|-------------------------------|
  G|----------------0--------------|-------------------------------|
  D|------------------4-2-0--------|----------------0--------------|
  A|0---0---0---0-----------4-2-0--|------------------4-2-0--------|
  E|-------------------------------|0---0---0---0-0---------4-2-0--|
    Helter                          helter
          skelter                         skelter

                                                    x x   x X x X x

  e|0---0-- ----0-- 0---0-- ----0--|0------ ------- ------- -------|
  B|2---2-------2---2---2-------2--|0------------------------------|
  G|2---2---2---2---2---2---2---2--|1------------------------------|
  D|2---2---2---2---2---2---2---2--|2------------------------------|
  A|0---0---0---0---0---0---0---0--|2------------------------------|
  E|-------------------------------|0------------------------------|

  e|------- ------- ------- -------|----0-0 0-0-0-0 0-0-0-0 0-0-0-0|
  B|-------------------------------|----5-5-5-6-6-6-6-7-7-7-7-7-8-8|
  G|----------------0--------------|-----.........--B-..........---|
  D|------------------4-2-0--------|-------------------------------|
  A|0---0---0---0-----------4-2-0--|-------------------------------|
  E|-------------------------------|0------------------------------|
    Helter                          Yeah                        Woo
          skelter

    X
    00:52

  e|----0-- ----0-- ----0-- ----0--|----0-- ----0-- ------- 0------|
  B|----0-------0-------0-------0--|----0-------0-----------0------|
  G|----1-------1-------1-------1--|----1-------1-----------1------|
  D|2---2---2---2---2---2---2---2--|2---2---2---2---2---2---2---2--|
  A|2---2---2---2---2---2---2---2--|2---2---2---2---2---2---2---2--|
  E|0---0---0---0---0---0---0---0--|0---0---0---0---0---0---0---0--|

  e|------- ------- ------- -------|------- ------- ------- -------|
  B|-------------------------------|-------------------------------|
  G|-------------------------------|-------------------------------|
  D|-------------------------------|-------------------------------|
  A|-------------------------------|-------------------------------|
  E|0------------------------------|-------------------------------|
    ooooooooooooohhh                                              I

    00:58

  e|----0-- ----0-- ----0-- ----0--|----0-- ----0-- ----0-- ----0--|
  B|----0-------0-------0-------0--|----0-------0-------0-------0--|
  G|----1-------1-------1-------1--|----1-------1-------1-------1--|
  D|2---2---2---2---2---2---2---2--|2---2---2---2---2---2---2---2--|
  A|2---2---2---2---2---2---2---2--|2---2---2---2---2---2---2---2--|
  E|0---0---0---0---0---0---0---0--|0---0---0---0---0---0---0---0--|
    will    won't want  to    you                                 I'm
        you     you   me  make
                                    Aaaaaaaaaaaaaaaaaaaaaaaaaaawwww

  e|----0-- ----0-- ----0-- ----0--|----0-- ----0-- ----0-- ----0--|
  B|----0-------0-------0-------0--|----0-------0-------0-------0--|
  G|----1-------1-------1-------1--|----1-------1-------1-------1--|
  D|2---2---2---2---2---2---2---2--|2---2---2---2---2---2---2---2--|
  A|2---2---2---2---2---2---2---2--|2---2---2---2---2---2---2---2--|
  E|0---0---0---0---0---0---0---0--|0---0---0---0---0---0---0---0--|
    coming  fast  don   me    you
        down    but   let break
                                    Aaaaaaaaaaaaaaaaaaaaaaaaaaaaaaa

  e|3---3-- 3------ 3---3-- 3------|5---5-- ----5-- ----5-- --5-5--|
  B|3---3---3-------3---3---3------|5---5-------5-------5-----5-5--|
  G|4---4---4-------4---4---4------|6---6-------6-------6-----6-6--|
  D|5---5---5---5---5---5---5---5--|7---7-------7-------7-----7-7--|
  A|5---5---5---5---5---5---5---5--|7---7-------7-------7-----7-7--|
  E|3---3---3---3---3---3---3---3--|5---5-------5-------5-----5-5--|
    Tell    tell  tell    the     you   be  lover you no  dancer
        me      me      me  answer  may   a     but ain't
    aaaaaaaaaaaaaaaaaaaaaaaaaaaaaaaaaaaaaaaawwww


  e|------- 0------ ----0-- ----0--|
  B|--------0-----------0-------0--|
  G|--------1-----------1-------1--|
  D|2---2---2---2---2---2---2---2--|
  A|2---2---2---2---2---2---2---2--|
  E|0---0---0---0---0---0---0---0--|
                        Look
                          out!
        Da  da  da  da  da  da  da

    01:18
    Helter skelter helter skelter
    Helter skelter  Wooooooommm


    01:29

  e|----0-- ----0-- ----0-- -------|----0-- 0------ 0---0-- 0------|
  B|----0-------0-------0----------|----0---0-------0---0---0------|
  G|----1-------1-------1----------|----1---1-------1---1---1------|
  D|2---2---2---2---2---2---2------|2---2---2---2---2---2---2------|
  A|2---2---2---2---2---2---2------|2---2---2---2---2---2---2------|
  E|0---0---0---0---0---0---0------|0---0---0---0---0---0---0------|

  e|------- ------- ------- -------|------- ------- 12---12 -------|
  B|-------------------------------|----------------12---12--------|
  G|-------------------------------|-------------------------------|
  D|-------------------------------|-------------------------------|
  A|-------------------------------|-------------------------------|
  E|0------------------------------|-------------------------------|
            Look            cause comes
              out!            here
                                she


    01:35

  e|0---0-- 0---0-- ----0-- ----0--|0------ 0------ 0------ 0------|
  B|2---2---2---2-------2-------2--|0-------0-------0-------0------|
  G|2---2---2---2---2---2---2---2--|1-------1-------1-------1------|
  D|2---2---2---2---2---2---2---2--|2---2---2---2---2---x---2---2--|
  A|0---0---0---0---0---0---0---0--|2---2---2---2---2---x---2---2--|
  E|-------------------------------|0---0---0---0---0---x---0---0--|

  e|1517--- ------- ------- ---1517|1715--- ------- -----R- -------|
  B|--B--------------------------B-|--R------------17151715------12--|B
  G|-------------------------------|---------------B-R-B--1214R------|
  D|-------------------------------|------------------------B--14----|
  A|-------------------------------|---------------------------------|
  E|-------------------------------|---------------------------------|

  e|0---0-- 0---0-- 0------ 0------|0------ ------- ------- -------|
  B|2---2---2---2---2-------2------|0------------------------------|
  G|2---2---2---2---2---2---2------|1------------------------------|
  D|2---2---2---2---2---2---2------|2------------------------------|
  A|0---0---0---0---0---0---0------|2------------------------------|
  E|-------------------------------|0------------------------------|

  e|------- ------- ------- B------|------- ------- ------- -------|
  B|14--------------------1517-----|-------------------------------|
  G|--------------B14121412-----12-|-------------------------------|
  D|-----------------R-B-R---------|14-~---------------------------|
  A|-------------------------------|-------------------------------|
  E|-------------------------------|-------------------------------|
                                                                When
                                                                  I


    01:46

  e|0-0-0-0 0-0-0-- 0-0-0-0 0-0-0--|0-0-0-0 0-0-0-0 0-0-0-0 0-0-0--|
  B|3-3-3-3-3-3-3---3-3-3-3-3-3-3--|2-2-2-2-2-2-2-2-2-2-2-2-2-2-2--|
  G|-------------------------------|-------------------------------|
  D|-------------------------------|-------------------------------|
  A|-------------------------------|-------------------------------|
  E|-------------------------------|-------------------------------|
        to  bottom  back  the of  slide where and I turn  I go  a ride
    get   the   I go    to  top the       I stop        and   for


  e|0-0-0-0 0-0-0-0 0-0-0-0 0------|3---3-- 3---3-- 3-----3 3---3--|
  B|1-1-1-1-1-1-1-1-1-1-1-1-1---0--|3---3---3---3---3-----3-3---3--|
  G|----------------------------0--|4---4---4---4---4-----4-4---4--|
  D|----------------------------0--|5---5---5---5---5-----5-5---5--|
  A|-------------------------------|5---5---5---5---5-----5-5---5--|
  E|-------------------------------|3---3---3---3---3-----3-3---3--|
        and     to  bottom  see again                       Yeah  yeah
          I get   the   and   you                             yeah
                          I
                                    Yeaaaaaaaaaaaaaaaaaaaaaaaaaaahh

  e|----0-- 0---0-- ----0-- 0---0--|
  B|----0---0---0-------0---0---0--|
  G|----1---1---1-------1---1---1--|
  D|2---2---2---2---2---2---2---2--|
  A|2---2---2---2---2---2---2---2--|
  E|0---0---0---0---0---0---0---0--|
                                  Well

    Yeaaaaaaaaaaaaaaaaaaaaaaaaaaahh


    02:01

  e|----0-- 0---0-- ----0-- 0---0--|----0-- 0---0-- ----0-- 0---0--|
  B|----0---0---0-------0---0---0--|----0---0---0-------0---0---0--|
  G|----1---1---1-------1---1---1--|----1---1---1-------1---1---1--|
  D|2---2---2---2---2---2---2---2--|2---2---2---2---2---2---2---2--|
  A|2---2---2---2---2---2---2---2--|2---2---2---2---2---2---2---2--|
  E|0---0---0---0---0---0---0---0--|0---0---0---0---0---0---0---0--|

  e|------- ------- ------- -------|----B-- -R----- ------- -------|
  B|-------------------------------|172022-22201717-15\--------R---|
  G|-------------------------------|------------19----1414B16161412|
  D|-------------------------------|-------------------14----------|
  A|-------------------------------|-------------------------------|
  E|-------------------------------|-------------------------------|
    Do  you don't want  to    you                                 I'm
                you       make
                                    Aaaaaaaaaaaaaaaaaaaaaaaaaaaaaww

  e|----0-- 0---0-- ----0-- 0---0--|----0-- 0---0-- ----0-- 0---0--|
  B|----0---0---0-------0---0---0--|----0---0---0-------0---0---0--|
  G|----1---1---1-------1---1---1--|----1---1---1-------1---1---1--|
  D|2---2---2---2---2---2---2---2--|2---2---2---2---2---2---2---2--|
  A|2---2---2---2---2---2---2---2--|2---2---2---2---2---2---2---2--|
  E|0---0---0---0---0---0---0---0--|0---0---0---0---0---0---0---0--|

  e|------- ------- ------- -------|------- ------- ------- -------|
  B|-------------12----------------|-------------------------------|
  G|-------------12----------------|-------------------------------|
  D|12--14-----14------------------|-------------------------------|
  A|-------------------------------|-------------------------------|
  E|-------------------------------|-------------------------------|
    coming  fast  don't me        you
        down    but  let  break
                                    Aaaaaaaaaaaaaaaaaaaaaaaaaaaaaaa

  e|3---3-- 3---3-- 3---3-- 3---3--|5---5-- ----5-- ----5-- --5-5--|
  B|3---3---3---3---3---3---3---3--|5---5-------5-------5-----5-5--|
  G|4---4---4---4---4---4---4---4--|6---6-------6-------6-----6-6--|
  D|5---5---5---5---5---5---5---5--|7---7-------7-------7-----7-7--|
  A|5---5---5---5---5---5---5---5--|7---7-------7-------7-----7-7--|
  E|3---3---3---3---3---3---3---3--|5---5-------5-------5-----5-5--|
    Tell    tell  tell    your    you   be  lover you   no    dancer
        me      me     me   answer  may   a     but ain't
    aaaaaaaaaaaaaaaaaaaaaaaaaaaaaaaaaaaawwww


  e|0---0-- 0---0-0 0---0-- 0---0--|
  B|0---0---0---0-0-0---0---0---0--|
  G|1---1---1---1-1-1---1---1---1--|
  D|2---2---2---2-2-2---2---2---2--|
  A|2---2---2---2-2-2---2---2---2--|
  E|0---0---0---0-0-0---0---0---0--|
                        Look
                          out!
        Da  da  da  da  da  da  da

    02:21

  e|0---0-- 0---0-0 0---0-- 0---0--|0---0-- 0---0-0 0---0-0 0---0--|
  B|2---2---2---2-2-2---2---2---2--|0---0---0---0-0-0---0-0-0---0--|
  G|2---2---2---2-2-2---2---2---2--|1---1---1---1-1-1---1-1-1---1--|
  D|2---2---2---2-2-2---2---2---2--|2---2---2---2-2-2---2-2-2---2--|
  A|0---0---0---0-0-0---0---0---0--|2---2---2---2-2-2---2-2-2---2--|
  E|-------------------------------|0---0---0---0-0-0---0-0-0---0--|

  e|------- ------- ------- -------|------- ------- ------- -------|
  B|-------------------------------|-------------------------------|
  G|----------------0--------------|-------------------------------|
  D|2---2---4---4-----4-2-0--------|----------------0--------------|
  A|0---0---0---0-----------4-2-0--|2---2---4---4-----4-2-0--------|
  E|-------------------------------|0---0---0---0-----------4-2-0--|
    Helter                          helter
          skelter                         skelter


                                                    x X   x X X x x

  e|0---0-- ----0-0 0---0-- ----0--|--2222222222222222222-- -------|
  B|2---2-------2-2-2---2-------2--|--0000000000000000000----------|
  G|2---2---2---2-2-2---2---2---2--|--1111111111111111111----------|
  D|2---2---2---2-2-2---2---2---2--|--2222222222222222222----------|
  A|0---0---0---0-0-0---0---0---0--|--2222222222222222222----------|
  E|-------------------------------|--0000000000000000000----------|

  e|------- ------- ------- -------|------- ------- ------- -------|
  B|-------------------------------|-------------------------------|
  G|----------------0--------------|-------------------------------|
  D|2---2---4---4-----4-2-0--------|-------------------------------|
  A|0---0---0---0-----------4-2-0--|-------------------------------|
  E|-------------------------------|0------------------------------|
    Helter                                              Look
          skelter                                         Out!

    X
    02:32

  e|----0-- 0---0-- ----0-- 0---0--|----0-- 0---0-- ----0-- 0---0--|
  B|----0---0---0-------0---0---0--|----0---0---0-------0---0---0--|
  G|----1---1---1-------1---1---1--|----1---1---1-------1---1---1--|
  D|2---2---2---2---2---2---2---2--|2---2---2---2---2---2---2---2--|
  A|2---2---2---2---2---2---2---2--|2---2---2---2---2---2---2---2--|
  E|0---0---0---0---0---0---0---0--|0---0---0---0---0---0---0---0--|

  e|------- ------- ------- -------|------- ------- ------- -------|
  B|-------------------------------|-------------------------------|
  G|-------------------------------|-------------------------------|
  D|-------------------------------|----------------0--------------|
  A|-------------------------------|------------------4-2-0--------|
  E|-------------------------------|0-----------------------4-2-0--|
      Helter                    She's   down
            skelter                 coming  fast

  e|----0-- 0---0-- ----0-- 0---0--|----0-- 0---0-- ----0-- 0---0--|
  B|----0---0---0-------0---0---0--|----0---0---0-------0---0---0--|
  G|----1---1---1-------1---1---1--|----1---1---1-------1---1---1--|
  D|2---2---2---2---2---2---2---2--|2---2---2---2---2---2---2---2--|
  A|2---2---2---2---2---2---2---2--|2---2---2---2---2---2---2---2--|
  E|0---0---0---0---0---0---0---0--|0---0---0---0---0---0---0---0--|

  e|------- ------- ------- -------|------- ------- ------- -------|
  B|-------------------------------|-------------------------------|
  G|--------1----------------------|-------------------------------|
  D|----------------0--------------|----------------0--------------|
  A|------------------4-2-0--------|------------------4-2-0--------|
  E|------------------------4-2-0--|------------------------4-2-0--|
    Yes       she                               Yes she is
                is


    02:44

  e|----0-- 0---0-- ----0-- 0---0--|----0-- 0---0-- ----0-- 0---0--|
  B|----0---0---0-------0---0---0--|----0---0---0-------0---0---0--|
  G|----1---1---1-------1---1---1--|----1---1---1-------1---1---1--|
  D|2---2---2---2---2---2---2---2--|2---2---2---2---2---2---2---2--|
  A|2---2---2---2---2---2---2---2--|2---2---2---2---2---2---2---2--|
  E|0---0---0---0---0---0---0---0--|0---0---0---0---0---0---0---0--|

  e|------- ------- ------- -------|------- ------- ------- -------|
  B|-------------------------------|-------------------------------|
  G|-------------------------------|-------------------------------|
  D|----------------0--------------|----------------0--------------|
  A|------------------4-2-0--------|------------------4-2-0--------|
  E|------------------------4-2-0--|------------------------4-2-0--|
    Slide guitar
  e|17-\-15 ------- ------- -------|------- ------- ------- -------|
  B|-----------17-\-15---12-\-10---|-------------------------------|
  G|------------------------------9|\-7----------------------------|
  D|-------------------------------|------9-\-7--------------------|
  A|-------------------------------|-------------------------------|
  E|-------------------------------|-------------------------------|
                    coming  fast                        Uuhuh Helter
                        down                                   Skelter

  e|----0-- 0---0-- ----0-- 0---0--|----0-- 0---0-- ----0-- 0---0--|
  B|----0---0---0-------0---0---0--|----0---0---0-------0---0---0--|
  G|----1---1---1-------1---1---1--|----1---1---1-------1---1---1--|
  D|2---2---2---2---2---2---2---2--|2---2---2---2---2---2---2---2--|
  A|2---2---2---2---2---2---2---2--|2---2---2---2---2---2---2---2--|
  E|0---0---0---0---0---0---0---0--|0---0---0---0---0---0---0---0--|

  e|------- ------- ------- -------|------- ------- ------- -------|
  B|-------------------------------|-------------------------------|
  G|-------------------------------|-------------------------------|
  D|----------------0--------------|----------------0--------------|
  A|------------------4-2-0--------|------------------4-2-0--------|
  E|------------------------4-2-0--|------------------------4-2-0--|
                                                                Sax
  e|------- ------- ------- -------|------- ------- ------- -------|
  B|-------------------------------|-------------------------------|
  G|-------------------------------|----------------------------7-7|
  D|-------------------------------|-------------------------------|
  A|-------------------------------|-------------------------------|
  E|-------------------------------|-------------------------------|
                            Wooooooooooooooooooohh!

    02:55
   (.       x

  e|0--------------------------------------------------------------|
  B|0--------------------------------------------------------------|
  G|1--------------------------------------------------------------|
  D|2--------------------------------------------------------------|
  A|2--------------------------------------------------------------|
  E|0--------------------------------------------------------------|
                                                Slide guitar
  e|--------------------------------------------17---15---13---11--|
  B|--------------------------------------------17---15---13---11--|
  G|---------------------------------------------.............. \ .|
  D|---------------------------------------------------------------|
  A|---------------------------------------------------------------|
  E|---------------------------------------------------------------|

  e|---------------------------------------------------------------|
  B|---------------------------------------------------------------|
  G|7-7----------------8-------------8------------8----------8-----|
  D|---------------------------------------------------------------|
  A|---------------------------------------------------------------|
  E|---------------------------------------------------------------|

  e|---------------------------------------------------------------|
  B|---------------------------------------------------------------|
  G|---------------------------------------------------------------|
  D|---------------------------------------------------------------|
  A|---------------------------------------------------------------|
  E|---------------------------------------------------------------|

  e|-9---7---5---3-------------------------------------------------|
  B|-9---7---5---3-------------------------------------------------|
  G|.............--------------------------------------------------|
  D|---------------------------------------------------------------|
  A|---------------------------------------------------------------|
  E|---------------------------------------------------------------|

  e|--2222222222222222222------------------------------------------|
  B|--0000000000000000000------------------------------------------|
  G|--1111111111111111111..........................................|
  D|--2222222222222222222------------------------------------------|
  A|--2222222222222222222------------------------------------------|
  E|--0000000000000000000------------------------------------------|


    x   x   x   x x X x   x x X X X

  e|------- ------- ------- -------|
  B|-------------------------------|
  G|-------------------------------|
  D|-------------------------------|
  A|------------------------2P0----|
  E|----------------------------0--|


    03:11

  e|------- 0---0-- ------- 0---0--|------- 0---0-- ------- 0------|
  B|--------3---3-----------3---3--|--------3---3-----------3------|
  G|--------1---1-----------1---1--|--------1---1-----------1---1--|
  D|--------2---2-----------2---2--|--------2---2-----------2---2--|
  A|2---2---2---2---2---2---2---2--|2---2---2---2---2---2---2---2--|
  E|0---0-----------0---0----------|0---0-----------0---0----------|

  e|------- 0---0-- ------- 0------|------- 0---0-- ------- 0------|
  B|--------3---3-----------3---3--|--------3---3-----------3------|
  G|--------1---1-----------1---1--|--------1---1-----------1------|
  D|--------2---2-----------2---2--|--------2---2-----------2------|
  A|2---2---2---2---2---2---2---2--|2---2---2---2---2---2---2------|
  E|0---0-----------0---0----------|0---0-----------0---0----------|

  e|------- 0---0-- ------- 0---0--|------- 0---0-- ------- 0------|
  B|--------3---3-----------3---3--|--------3---3-----------3------|
  G|--------1---1-----------1---1--|--------1---1-----------1------|
  D|--------2---2-----------2---2--|--------2---2-----------2------|
  A|2---2---2---2---2---2---2---2--|2---2---2---2---2---2---2------|
  E|0---0-----------0---0----------|0---0-----------0---0----------|
    .......................... Fade out ...........................


  e|------- 0------ ------- 0---0--|------- 0---0-- ------- 0---0--|
  B|--------3---------------3---3--|--------3---3-----------3---3--|
  G|--------1---------------1---1--|--------1---1-----------1---1--|
  D|--------2---------------2---2--|--------2---2-----------2---2--|
  A|2---2---2-------2---2---2---2--|2---2---2---2---2---2---2---2--|
  E|0---0-----------0---0----------|0---0-----------0---0----------|
    ...............................................................


  e|------- 0---0-- ------- 0---0--|------- 0---0-- ------- 0---0--|
  B|--------3---3-----------3---3--|--------3---3-----------3---3--|
  G|--------1---1-----------1---1--|--------1---1-----------1---1--|
  D|--------2---2-----------2---2--|--------2---2-----------2---2--|
  A|2---2---2---2---2---2---2---2--|2---2---2---2---2---2---2---2--|
  E|0---0-----------0---0----------|0---0-----------0---0----------| ....
    ...............................................................


        B  Bend
        R  Release
        /  Slide up
        \  Slide down
        H  Hammer-on
        P  Pull-off
        ~  Vibrato
        +  Harmonic
        x  Mute note
        .  Play note like a dot in standard notation
        ^  Ties two notes together
        (. Pause

  ------------------------------------------------------------------

  THE BEATLES - LONG, LONG, LONG (Lennon & McCartney) From the WHITE
                ALBUM. Released on 22nd November 1968.

  ------------------------------------------------------------------

  Tabbed by:PJVillanueva


  It's been a long long long time,
  How could I ever have lost you
  When I loved you.

  It took a long long long time
  Now I'm so happy I found you
  How I love you

  So many tears I was searching,
  So many tears I was wasting, oh. Oh--

  Now I can see you, be you
  How can I ever misplace you
  How I want you
  Oh I love you
  You know that I need you.
  Ooh I love you.

  Use a capo on third fret.


  3/4 Time


e|--------- --------- ---------|--------- --------- ---------|
B|-----------------------------|-----------------------------|
G|-----------------------------|-----------------------------|
D|--------------------0--H--2--|--------------------2--------|
A|----------0--H--2------------|----------0------------------|
E|0--H--3----------------------|3----------------------------|


e|--------- --------- ---------|--------- --------- ---------|
B|-----------------------------|--------------------3--------|
G|-----------------------------|----------2---------2--------|
D|--------------------0--H--2--|0----------------------------|
A|----------0--H--2------------|-----------------------------|
E|0--H--3----------------------|-----------------------------|

e|7-------- 5-------- ---------|5-------- --------- ---------|
B|--------------------8--------|----------7------------------|
G|-----------------------------|--------------------7--------|
D|-----------------------------|-----------------------------|
A|-----------------------------|-----------------------------|
E|-----------------------------|-----------------------------|


  A
e|0-----0-- ------0-- 0--------|0-------- 0-------- 0--------|
B|2-----2---------2---2--------|2---------2---------2--------|
G|2-----2---------2---2--------|2---------2---------2--------|
D|2-----2---------2---2--------|2---------2---------2--------|
A|0-----0---------0---0--------|0---------0---------0--------|
E|-----------------------------|-----------------------------|
                                It's      been      a     long
e|--------- --------- ---------|--------- --------- ---------|
B|5----------------------------|-----------------------------|
G|-----------------------------|-----------------------------|
D|-----------------------------|-----------------------------|
A|-----------------------------|-----------------------------|
E|-----------------------------|-----------------------------|


  G                             F#m
e|3-------- 3-------- 3--------|2-------- 2-------- 2--------|
B|0---------0---------0--------|2---------2---------2--------|
G|0---------0---------0--------|2---------2---------2--------|
D|0---------0---------0--------|4---------4---------4--------|
A|2---------2---------2--------|4---------4---------4--------|
E|3---------3---------3--------|2---------2---------2--------|
                                long
e|7-------- --------- ---------|5-------- --------- ---------|
B|8----------------------------|7----------------------------|
G|-----------------------------|-----------------------------|
D|-----------------------------|-----------------------------|
A|-----------------------------|-----------------------------|
E|-----------------------------|-----------------------------|


  Em                            D
e|0-------- 0-------- 0--------|2-------- 2-------- 2--------|
B|0---------0---------0--------|3---------3---------3--------|
G|0---------0---------0--------|2---------2---------2--------|
D|2---------2---------2--------|0---------0---------0--------|
A|2---------2---------2--------|-----------------------------|
E|0---------0---------0--------|-----------------------------|
                      long      time
e|3-------- --------- ---------|5-------- --------- ---------|
B|5----------------------------|7----------------------------|
G|-----------------------------|-----------------------------|
D|-----------------------------|-----------------------------|
A|-----------------------------|-----------------------------|
E|-----------------------------|-----------------------------|

  G                             D
e|--------- --------- ---------|--------- --------- 2--------|
B|-----------------------------|--------------------3--------|
G|-----------------------------|----------2---------2--------|
D|--------------------0--H--2--|0----------------------------|
A|----------0--H--2------------|-----------------------------|
E|0--H--3----------------------|-----------------------------|

e|7-------- --------- ---------|5-------- --------- ---------|
B|8----------------------------|7----------------------------|
G|-----------------------------|-----------------------------|
D|-----------------------------|-----------------------------|
A|-----------------------------|-----------------------------|
E|-----------------------------|-----------------------------|


  A
e|0-------- 0-------- 0--------|0-------- 0-------- 0--------|
B|2---------2---------2--------|2---------2---------2--------|
G|2---------2---------2--------|2---------2---------2--------|
D|2---------2---------2--------|2---------2---------2--------|
A|0---------0---------0--------|0---------0---------0--------|
E|-----------------------------|-----------------------------|
  How       could I          ever                   have
e|5-------- --------- ---------|--------- --------- ---------|
B|5----------------------------|-----------------------------|
G|-----------------------------|-----------------------------|
D|-----------------------------|-----------------------------|
A|-----------------------------|-----------------------------|
E|-----------------------------|-----------------------------|


  Em
e|0-------- 0-------- 0--------|0-------- 0-------- 0--------|
B|0---------0---------0--------|0---------0---------0--------|
G|0---------0---------0--------|0---------0---------0--------|
D|2---------2---------2--------|2---------2---------2--------|
A|2---------2---------2--------|2---------2---------2--------|
E|0---------0---------0--------|0---------0---------0--------|
  lost                          you
e|3-------- --------- ---------|--------- --------- 3--------|
B|5----------------------------|-----------------------------|
G|-----------------------------|-----------------------------|
D|-----------------------------|-----------------------------|
A|-----------------------------|-----------------------------|
E|-----------------------------|-----------------------------|


  D                             A
e|2-----2-- --------- 2-----2--|0-------- 0-------- 0--------|
B|3-----3-------------3-----3--|2---------2---------2--------|
G|2-----2-------------2-----2--|2---------2---------2--------|
D|0-----0-------------0-----0--|2---------2---------2--------|
A|-----------------------------|0---------0---------0--------|
E|-----------------------------|-----------------------------|

e|2-------- --------- ---------|--------- --------- ---------|
B|----------5---------3--------|2---------3---------5--------|
G|-----------------------------|-----------------------------|
D|-----------------------------|-----------------------------|
A|-----------------------------|-----------------------------|
E|-----------------------------|-----------------------------|


  Em
e|0-------- --------- ---------|--------- --------- 0--------|
B|0----------------------------|--------------------0--------|
G|0----------------------------|--------------------0--------|
D|2----------------------------|--------------------2--------|
A|2----------------------------|--------------------2--------|
E|0----------------------------|--------------------0--------|
                      when      I
e|--------- --------- ---------|--------- --------- ---------|
B|5----------------------------|-----------------------------|
G|-----------------------------|-----------------------------|
D|-----------------------------|-----------------------------|
A|-----------------------------|-----------------------------|
E|-----------------------------|-----------------------------|


  D                             A
e|2-------- 2-------- 2--------|0-------- 0-------- 0--------|
B|3---------3---------3--------|2---------2---------2--------|
G|2---------2---------2--------|2---------2---------2--------|
D|0---------0---------0--------|2---------2---------2--------|
A|-----------------------------|0---------0---------0--------|
E|-----------------------------|-----------------------------|
            loved               you
e|5-------- --------- ---------|5-------- --------- ---------|
B|7----------------------------|5----------------------------|
G|-----------------------------|-----------------------------|
D|-----------------------------|-----------------------------|
A|-----------------------------|-----------------------------|
E|-----------------------------|-----------------------------|

e|0-------- 0-------- 0--------|0-----0-- ------0-- 0--------|
B|2---------2---------2--------|2-----2---------2---2--------|
G|2---------2---------2--------|2-----2---------2---2--------|
D|2---------2---------2--------|2-----2---------2---2--------|
A|0---------0---------0--------|0-----0---------0---0--------|
E|-----------------------------|-----------------------------|
                                It        took  a
e|5-------- 5-------- 5--------|5-------- --------- ---------|
B|5---------7---------8--------|8----------------------------|
G|6---------7---------9--------|9----------------------------|
D|-----------------------------|-----------------------------|
A|-----------------------------|-----------------------------|
E|-----------------------------|-----------------------------|


  G                             F#m
e|3-------- 3-------- 3--------|2-------- 2-------- 2--------|
B|0---------0---------0--------|2---------2---------2--------|
G|0---------0---------0--------|2---------2---------2--------|
D|0---------0---------0--------|4---------4---------4--------|
A|2---------2---------2--------|4---------4---------4--------|
E|3---------3---------3--------|2---------2---------2--------|
  long                          long
e|7-------- --------- ---------|5-------- --------- ---------|
B|8----------------------------|7----------------------------|
G|-----------------------------|-----------------------------|
D|-----------------------------|-----------------------------|
A|-----------------------------|-----------------------------|
E|-----------------------------|-----------------------------|


  Em                            D
e|0-------- 0-------- 0--------|2-------- 2-------- 2--------|
B|0---------0---------0--------|3---------3---------3--------|
G|0---------0---------0--------|2---------2---------2--------|
D|2---------2---------2--------|0---------0---------0--------|
A|2---------2---------2--------|-----------------------------|
E|0---------0---------0--------|-----------------------------|
  long                       time
e|5-------- --------- ---------|5-------- --------- ---------|
B|8----------------------------|7----------------------------|
G|9----------------------------|7----------------------------|
D|-----------------------------|-----------------------------|
A|-----------------------------|-----------------------------|
E|-----------------------------|-----------------------------|


  G                             D
e|3-------- 3-------- 3--------|2-------- 2-------- 2--------|
B|0---------0---------0--------|3---------3---------3--------|
G|0---------0---------0--------|2---------2---------2--------|
D|0---------0---------0--------|0---------0---------0--------|
A|2---------2---------2--------|-----------------------------|
E|3---------3---------3--------|-----------------------------|

e|--------- --------- ---------|--------- --------- ---------|
B|-----------------------------|-----------------------------|
G|-----------------------------|-----------------------------|
D|--------------------3-----5--|3----------------------------|
A|----------3-----5------------|-----------------------------|
E|3-----6----------------------|-----------------------------|

e|7-------- --------- ---------|5-------- --------- ---------|
B|8----------------------------|7----------------------------|
G|-----------------------------|-----------------------------|
D|-----------------------------|-----------------------------|
A|-----------------------------|-----------------------------|
E|-----------------------------|-----------------------------|


  A
e|0-------- 0-------- 0--------|0-------- 0-------- 0--------|
B|2---------2---------2--------|2---------2---------2--------|
G|2---------2---------2--------|2---------2---------2--------|
D|2---------2---------2--------|2---------2---------2--------|
A|0---------0---------0--------|0---------0---------0--------|
E|-----------------------------|-----------------------------|
  Now   I'm       so        happy                         I
e|5-------- 5-------- 5--------|5-------- 5-------- 5--------|
B|5---------7---------8--------|8---------7---------5--------|
G|6---------7---------9--------|9---------7---------6--------|
D|-----------------------------|-----------------------------|
A|-----------------------------|-----------------------------|
E|-----------------------------|-----------------------------|

  Em
e|0-------- 0-------- 0--------|0-------- 0-------- 0--------|
B|0---------0---------0--------|0---------0---------0--------|
G|0---------0---------0--------|0---------0---------0--------|
D|2---------2---------2--------|2---------2---------2--------|
A|2---------2---------2--------|2---------2---------2--------|
E|0---------0---------0--------|0---------0---------0--------|
  found                         you
e|--------- --------- ---------|--------- 7-------- ---------|
B|-----------------------------|8----------------------------|
G|--------------------9--------|-----------------------------|
D|----------9------------------|-----------------------------|
A|-----------------------------|-----------------------------|
E|-----------------------------|-----------------------------|


  D                             A
e|2-------- 2-----3-- ---------|0-------- 0-------- 0--------|
B|3---------3-----3------------|2---------2---------2--------|
G|2---------2-----2------------|2---------2---------2--------|
D|0---------0-----0------------|2---------2---------2--------|
A|-----------------------------|0---------0---------0--------|
E|-----------------------------|-----------------------------|

e|5-------- --------- ---------|5-------- --------- ---------|
B|7----------------------------|5----------------------------|
G|-----------------------------|6----------------------------|
D|-----------------------------|-----------------------------|
A|-----------------------------|-----------------------------|
E|-----------------------------|-----------------------------|


  Em
e|0-------- 0-------- 0--------|0-------- 0-------- 0--------|
B|0---------0---------0--------|0---------0---------0--------|
G|0---------0---------0--------|0---------0---------0--------|
D|2---------2---------2--------|2---------2---------2--------|
A|2---------2---------2--------|2---------2---------2--------|
E|0---------0---------0--------|0---------0---------0--------|
                  How           I
e|3-------- --------- ---------|--------- --------- ---------|
B|5----------------------------|--------------------5--------|
G|4----------------------------|-----------------------------|
D|-----------------------------|-----------------------------|
A|-----------------------------|-----------------------------|
E|-----------------------------|-----------------------------|

  D                             A
e|2-------- 2-------- 2--------|0-------- 0-------- 0--------|
B|3---------3---------3--------|2---------2---------2--------|
G|2---------2---------2--------|2---------2---------2--------|
D|0---------0---------0--------|2---------2---------2--------|
A|-----------------------------|0---------0---------0--------|
E|-----------------------------|-----------------------------|
  love                          you
e|3-------- --------- ---------|--------- --------- ---------|
B|----------5---------3--------|2---------3---------5--------|
G|-----------------------------|-----------------------------|
D|-----------------------------|-----------------------------|
A|-----------------------------|-----------------------------|
E|-----------------------------|-----------------------------|

e|0-------- 0-------- 0-----0--|0-----0-- ------0-- 0-----0--|
B|2---------2---------2-----2--|2-----2---------2---2-----2--|
G|2---------2---------2-----2--|2-----2---------2---2-----2--|
D|2---------2---------2-----2--|2-----2---------2---2-----2--|
A|0---------0---------0-----0--|0-----0---------0---0-----0--|
E|-----------------------------|-----------------------------|

e|--------- --------- ---------|--------- --------- ---------|
B|5----------------------------|-----------------------------|
G|2----------------------------|-----------------------------|
D|-----------------------------|-----------------------------|
A|-----------------------------|-----------------------------|
E|-----------------------------|-----------------------------|


e|0-----0-- ------0-- 0--------|
B|2-----2---------2---2--------|
G|2-----2---------2---2--------|
D|2-----2---------2---2--------|
A|0-----0---------0---0--------|
E|-----------------------------|

e|--------- --------- ---------|
B|-----------------------------|
G|-----------------------------|
D|-----------------------------|
A|-----------------------------|
E|-----------------------------|

  G                             D
e|3-------- 3-------- 3--------|2-------- 2-------- 2--------|
B|0---------0---------0--------|3---------3---------3--------|
G|0---------0---------0--------|2---------2---------2--------|
D|0---------0---------0--------|0---------0---------0--------|
A|2---------2---------2--------|-----------------------------|
E|3---------3---------3--------|-----------------------------|
  So     many     tears             I     was           searching,
e|7-------- --------- ---------|5-------- --------- ---------|
B|8----------------------------|7----------------------------|
G|-----------------------------|-----------------------------|
D|-----------------------------|-----------------------------|
A|-----------------------------|-----------------------------|
E|-----------------------------|-----------------------------|


  A                             Em
e|0-------- 0-------- 0-----0--|0-------- 0-------- 0--------|
B|2---------2---------2-----2--|0---------0---------0--------|
G|2---------2---------2-----2--|0---------0---------0--------|
D|2---------2---------2-----2--|2---------2---------2--------|
A|0---------0---------0-----0--|2---------2---------2--------|
E|-----------------------------|0---------0---------0--------|

e|--------- --------- ---------|3-------- --------- ---------|
B|5----------------------------|5----------------------------|
G|6----------------------------|-----------------------------|
D|-----------------------------|-----------------------------|
A|-----------------------------|-----------------------------|
E|-----------------------------|-----------------------------|

e|------0-- ------0-- 0-----0--|0-----0-- 0-----0-- 0-----0--|
B|------0---------0---0-----0--|0-----0---0-----0---0-----0--|
G|------0---------0---0-----0--|0-----0---0-----0---0-----0--|
D|------2---------2---2-----2--|2-----2---2-----2---2-----2--|
A|------2---------2---2-----2--|2-----2---2-----2---2-----2--|
E|------0---------0---0-----0--|0-----0---0-----0---0-----0--|

e|--------- --------- ---------|--------- --------- ---------|
B|------1-2/3---------1--------|------1-2/3---------1--------|
G|--------0-----------0--------|3-------0-----------0--------|  ****
D|0-------2/3---------3--------|0-------2/3---------3--------|
A|-----------------------------|-----------------------------|
E|3----------------------------|3----------------------------|

e|--------- --------- ---------|--------- --------- ---------|
B|-----------------------------|-----------------------------|
G|-----------------------------|-----------------------------|
D|-----------------------------|-----------------------------|
A|-----------------------------|-----------------------------|
E|-----------------------------|-----------------------------|


  G                             D
e|3-------- 3-------- 3--------|2-------- 2-------- 2--------|
B|0---------0---------0--------|3---------3---------3--------|
G|0---------0---------0--------|2---------2---------2--------|
D|0---------0---------0--------|0---------0---------0--------|
A|2---------2---------2--------|-----------------------------|
E|3---------3---------3--------|-----------------------------|
                  So  many      tears      I        was
e|7-------- --------- ---------|5-------- --------- ---------|
B|8----------------------------|7----------------------------|
G|-----------------------------|-----------------------------|
D|-----------------------------|-----------------------------|
A|-----------------------------|-----------------------------|
E|-----------------------------|-----------------------------|


  A                             Em
e|0-------- 0-------- 0--------|0-------- 0-------- 0--------|
B|2---------2---------2--------|0---------0---------0--------|
G|2---------2---------2--------|0---------0---------0--------|
D|2---------2---------2--------|2---------2---------2--------|
A|0---------0---------0--------|2---------2---------2--------|
E|-----------------------------|0---------0---------0--------|
  wasting,
e|5-------- --------- ---------|3-------- --------- ---------|
B|5----------------------------|5----------------------------|
G|6----------------------------|4----------------------------|
D|-----------------------------|-----------------------------|
A|-----------------------------|-----------------------------|
E|-----------------------------|-----------------------------|

  G                             A
e|3-------- 3-----3-- ------3--|0-------- 0-------- 0--------|
B|0---------0-----0---------0--|2---------2---------2--------|
G|0---------0-----0---------0--|2---------2---------2--------|
D|0---------0-----0---------0--|2---------2---------2--------|
A|2---------2-----2---------2--|0---------0---------0--------|
E|3---------3-----3---------3--|-----------------------------|
  Oh,                       oh
e|3-------- --------- ---------|--------- --------- ---------|
B|3----------------------------|5----------------------------|
G|4----------------------------|6----------------------------|
D|-----------------------------|7----------------------------|
A|-----------------------------|-----------------------------|
E|-----------------------------|-----------------------------|


e|0-------- --------- ---------|--------- --------- ---------|
B|2----------------------------|-----------------------------|
G|2----------------------------|-----------------------------|
D|2----------------------------|-----------------------------|
A|0----------------------------|-----------------------------|
E|-----------------------------|-----------------------------|
                                Now       I     can
e|5-------- --------- ---------|--------- --------- ---------|
B|5----------------------------|-----------------------------|
G|6----------------------------|-----------------------------|
D|-----------------------------|-----------------------------|
A|-----------------------------|-----------------------------|
E|-----------------------------|-----------------------------|


  G                             F#m
e|3-------- 3-------- 3--------|2-------- 2-------- 2--------|
B|0---------0---------0--------|2---------2---------2--------|
G|0---------0---------0--------|2---------2---------2--------|
D|0---------0---------0--------|4---------4---------4--------|
A|2---------2---------2--------|4---------4---------4--------|
E|3---------3---------3--------|2---------2---------2--------|
  see                           you
e|7-------- --------- ---------|5-------- --------- ---------|
B|8----------------------------|7----------------------------|
G|-----------------------------|-----------------------------|
D|-----------------------------|-----------------------------|
A|-----------------------------|-----------------------------|
E|-----------------------------|-----------------------------|


  Em                            D
e|0-------- 0-------- 0--------|2-------- 2-------- 2--------|
B|0---------0---------0--------|3---------3---------3--------|
G|0---------0---------0--------|2---------2---------2--------|
D|2---------2---------2--------|0---------0---------0--------|
A|2---------2---------2--------|-----------------------------|
E|0---------0---------0--------|-----------------------------|
            Be                  you
e|3-------- --------- ---------|2-------- --------- ---------|
B|5----------------------------|3----------------------------|
G|-----------------------------|-----------------------------|
D|-----------------------------|-----------------------------|
A|-----------------------------|-----------------------------|
E|-----------------------------|-----------------------------|


  G                             D
e|3-------- 3-------- 3--------|2-------- 2-------- 2--------|
B|0---------0---------0--------|3---------3---------3--------|
G|0---------0---------0--------|2---------2---------2--------|
D|0---------0---------0--------|0---------0---------0--------|
A|2---------2---------2--------|-----------------------------|
E|3---------3---------3--------|-----------------------------|

e|--------- --------- ---------|--------- --------- ---------|
B|-----------------------------|-----------------------------|
G|-----------------------------|-----------------------------|
D|--------------------0--H--2--|0----------------------------|
A|----------0--H--2------------|-----------------------------|
E|0--H--3----------------------|-----------------------------|

e|7-------- --------- ---------|5-------- --------- ---------|
B|8----------------------------|7----------------------------|
G|-----------------------------|-----------------------------|
D|-----------------------------|-----------------------------|
A|-----------------------------|-----------------------------|
E|-----------------------------|-----------------------------|


  A
e|0-------- 0-------- 0--------|0-------- 0-------- 0--------|
B|2---------2---------2--------|2---------2---------2--------|
G|2---------2---------2--------|2---------2---------2--------|
D|2---------2---------2--------|2---------2---------2--------|
A|0---------0---------0--------|0---------0---------0--------|
E|-----------------------------|-----------------------------|
  How       can   I             ever                     misplace
e|5-------- --------- ---------|--------- --------- ---------|
B|5----------------------------|-----------------------------|
G|6----------------------------|-----------------------------|
D|-----------------------------|-----------------------------|
A|-----------------------------|-----------------------------|
E|-----------------------------|-----------------------------|


  Em
e|0-------- --------- 0--------|0-------- 0-------- 0--------|
B|0-------------------0--------|0---------0---------0--------|
G|0-------------------0--------|0---------0---------0--------|
D|2-------------------2--------|2---------2---------2--------|
A|2-------------------2--------|2---------2---------2--------|
E|0-------------------0--------|0---------0---------0--------|
                  you
e|3-------- --------- ---------|--------- --------- ---------|
B|5----------------------------|-----------------------------|
G|4----------------------------|-----------------------------|
D|-----------------------------|-----------------------------|
A|-----------------------------|-----------------------------|
E|-----------------------------|-----------------------------|


  D                             A
e|2-----2-- ------2-- 2-----2--|0-------- 0-------- 0--------|
B|3-----3---------3---3-----3--|2---------2---------2--------|
G|2-----2---------2---2-----2--|2---------2---------2--------|
D|0-----0---------0---0-----0--|2---------2---------2--------|
A|-----------------------------|0---------0---------0--------|
E|-----------------------------|-----------------------------|

e|2-------- --------- ---------|--------- --------- ---------|
B|3---------5---------3--------|2---------3---------5--------|
G|----------6---------4--------|2---------4---------6--------|
D|-----------------------------|-----------------------------|
A|-----------------------------|-----------------------------|
E|-----------------------------|-----------------------------|


  Em
e|0-------- 0-------- 0--------|0-------- 0-------- 0--------|
B|0---------0---------0--------|0---------0---------0--------|
G|0---------0---------0--------|0---------0---------0--------|
D|2---------2---------2--------|2---------2---------2--------|
A|2---------2---------2--------|2---------2---------2--------|
E|0---------0---------0--------|0---------0---------0--------|
                  How           I
e|3-------- --------- ---------|--------- --------- ---------|
B|5----------------------------|-----------------------------|
G|4----------------------------|-----------------------------|
D|-----------------------------|-----------------------------|
A|-----------------------------|-----------------------------|
E|-----------------------------|-----------------------------|


  D                             A
e|2-------- 2-------- 2--------|0-------- 0-------- 0--------|
B|6---------6---------6--------|2---------2---------2--------|
G|2---------2---------2--------|2---------2---------2--------|
D|0---------0---------0--------|2---------2---------2--------|
A|-----------------------------|0---------0---------0--------|
E|-----------------------------|-----------------------------|
  want                          you
e|2-------- --------- ---------|--------- --------- ---------|
B|3---------5---------3--------|2---------3---------5--------|
G|----------6---------4--------|2---------4---------6--------|
D|-----------------------------|-----------------------------|
A|-----------------------------|-----------------------------|
E|-----------------------------|-----------------------------|


  Em
e|0-------- 0-------- 0--------|0-------- 0-------- 0--------|
B|0---------0---------0--------|0---------0---------0--------|
G|0---------0---------0--------|0---------0---------0--------|
D|2---------2---------2--------|2---------2---------2--------|
A|2---------2---------2--------|2---------2---------2--------|
E|0---------0---------0--------|0---------0---------0--------|
                  Oh        I
e|3-------- --------- ---------|--------- --------- ---------|
B|5----------------------------|-----------------------------|
G|4----------------------------|-----------------------------|
D|-----------------------------|-----------------------------|
A|-----------------------------|-----------------------------|
E|-----------------------------|-----------------------------|


  D                             A
e|2-------- 2------- 2---------|0-------- 0-------- 0-----0--|
B|3---------3--------3---------|2---------2---------2-----2--|
G|2---------2--------2---------|2---------2---------2-----2--|
D|0---------0--------0---------|2---------2---------2-----2--|
A|-----------------------------|0---------0---------0-----0--|
E|-----------------------------|-----------------------------|
   love                         you
e|2-------- --------- ---------|--------- --------- ---------|
B|3---------5---------3--------|2---------3---------5--------|
G|----------6---------4--------|2---------4---------6--------|
D|-----------------------------|-----------------------------|
A|-----------------------------|-----------------------------|
E|-----------------------------|-----------------------------|


  Em
e|0-------- 0-------- 0-----0--|0-------- 0-------- 0--------|
B|0---------0---------0-----0--|0---------0---------0--------|
G|0---------0---------0-----0--|0---------0---------0--------|
D|2---------2---------2-----2--|2---------2---------2--------|
A|2---------2---------2-----2--|2---------2---------2--------|
E|0---------0---------0-----0--|0---------0---------0--------|
                      You       know      that      I
e|3-------- --------- ---------|--------- --------- ---------|
B|5----------------------------|-----------------------------|
G|4----------------------------|-----------------------------|
D|-----------------------------|-----------------------------|
A|-----------------------------|-----------------------------|
E|-----------------------------|-----------------------------|


  D                             A
e|2-------- 2-------- 2-----2--|0-------- 0-------- 0--------|
B|3---------3---------3-----3--|2---------2---------2--------|
G|2---------2---------2-----2--|2---------2---------2--------|
D|0---------0---------0-----0--|2---------2---------2--------|
A|-----------------------------|0---------0---------0--------|
E|-----------------------------|-----------------------------|
   need     you.
e|2-------- --------- ---------|--------- --------- ---------|
B|3---------5---------3--------|2---------3---------5--------|
G|----------6---------4--------|2---------4---------6--------|
D|-----------------------------|-----------------------------|
A|-----------------------------|-----------------------------|
E|-----------------------------|-----------------------------|


  Em
e|0-------- 0-------- 0--------|0-------- 0-------- 0--------|
B|0---------0---------0--------|0---------0---------0--------|
G|0---------0---------0--------|0---------0---------0--------|
D|2---------2---------2--------|2---------2---------2--------|
A|2---------2---------2--------|2---------2---------2--------|
E|0---------0---------0--------|0---------0---------0--------|
  Ooh                           I

e|3-------- --------- ---------|--------- --------- ---------|
B|5----------------------------|-----------------------------|
G|4----------------------------|-----------------------------|
D|-----------------------------|-----------------------------|
A|-----------------------------|-----------------------------|
E|-----------------------------|-----------------------------|


  D                             A
e|2-------- 2-------- 2--------|0-------- 0-------- 0--------|
B|3---------3---------3--------|2---------2---------2--------|
G|2---------2---------2--------|2---------2---------2--------|
D|0---------0---------0--------|2---------2---------2--------|
A|-----------------------------|0---------0---------0--------|
E|-----------------------------|-----------------------------|
  love                          you.
e|2-------- --------- ---------|--------- --------- ---------|
B|3---------5---------3--------|2----------------------------|
G|----------6---------4--------|2----------------------------|
D|-----------------------------|-----------------------------|
A|-----------------------------|-----------------------------|
E|-----------------------------|-----------------------------|


                               (.

e|0-----0-- ------0-- 0-----0--|0-------- --------- ---------|
B|2-----2---------2---2-----2--|2----------------------------|
G|2-----2---------2---2-----2--|2----------------------------|
D|2-----2---------2---2-----2--|2----------------------------|
A|0-----0---------0---0-----0--|0----------------------------|
E|-----------------------------|-----------------------------|

e|--------- --------- ---------|--------- --------- ---------|
B|-----------------------------|-----------------------------|
G|2----------------------------|-----------------------------|
D|2----------------------------|-----------------------------|
A|-----------------------------|-----------------------------|
E|-----------------------------|-----------------------------|

e|-----------------------------------------------------------|
B|---------5------3------3-----------------------------------|
G|--------------------------5--------------------------------|
D|7----------------------------------------------------------|
A|-----------------------------------------------------------|
E|-----------------------------------------------------------|.......


  (.

e|0----------------------------------------------------------|
B|0----------------------------------------------------------|
G|0----------------------------------------------------------|
D|0----------------------------------------------------------|
A|0----------------------------------------------------------|
E|0----------------------------------------------------------|


        B  Bend
        R  Release
        /  slide up
        \  slide down
        H  hammer-on
        P  pull-off
        ~  vibrato
        +  harmonic
        x  Mute note
        . - play note like a dot in standard notation
        ^ - ties two notes together
        (.  Pause

      ----------------------------------------------------------

      THE BEATLES - REVOLUTION 1 (Lennon & McCartney) From the
                    WHITE ALBUM. Released on 22nd November 1968.

      ----------------------------------------------------------

      Tabbed by:PJVillanueva


      This was the first version of the song, although the single
      version, which even the cat considers to be the best of the
      two, was released before. This had to wait to be included in
      the WHITE ALBUM, which ended being a kind of "Odds And Ends"
      of songs mostly written while in Rishikesh.


      You say you want a revolution
      Well you know
      We all want to change the world
      You tell me that it's evolution
      Well you know
      We all want to change the world

      But when you talk about destruction
      Don't you know that you can count me out, in
      Don't you know it's gonna be alright ...

      You say you got a real solution
      Well you know
      We'd all love to see the plan
      You ask me for a contribution
      Well you know
      We're all doing what we can

      But If you want money for people with minds that hate
      All I can tell you is brother you have to wait
      Don't you know it's gonna be alright ...

      You say you'll change the constitution
      Well you know
      We'd all love to change your head
      You tell me it's the institution
      Well you know
      You better free your mind instead

      But If you go carrying pictures of Chairman Mao
      You ain't going to make it with anyone anyhow
      Don't you know it's gonna be alright ....


      Baoooom shoo bee doo wop ....
      Oh oh oh oh oh oh oh oh oh allright
      Allright allright allright allright ...


        12/8
                                                           X

    e|------ ------ ------ ------|------ ------ ------ ------|
    B|---------------------------|---------------------------|
    G|---------------------------|---------------------------|
    D|---------------------------|---------------------------|
    A|---------------------------|---------------------------|
    E|---------------------------|---------------------------|

      A5     A6 ....
    e|------ ------ ------ ------|------ ------ ------ ------|
    B|---------------------------|---------------------------|
    G|---------------------------|---------------------------|
    D|2---2--2H4----2---x---H4---|2---2--2H4----2---2--2H4---|
    A|0---0--0---0--0---x------0-|0---0--0---0--0---0--0---0-|
    E|---------------------------|---------------------------|
                                             O  K
                        Right two?
                           take
      00:05

    e|------ ------ ------ ------|------ ------ ------ ------|
    B|---------------------------|---------------------------|
    G|---------------------------|---------------------------|
    D|2---2--2H4----2---2--2H4---|2---2--4------2---2--2H4---|
    A|0---0--0---0--0---0--0---0-|0---0--0---0--0---0--0---0-|
    E|---------------------------|---------------------------|

    e/5-5-5- 5-5-5- 5-5-5- 5-5-5-/5-5-5- 5-5-5- 5-5-5- 5-5-5-|
    B/5-5-5--5-5-5--5-5-5--5-5-5-/5-5-5--5-5-5--5-5-5--5-5-5-|
    G|---------------------------|---------------------------|
    D|---------------------------|---------------------------|
    A|---------------------------|---------------------------|
    E|---------------------------|---------------------------|

                                         E
    e|------ ------ ------ ------|------ 0---0- 0---0- 0---0-|
    B|---------------------------|-------0---0--0---0--0---0-|
    G|---------------------------|-------1---1--1---1--1---1-|
    D|2---2--2H4----2---2--2H4---|2------2---2--2---2--2---2-|
    A|0---0--0---0--0---0--0---0-|0------2---2--2---2--2---2-|
    E|---------------------------|-------0---0--0---0--0---0-|

    e/5-5-5- 5-5-5- 5-5-5- 5-5-5-|7/8--- ------ ------ ------|
    B/5-5-5--5-5-5--5-5-5--5-5-5-|7/8--------8--101110-8-----|
    G|---------------------------|---------9------B-R----9-7-|
    D|---------------------------|---------------------------|
    A|---------------------------|---------------------------|
    E|---------------------------|---------------------------|
                                      E7
    e|------ ------ ------ ------|----0- 0---0- 0---0- 0---0-|
    B|---------------------------|----3--3---3--3---3--3---3-|
    G|---------------------------|----1--1---1--1---1--1---1-|
    D|---------------------------|----2--2---2--2---2--2---2-|
    A|---------------------------|----2--2---2--2---2--2---2-|
    E|---------------------------|----0--0---0--0---0--0---0-|
                                                           You


      00:16

    e|------ ------ ------ ------|------ ------ ------ ------|
    B|---------------------------|---------------------------|
    G|2---2--4---2--2---2--4---2-|2---2--2---4--2---2--2---4-|
    D|2---2--4---2--2---2--4---2-|2---2--2---4--2---2--2---4-|
    A|0---0--0---0--0---0--0---0-|0---0--0---0--0---0--0---0-|
    E|---------------------------|---------------------------|

    e|------ ------ ------ ------|------ ------ ------ ------|
    B|---------------------------|---------------------------|
    G|5B6------------------------|---------------------------|
    D|---7-----------------------|---------------------------|
    A|---------------------------|---------------------------|
    E|---------------------------|---------------------------|
      Say you     a revolution                         Well
             want

      6/8

    e|------ ------|
    B|-------------|
    G|2---2--2---2-|
    D|2---2--4---2-|
    A|0---0--0---0-|
    E|-------------|
             You know

      12/8

    e|2---2- 2---2- ----2- 2-----|2---2- 2---2- 2---2- 2-----|
    B|3---3--3---3------3--3-----|3---3--3---3--3---3--3---1-|
    G|2---2--4---2------2--4-----|2---2--4---2--2---2--4---1-|
    D|0---0--0---0------0--0-----|0---0--0---0--0---0--0---1-|
    A|---------------------------|---------------------------|
    E|---------------------------|---------------------------|
                                      We all want   to change
                                                           the

      A
    e|------ ------ ------ ------|------ ------ ------ ------|
    B|---------------------------|---------------------------|
    G|2---2--2---2--2---2--4---2-|2---2--4---2--2---2--4---2-|
    D|2---2--2H4-2--2---2--4---2-|2---2--4---2--2---2--4---2-|
    A|0---0--0---0--0---0--0---0-|0---0--0---0--0---0--0---0-|
    E|---------------------------|---------------------------|
      world                                                You

    e|------ ------ ------ ------|------ ------ ------ ------|
    B|---------------------------|---------------------------|
    G|2---2--4---2--2---2--4---2-|2---2--2---4--2---2--2---4-|
    D|2---2--4---2--2---2--4---2-|2---2--2---4--2---2--2---4-|
    A|0---0--0---0--0---0--0---0-|0---0--0---0--0---0--0---0-|
    E|---------------------------|---------------------------|
      Tell   that   evolution                          Well
          me     it's

    e|------ ------|
    B|-------------|
    G|2---2--2---2-|
    D|2---2--4---2-|
    A|0---0--0---0-|
    E|-------------|
             You know


      D
    e|2---2- 2---2- 2---2- 2---2-|2---2- 2---2- 2---2- 2---2-|
    B|3---3--3---3--3---3--3---3-|3---3--3---3--3---3--3---3-|
    G|2---2--4---2--2---2--4---2-|2---2--4---2--2---2--4---2-|
    D|0---0--0---0--0---0--0---0-|0---0--0---0--0---0--0---0-|
    A|---------------------------|---------------------------|
    E|---------------------------|---------------------------|
                                      We all want   to change
                                                           the

      E7
    e|0---0- 0----- 0---0- 0---0-|0---0- 0---0- 0---0- 0-----|
    B|3---3--3------3---3--3---3-|3---3--3---3--3---3--3-----|
    G|1---1--1------1---1--1---1-|1---1--1---1--1---1--1-----|
    D|2---2--2------2---2--2---2-|2---2--2---2--2---2--2-----|
    A|2---2--2------2---2--2---2-|2---2--2---2--2---2--2-----|
    E|0---0--0------0---0--0---0-|0---0--0---0--0---0--0-----|
      world


      00:48
      Bm
    e|2---2- 2----- ----2- 2---0-|0----- 0---0- ----2- ------|
    B|3---3--3----------3--3---0-|0------0---0------3--------|
    G|4---4--4----------4--4---0-|1------1---1------2--------|
    D|4---4--4----------4--4-----|2------2---2------0--------|
    A|2---2--2----------2--2-----|2------2---2---------------|
    E|---------------------------|0------0---0---------------|

    e|2----- ------ ------ ------|4----- ------ ------ ------|
    B|3--------------------------|5--------------------------|
    G|4--------------------------|4--------------------------|
    D|---------------------------|---------------------------|
    A|---------------------------|---------------------------|
    E|---------------------------|---------------------------|
          But    you    about  destruction
             when   talk

    e|2----- 2---2- 2---2- 2-----|3---5- ----2- ----2- 2---2-|
    B|3------3---3--3---3--3-----|3---5------2------5--5---5-|
    G|4------4---4--4---4--4-----|4---6------3------3--3---3-|
    D|4------4---4--4---4--4-----|5---7------4------4--4---4-|
    A|2------2---2--2---2--2-----|5---7------4------4--4---4-|
    E|---------------------------|3---5------2------2--2---2-|

    e|2----- ------ ------ ------|------ ------ ------ ------|
    B|3--------------------------|3---5------2---------------|
    G|4--------------------------|4---6------3---------------|
    D|---------------------------|5---7------4---------------|
    A|---------------------------|---------------------------|
    E|---------------------------|---------------------------|
             Don't  know   you can    me     out           in
                 you    that      count


                        E
    e|----2- 2---2-|----0- 0---0- 0---0- 0---0-|
    B|----5--5---5-|----0--0---0--0---0--0---0-|
    G|----3--3---3-|----1--1---1--1---1--1---1-|
    D|----4--4---4-|----2--2---2--2---2--2---2-|
    A|----4--4---4-|----2--2---2--2---2--2---2-|
    E|----2--2---2-|----0--0---0--0---0--0---0-|

    e|------ ------|------ ------ ------ ------|
    B|-------------|---------------------------|
    G|-------------|---------------------------|
    D|------------\|2--------------------------|
    A|-------------|---------------------------|
    E|-------------|0--------------------------|

    e|------ ------|------ ------ ------ ------|
    B|-------------|----7--7---7--7-7-7--7-\---|
    G|-------------|----7--7---7--7-7-7--7-\---|
    D|-------------|----6--6---6--6-6-6--6-\---|
    A|-------------|---------------------------|
    E|-------------|---------------------------|
                             Don't    it's   be
                               you       gonna
                                  know
                                             Baa

      01:04

    e|------ ------ ------ ------|2----- 2---2- 2---2- 2-----|
    B|2------2---2--2---2--2-----|3------3---3--3---3--3-----|
    G|2------2---2--2---2--2-----|2------4---2--2---2--4-----|
    D|2------4---2--2---2--4-----|0------0---0--0---0--0-----|
    A|0------0---0--0---0--0-----|---------------------------|
    E|---------------------------|---------------------------|

    e|------ ------ ------ ------|------ ------ ------ ------|
    B|---------------------------|---------------------------|
    G|--------------2---2------2-|--------------2---2------2-|
    D|---------------------------|---------------------------|
    A|--------------0---0------0-|--------------0---0------0-|
    E|---------------------------|---------------------------|

    e|9-\--- ------ ------ ------|----9- \----- ------ ------|
    B10-\------------------------|---10--\-------------------|
    G|9-\------------------------|----9--\-------------------|
    D|---------------------------|---------------------------|
    A|---------------------------|---------------------------|
    E|---------------------------|---------------------------|
                        Allright           Don't    it's   be
                                            you know   gonna
      oooom  shoobeedooowop    Baaoooom  shoobeedooowop    Baa

    e|------ ------ ------ ------|2----- 2---2- 2---2- 2-----|
    B|2------2---2--2---2--2-----|3------3---3--3---3--3-----|
    G|2------2---2--2---2--2-----|2------4---2--2---2--4-----|
    D|2------4---2--2---2--4-----|0------0---0--0---0--0-----|
    A|0------0---0--0---0--0-----|---------------------------|
    E|---------------------------|---------------------------|

    e|------ ------ ------ ------|------ ------ ------ ------|
    B|---------------------------|---------------------------|
    G|--------------2---2------2-|--------------2---2------2-|
    D|---------------------------|---------------------------|
    A|--------------0---0------0-|--------------0---0------0-|
    E|---------------------------|---------------------------|

    e|9-\--- ------ ------ ------|----9- ------ ------ ------|
    B10-\------------------------|---10----------------------|
    G|9-\------------------------|----9----------------------|
    D|---------------------------|---------------------------|
    A|---------------------------|---------------------------|
    E|---------------------------|---------------------------|
                        Allright           Don't    it's   be
                                            you know   gonna
      oooom  shoobeedooowop    Baaoooom  shoobeedooowop    Baa


    e|------ ------ ------ ------|2----- 2---2- 2---2- 2-----|
    B|2------2---2--2---2--2-----|3------3---3--3---3--3-----|
    G|2------2---2--2---2--2-----|2------4---2--2---2--4-----|
    D|2------4---2--2---2--4-----|0------0---0--0---0--0-----|
    A|0------0---0--0---0--0-----|---------------------------|
    E|---------------------------|---------------------------|

    e|------ ------ ------ ------|------ ------ ------ ------|
    B|---------------------------|---------------------------|
    G|--------------2---2------2-|--------------2---2--------|
    D|---------------------------|-------------------------2-|
    A|--------------0---0------0-|--------------0---0--------|
    E|---------------------------|-------------------------0-|

    e|9-\--- ------ ------ ------|----9-\------ ------ ------|
    B10-\------------------------|---10-\--------------------|
    G|9-\------------------------|----9-\--------------------|
    D|---------------------------|---------------------------|
    A|---------------------------|---------------------------|
    E|---------------------------|---------------------------|
                        Allright

    e|------ ------ ------ ------|------ ------ ------ 0-----|
    B|---------------------------|---------------------0-----|
    G|---------------------------|---------------------0-----|
    D|-----------0--------------2|-----------0---------0-----|
    A|-------0H2-----------2H4---|-------0H2-----------------|
    E|----0-------------0--------|----0-------------0--------|
                                                       You

      01:22

    e|------ ------ ------ ------|------ ------ ------ ------|
    B|---------------------------|---------------------------|
    G|2---2--2---2--2------2---2-|2------2------2---2--2-----|
    D|2---2--4---2--2------4---2-|2------4------2---2--4-----|
    A|0---0--0---0--0------0---0-|0------0------0---0--0-----|
    E|---------------------------|---------------------------|

    e|------ ------ ------ ------|------ ------ ------ ------|
    B|---------------------------|---------------------------|
    G|---------------------------|---------------------------|
    D|---------------------------|---------------------------|
    A|0-------------0---0------0-|--------------0---0--------|
    E|---------------------------|---------------------------|
      Say you    a  real                               Well
             got        solution

    e|------ ------|
    B|-------------|
    G|2---2--2-----|
    D|2---2--4-----|
    A|0---0--0-----|
    E|-------------|

    e|------ ------|
    B|-------------|
    G|-------------|
    D|-------------|
    A|0---0--------|
    E|-------------|
             You know


      D5       D6 ....
    e|2----- ------ ----2- ------|------ 2----- ------ 2-----|
    B|3---3--3---3--3---3--3-----|3---3--3---3--3---3--3---3-|
    G|2---2--4---2--2---2--4-----|2---2--4---2--2---2--4---2-|
    D|0---0--0---0--0---0--0-----|0---0--0---0--0---0--0---0-|
    A|---------------------------|---------------------------|
    E|---------------------------|---------------------------|

    e|------ ------ ------ ------|------ ------ ------ ------|
    B|---------------------------|---------------------------|
    G|---------------------------|---------------------------|
    D|---------------------------|---------------------------|
    A|0-------------0---0------0-|--------------0---0------0-|
    E|---------------------------|---------------------------|
                                      We'd   love   to see plan
                                         all             the
                                                           Baa

      A
    e|------ ------ ------ ------|------ ------ ------ ------|
    B|---------------------------|---------------------------|
    G|2---2--4---2--2---2--4---2-|2---2--4---2--2---2--4---2-|
    D|2---2--4---2--2---2--4---2-|2---2--4---2--2---2--4---2-|
    A|0---0--0---0--0---0--0---0-|0---0--0---0--0---0--0---0-|
    E|---------------------------|---------------------------|

    e|------ ------ ------ ------|------ ------ ------ ------|
    B|---------------------------|---------------------------|
    G|---------------------------|---------------------------|
    D|---------------------------|---------------------------|
    A|--------------0---0------0-|--------------0---0------0-|
    E|---------------------------|---------------------------|
                                                           You
      oooom  shoobeedooowop    Baaoooom  shoobeedooowop


      01:38

    e|------ ------ ------ ------|------ ------ ------ ------|
    B|---------------------------|---------------------------|
    G|2---2--4------2---2--4-----|2---2--4---2--2---2--4-----|
    D|2---2--4------2---2--4-----|2---2--4---2--2---2--4-----|
    A|0---0--0------0---0--0-----|0---0--0---0--0---0--0-----|
    E|---------------------------|---------------------------|

    e|------ ------ ------ ------|------ ------ ------ ------|
    B|---------------------------|---------------------------|
    G|---------------------------|---------------------------|
    D|---------------------------|---------------------------|
    A|--------------0---0------0-|--------------0---0--------|
    E|---------------------------|---------------------------|
      Ask me for a  contribution                       Well


    e|------ ------|
    B|-------------|
    G|2---2--2-----|
    D|2---2--4-----|
    A|0---0--0-----|
    E|-------------|

    e|------ ------|
    B|-------------|
    G|-------------|
    D|-------------|
    A|0---0--------|
    E|-------------|
             You know

      D
    e|2----- ------ ----2- ------|2----- 2----- ------ 2-----|
    B|3---3--3---3--3---3--3-----|3---3--3---3--3---3--3---3-|
    G|2---2--4---2--2---2--4-----|2---2--4---2--2---2--4---2-|
    D|0---0--0---0--0---0--0-----|0---0--0---0--0---0--0---0-|
    A|---------------------------|---------------------------|
    E|---------------------------|---------------------------|

    e|------ ------ ------ ------|------ ------ ------ ------|
    B|---------------------------|---------------------------|
    G|---------------------------|---------------------------|
    D|---------------------------|---------------------------|
    A|0-------------0---0------0-|--------------0---0--------|
    E|---------------------------|---------------------------|
                                      We are doing     what
                                                         we
                                                           can
                                                           Baa
      E
    e|------ ------ ------ ------|------ ------ ------ ------|
    B|---------------------------|---------------------------|
    G|---------------------------|---------------------------|
    D|2---2--2---2--2---2--2-----|2---2--2---2--2---2--2-----|
    A|2---2--4---2--2---2--4-----|2---2--4---2--2---2--4-----|
    E|0---0--0---0--0---0--0-----|0---0--0---0--0---0--0-----|

    e|------ ------ ------ ------|------ ------ ------ ------|
    B|---------------------------|---------------------------|
    G|---------------------------|---------------------------|
    D|---------------------------|---------------------------|
    A|---------------------------|---------------------------|
    E|0--------------------------|---------------------------|

    e|-12--- -10--- --9--- --7---|--5--- ------ ------ ------|
    B|---------------------------|-----------------------3-5-|
    G/13-13-\11-11-/9---9--7---7-|6---6--5---4---------4-----|
    D|---------------------------|---------------------------|
    A|---------------------------|---------------------------|
    E|---------------------------|---------------------------|
      oooom  shoobeedooowop    Baaoooom  shoobeedooowop


      01:53
      Bm                          E                 D
    e|2----- 2---2- 2----- 2-----|0---0- ----0- ----2- ------|
    B|3------3---3--3---3--3-----|0---0------0------3--------|
    G|4------4---4--4---4--4-----|1---1------1------2--------|
    D|4------4---4--4---4--4-----|2---2------2------0--------|
    A|2------2---2--2---2--2-----|2---2------2---------------|
    E|---------------------------|0---0------0---------------|

    e|2----- ------ ------ ------|4----- ------ ------ ------|
    B|3--------------------------|5--------------------------|
    G|4--------------------------|4--------------------------|
    D|---------------------------|---------------------------|
    A|---------------------------|---------------------------|
    E|---------------------------|---------------------------|
          But  you  money  people minds      hate
             If  want   for    with   that

      Bm                          G   A      F#
    e|2----- 2---2- 2---2- 2-----|3---5- ----2- ----2- 2---2-|
    B|3------3---3--3---3--3-----|3---5------2------2--2---2-|
    G|4------4---4--4---4--4-----|4---6------3------3--3---3-|
    D|4------4---4--4---4--4-----|5---7------4------4--4---4-|
    A|2------2---2--2---2--2-----|5---7------4------4--4---4-|
    E|2--------------------------|3---5------2------2--2---2-|

    e|5----- ------ ------ ------|7---9- ----6- ------ -----\|
    B|7--------------------------|8--10------7--------------\|
    G|7--------------------------|7---9------6--------------\|
    D|---------------------------|---------------------------|
    A|---------------------------|---------------------------|
    E|---------------------------|---------------------------|

    e|------ ------ ------ ------|------ ------ ------ ----12|
    B|---------------------------|---------------------------|
    G|---------------------------|---------------------------|
    D|---------------------------|---------------------------|
    A|---------------------------|---------------------------|
    E|---------------------------|---------------------------|
             All can  you  brother    to     wait
               I    tell       you
                        is        have


                 E      E7
    e|2---2- 2---0-|----0- 0---0- 0---0- 0---0-|
    B|5---5--5---0-|----3--3---3--3---3--3---3-|
    G|3---3--3---1-|----1--1---1--1---1--1---1-|
    D|4---4--4---2-|----2--2---2--2---2--2---2-|
    A|4---4--4---2-|----2--2---2--2---2--2---2-|
    E|2---2--2---0-|----0--0---0--0---0--0---0-|

    e|------ ------|------ ------ ------ ------|
    B|-------------|---------------------------|
    G|-------------|---------------------------|
    D|2------------|---------------------------|
    A|-------------|---------------------------|
    E|0------------|---------------------------|

    e|----12 ------|------ ------ ------ ------|
    B|1214-----1412|10-\-5-----5--5-5-5-5-5-5-5|
    G|--B--------R-|---------------------------|
    D|-------------|---------------------------|
    A|-------------|---------------------------|
    E|-------------|---------------------------|
                             Don't    it's   be
                               you       gonna
                                  know
                                             Baa

      02:06
      A      A6 ...               D      D6 ...
    e|------ ------ ------ ------|2----- 2---2- 2---2- 2-----|
    B|2---2--2---2--2---2--2-----|3------3---3--3---3--3-----|
    G|2---2--2---2--2---2--2-----|2------4---2--2---2--4-----|
    D|2---2--4---2--2---2--4-----|0------0---0--0---0--0-----|
    A|0---0--0---0--0---0--0-----|---------------------------|
    E|---------------------------|---------------------------|

    e|------ ------ ------ ------|------ ------ ------ ------|
    B|---------------------------|---------------------------|
    G|--------------2---2------2-|--------------2---2------2-|
    D|---------------------------|---------------------------|
    A|--------------0---0------0-|--------------0---0------0-|
    E|---------------------------|---------------------------|

    e|5----- ------ ------ ------|----9\ ------ ------ ------|
    B|5--------------------------|---10\---------------------|
    G|---------------------------|----9\---------------------|
    D|---------------------------|---------------------------|
    A|---------------------------|---------------------------|
    E|---------------------------|---------------------------|
                        Allright           Don't    it's   be
                                             you       gonna
                                                know
      oooom  shoobeedooowop    Baaoooom  shoobeedooowop    Baa

    e|------ ------ ------ ------|2---2- 2---2- 2---2- 2-----|
    B|2---2--2---2--2---2--2-----|3---3--3---3--3---3--3-----|
    G|2---2--2---2--2---2--2-----|2---2--4---2--2---2--4-----|
    D|2---2--4---2--2---2--4-----|0---0--0---0--0---0--0-----|
    A|0---0--0---0--0---0--0-----|---------------------------|
    E|---------------------------|---------------------------|

    e|------ ------ ------ ------|------ ------ ------ ------|
    B|---------------------------|---------------------------|
    G|--------------2---2------2-|--------------2---2------2-|
    D|---------------------------|---------------------------|
    A|--------------0---0------0-|--------------0---0------0-|
    E|---------------------------|---------------------------|

    e|----9-\------ ------ ------|----9- \----- ------ ------|
    B|---10-\--------------------|---10--\-------------------|
    G|----9-\--------------------|----9--\-------------------|
    D|---------------------------|---------------------------|
    A|---------------------------|---------------------------|
    E|---------------------------|---------------------------|
                        Allright           Don't    it's   be
                                             you       gonna
                                                know
      oooom  shoobeedooowop    Baaoooom  shoobeedooowop    Baa

    e|------ ------ ------ ------|2---2- 2---2- 2---2- 2-----|
    B|2---2--2---2--2---2--2-----|3---3--3---3--3---3--3-----|
    G|2---2--2---2--2---2--2-----|2---2--4---2--2---2--4-----|
    D|2---2--4---2--2---2--4-----|0---0--0---0--0---0--0-----|
    A|0---0--0---0--0---0--0-----|---------------------------|
    E|---------------------------|---------------------------|

    e|------ ------ ------ ------|------ ------ ------ ------|
    B|---------------------------|---------------------------|
    G|--------------2---2------2-|--------------2---2--------|
    D|---------------------------|-------------------------2-|
    A|--------------0---0------0-|--------------0---0--------|
    E|---------------------------|-------------------------0-|

    e|----9-\------ ------ ------|----9- \----- ------ ------|
    B|---10-\--------------------|---10--\-------------------|
    G|----9-\--------------------|----9--\-------------------|
    D|---------------------------|---------------------------|
    A|---------------------------|---------------------------|
    E|---------------------------|---------------------------|
                           Allright
      oooom  shoobeedooowop    Baaoooom  shoobeedooowop

    e|------ ------ ------ ------|------ ------ ------ ----3-|
    B|---------------------------|-------------------------2-|
    G|---------------------------|-------------------------2-|
    D|-----------0--------------2|-----------0---------------|
    A|-------0H2-----------2H4---|-------0H2-----------0H2---|
    E|0---0-------------0--------|----0-------------0--------|
                                                           You

      02:26

    e|------ ------ ------ ------|------ ------ ------ ------|
    B|---------------------------|---------------------------|
    G|2---2--4------2---2--4-----|2---2--4---2--2---2--4---2-|
    D|2---2--4------2---2--4-----|2---2--4---2--2---2--4---2-|
    A|0---0--0------0---0--0-----|0---0--0---0--0---0--0---0-|
    E|---------------------------|---------------------------|

    e|------ ------ ------ ------|------ ------ ------ ------|
    B|---------------------------|---------------------------|
    G|---------------------------|---------------------------|
    D|7-------------7---7------7-|7-------------7---7------7-|
    A|7-------------9---7------9-|7-------------9---7------9-|
    E|5-------------5---5------5-|5-------------5---5------5-|
      say you'll the                                   Well
             change constitution

    e|------ ------|
    B|-------------|
    G|2---2--2-----|
    D|2---2--4-----|
    A|0---0--0-----|
    E|-------------|

    e|------ ------|
    B|-------------|
    G|-------------|
    D|----7------7-|
    A|----7------9-|
    E|----5------5-|
             You know


    e|2---2- 2----- 2---2- 2---2-|2---2- 2----- 2---2- 2---2-|
    B|3---3--3------3---3--3---3-|3---3--3------3---3--3---3-|
    G|2---2--4------2---2--4---2-|2---2--4------2---2--4---2-|
    D|0---0--0------0---0--0---0-|0---0--0------0---0--0---0-|
    A|---------------------------|---------------------------|
    E|---------------------------|---------------------------|

    e|------ ------ ------ ------|------ ------ ------ ------|
    B|---------------------------|---------------------------|
    G|---------------------------|---------------------------|
    D|7-------------7---7------7-|7-------------7---7------7-|
    A|7-------------9---7------9-|7-------------9---7------9-|
    E|5-------------5---5------5-|5-------------5---5------5-|

    e|------ ----10 ------ ------|------ ------ ------ ------|
    B|-----------10-\------------|---------------------------|
    G|-----------11-\------------|---------------------------|
    D|---------------------------|---------------------------|
    A|---------------------------|---------------------------|
    E|---------------------------|---------------------------|
                                      We'd   love   to change
                                         all               your
                                                           Baa


    e|------ ------ ------ ------|------ ------ ------ ------|
    B|---------------------------|---------------------------|
    G|2---2--4------2---2--4---2-|2---2--4------2---2--4---2-|
    D|2---2--4------2---2--4---2-|2---2--4------2---2--4---2-|
    A|0---0--0------0---0--0---0-|0---0--0------0---0--0---0-|
    E|---------------------------|---------------------------|

    e|------ ------ ------ ------|------ ------ ------ ------|
    B|---------------------------|---------------------------|
    G|---------------------------|---------------------------|
    D|7-------------7---7------7-|7-------------7---7------7-|
    A|7-------------9---7------9-|7-------------9---7------9-|
    E|5-------------5---5------5-|5-------------5---5------5-|

    e|------ ----9-\------ ------|------ ------ ------ ------|
    B|----------10-\-------------|---------------------------|
    G|-----------9-\-------------|---------------------------|
    D|---------------------------|---------------------------|
    A|---------------------------|---------------------------|
    E|---------------------------|---------------------------|
      head                                                 You
      oooom  shoobeedooowop    Baaoooom  shoobeedooowop


      02:41

    e|------ ------ ------ ------|------ ------ ------ ------|
    B|---------------------------|---------------------------|
    G|2---2--2---2--2---2--2---2-|2------2---2--2---2--2---2-|
    D|2---2--4---2--2---2--4---2-|2------4---2--2---2--4---2-|
    A|0---0--0---0--0---0--0---0-|0------0---0--0---0--0---0-|
    E|---------------------------|---------------------------|

    e|------ ------ ------ ------|------ ------ ------ ------|
    B|---------------------------|---------------------------|
    G|---------------------------|---------------------------|
    D|7-------------7---7------7-|7-------------7---7------7-|
    A|7-------------9---7------9-|7-------------9---7------9-|
    E|5-------------5---5------5-|5-------------5---5------5-|
      tell   it's   institution                        Well
          me     the


    e|------ ------|
    B|-------------|
    G|2---2--2-----|
    D|2---2--4-----|
    A|0---0--0-----|
    E|-------------|

    e|------ ------|
    B|-------------|
    G|-------------|
    D|----7------7-|
    A|----7------9-|
    E|----5------5-|
             You know


    e|2---2- 2----- 2---2- 2---2-|2---2- 2----- 2---2- 2---2-|
    B|3---3--3------3---3--3---3-|3---3--3------3---3--3---3-|
    G|2---2--4------2---2--4---2-|2---2--4------2---2--4---2-|
    D|0---0--0------0---0--0---0-|0---0--0------0---0--0---0-|
    A|---------------------------|---------------------------|
    E|---------------------------|---------------------------|

    e|------ ------ ------ ------|------ ------ ------ ------|
    B|---------------------------|---------------------------|
    G|---------------------------|---------------------------|
    D|7-------------7---7------7-|--------------7---7------7-|
    A|7-------------9---7------9-|--------------9---7------9-|
    E|5-------------5---5------5-|5-------------5---5------5-|

    e|------ ----10 \----- ------|------ ------ ------ ------|
    B|-----------10-\------------|---------------------------|
    G|-----------11-\------------|---------------------------|
    D|---------------------------|---------------------------|
    A|---------------------------|---------------------------|
    E|---------------------------|---------------------------|
                                      You    free your     instead
                                         better     mind
                                                           Baa


    e|------ ------ ------ ------|------ ------ ------ ------|
    B|---------------------------|---------------------------|
    G|---------------------------|---------------------------|
    D|2---2--2---2--2---2--2---2-|2---2--2---2--2---2--2-----|
    A|2---2--4---2--2---2--4---2-|2---2--4---2--2---2--4-----|
    E|0---0--0---0--0---0--0---0-|0---0--0---0--0---0--0-----|

    e|------ ------ ------ ------|------ ------ ------ ------|
    B|---------------------------|---------------------------|
    G|---------------------------|---------------------------|
    D|2--------------------------|2--------------------------|
    A|---------------------------|---------------------------|
    E|0--------------------------|0--------------------------|

    e|----12 ---12- ---10- ------|----9- ------ ------ ------|
    B|---------------------------|-----------------------------|
    G|13-------1313\11--------11-|9--------9----9\7------0-7B9-|
    D|---------------------------|-----------------------------|
    A|---------------------------|-----------------------------|
    E|---------------------------|-----------------------------|
      oooom  shoobeedooowop    Baaoooom  shoobeedooowop

      02:57
      Bm
    e|2----- 2---2- 2---2- 2---2-|0----- 0---0- ----0- 0-----|
    B|3------3---3--3---3--3---3-|0------0---0------0--0-----|
    G|4------4---4--4---4--4---4-|1------1---1------1--1-----|
    D|4------4---4--4---4--4---4-|2------2---2------2--2-----|
    A|2------2---2--2---2--2---2-|2------2---2------2--2-----|
    E|---------------------------|0------0---0------0--0-----|

    e|2----- ------ ------ ------|4----- ------ ------ ------|
    B|3--------------------------|5--------------------------|
    G|4--------------------------|4--------------------------|
    D|---------------------------|---------------------------|
    A|---------------------------|---------------------------|
    E|---------------------------|---------------------------|

    e|------ ------ ------ ------|------ ------ ------ ------|
    B|---------------------------|---------------------------|
    GR7P5\4--4-------------------|---------------------------|
    D|---------------------------|---------------------------|
    A|---------------------------|---------------------------|
    E|---------------------------|---------------------------|
          But  you  carrying   of chairman   Mao
             If  go        pictures

      Bm                          G5  A5     F#
    e|2----- 2---2- 2---2- 2-----|3---5- ----2- ----2- 2---2-|
    B|3------3---3--3---3--3-----|3---5------2------2--2---2-|
    G|4------4---4--4---4--4-----|4---6------3------3--3---3-|
    D|4------4---4--4---4--4-----|5---7------4------4--4---4-|
    A|2------2---2--2---2--2-----|5---7------4------4--4---4-|
    E|---------------------------|3---5------2------2--2---2-|

    e|5----- ------ ------ ------|7---9- ----6- ------ -----\|
    B|7--------------------------|8--10------7--------------\|
    G|7--------------------------|7---9------6--------------\|
    D|---------------------------|---------------------------|
    A|---------------------------|---------------------------|
    E|---------------------------|---------------------------|
          You  gonna  it   anyone anyhow
             ain't  make
                        with


                    E7
    e|2---2- 2---2-|0---0- 0---0- 0---0- 0---0-|
    B|2---2--2---2-|3---3--3---3--3---3--3---3-|
    G|3---3--3---3-|1---1--1---1--1---1--1---1-|
    D|4---4--4---4-|2---2--2---2--2---2--2---2-|
    A|4---4--4---4-|2---2--2---2--2---2--2---2-|
    E|2---2--2---2-|0---0--0---0--0---0--0---0-|

    e|------ ------|------ ------ ------ ------|
    B|-------------|---------------------------|
    G|-------------|---------------------------|
    D|2------------|---------------------------|
    A|-------------|---------------------------|
    E|0------------|---------------------------|


    e|------ ------|------ ------ ------ ------|
    B|----10-------|10-8-8-8-8-8--8-8-8--8-8-8-|
    G|9B11-----9B11|---9-9-9-9-9--9-9-9--9-9-9-|
    D|-------------|---9-9-9-9-9--9-9-9--9-9-9-|
    A|-------------|---------------------------|
    E|-------------|---------------------------|
                             Don't    it's   be
                                you      gonna
                                  know
                                             Baa


      03:10

    e|------ ------ ------ ------|2---2- 2---2- 2---2- 2-----|
    B|2------2---2--2---2--2-----|3---3--3---3--3---3--3-----|
    G|2------2---2--2---2--2-----|2---2--4---2--2---2--4-----|
    D|2------4---2--2---2--4-----|0---0--0---0--0---0--0-----|
    A|0------0---0--0---0--0-----|---------------------------|
    E|---------------------------|---------------------------|

    e|------ ------ ------ ------|------ ------ ------ ------|
    B|---------------------------|---------------------------|
    G|---------------------------|---------------------------|
    D|--------------7---7------7-|7-------------7---7------7-|
    A|--------------9---7------9-|7-------------9---7------9-|
    E|--------------5---5------5-|5-------------5---5------5-|

    e|------ ------ ------ ------|----9- \----- ------ ------|
    B|8--------------------------|---10--\-------------------|
    G|9--------------------------|----9--\-------------------|
    D|9--------------------------|---------------------------|
    A|---------------------------|---------------------------|
    E|---------------------------|---------------------------|
                        Allright           Don't    it's   be
                                             you       gonna
                                                know
      oooom  shoobeedooowop    Baaoooom  shoobeedooowop    Baa

    e|------ ------ ------ ------|2---2- 2---2- 2---2- 2-----|
    B|2---2--2---2--2---2--2-----|3---3--3---3--3---3--3-----|
    G|2---2--2---2--2---2--2-----|2---2--4---2--2---2--4-----|
    D|2---2--4---2--2---2--4-----|0---0--0---0--0---0--0-----|
    A|0---0--0---0--0---0--0-----|---------------------------|
    E|---------------------------|---------------------------|

    e|------ ------ ------ ------|------ ------ ------ ------|
    B|---------------------------|---------------------------|
    G|---------------------------|---------------------------|
    D|7-------------7---7------7-|7-------------7---7------7-|
    A|7-------------9---7------9-|7-------------9---7------9-|
    E|5-------------5---5------5-|5-------------5---5------5-|

    e|----9- ------ ------ ------|------ 9-\--- ------ ------|
    B|---10----------------------|------10-\-----------------|
    G|----9----------------------|-------9-\-----------------|
    D|---------------------------|---------------------------|
    A|---------------------------|---------------------------|
    E|---------------------------|---------------------------|
                        Allright           Don't    it's   be
                                             you       gonna
                                                know
      oooom  shoobeedooowop    Baaoooom  shoobeedooowop    Baa

    e|------ ------ ------ ------|2---2- 2---2- 2---2- 2-----|
    B|2---2--2---2--2---2--2---2-|3---3--3---3--3---3--3-----|
    G|2---2--2---2--2---2--2---2-|2---2--4---2--2---2--4-----|
    D|2---2--4---2--2---2--4---4-|0---0--0---0--0---0--0-----|
    A|0---0--0---0--0---0--0---0-|---------------------------|
    E|---------------------------|---------------------------|

    e|------ ------ ------ ------|------ ------ ------ ------|
    B|---------------------------|---------------------------|
    G|---------------------------|---------------------------|
    D|7-------------7---7------7-|7-------------7---7------7-|
    A|7-------------9---7------9-|7-------------9---7------9-|
    E|5-------------5---5------5-|5-------------5---5------5-|

    e|------ 9-\--- ------ ------|----9- ------ ----9-\------|
    B|------10-\-----------------|---10------------10-\------|
    G|-------9-\-----------------|----9-------------9-\------|
    D|---------------------------|---------------------------|
    A|---------------------------|---------------------------|
    E|---------------------------|---------------------------|
                        Allright
      oooom  shoobeedooowop    Baaoooom  shoobeedooowop

      3/8
      X   X   X

    e|------ --|
    B|---------|
    G|---------|
    D|2---2---2|
    A|---------|
    E|0---0---0|

    e|------ ------ ------ ------|------ ------ ------ ------|
    B|---------------------------|---------------------------|
    G|---------------------------|---------------------------|
    D|-----------0--------------2|-----------0-------------0-|
    A|-------0H2-----------2H4---|-------0H2-----------2H4---|
    E|----0-------------0--------|----0-------------0--------|

                                                           Baa

      03:30

    e|------ ------ ------ ------|2----- 2---2- 2---2- 2-----|
    B|2------2---2--2---2--2-----|3------3---3--3---3--3-----|
    G|2------2---2--2---2--2-----|2------4---2--2---2--4-----|
    D|2------4---2--2---2--4-----|0------0---0--0---0--0-----|
    A|0------0---0--0---0--0-----|---------------------------|
    E|---------------------------|---------------------------|

    e|------ ------ ------ ------|------ ------ ------ ------|
    B|---------------------------|---------------------------|
    G|---------------------------|---------------------------|
    D|7-------------7---7------7-|7-------------7---7------7-|
    A|7-------------9---7------9-|7-------------9---7------9-|
    E|5--------------------------|5--------------------------|
                                      Oh     oh     oh     oh
      oooom  shoobeedooowop  Baaoooom    shoobeedooowop    Baa

    e|------ ------ ------ ------|2----- 2---2- 2---2- 2-----|
    B|2------2---2--2---2--2-----|3------3---3--3---3--3-----|
    G|2------4---2--2---2--4-----|2------4---2--2---2--4-----|
    D|2------4---2--2---2--4-----|0------0---0--0---0--0-----|
    A|0------0---0--0---0--0-----|---------------------------|
    E|---------------------------|---------------------------|

    e|------ ------ ------ ------|------ ------ ------ ------|
    B|---------------------------|---------------------------|
    G|---------------------------|---------------------------|
    D|7-------------7---7------7-|7-------------7---7------7-|
    A|7-------------9---7------9-|7-------------9---7------9-|
    E|5--------------------------|5--------------------------|

    e|------ ------ ------ ------|------ ------ ------ ------|
    B|-------------------------5-|----5------5-------------5-|
    G|-------------------------6-|----6------6------6------6-|
    D|-------------------------7-|----7------7------7------7-|
    A|---------------------------|------------------7--------|
    E|---------------------------|---------------------------|
          oh     oh     oh     oh     oh     oh     allright
      oooom  shoobeedooowop    Baaoooom  shoobeedooowop    Baa

    e|------ ------ ------ ------|2---2- 2---2- 2---2- 2-----|
    B|2------2---2--2---2--2-----|3---3--3---3--3---3--3-----|
    G|2------4---2--2---2--4-----|2---2--4---2--2---2--4-----|
    D|2------4---2--2---2--4-----|0---0--0---0--0---0--0-----|
    A|0------0---0--0---0--0-----|---------------------------|
    E|---------------------------|---------------------------|

    e|------ ------ ------ ------|------ ------ ------ ------|
    B|---------------------------|---------------------------|
    G|---------------------------|---------------------------|
    D|7-------------7---7------7-|7-------------7---7------7-|
    A|7-------------9---7------9-|7-------------9---7------9-|
    E|5--------------------------|5--------------------------|

    e|------ ------ ------ ------|------ ------ ------ ------|
    B|---------------------------|---------------------------|
    G|---------------------------|---------------------7-8---|
    D|---------------------------|---------------------------|
    A|---------------------------|---------------------------|
    E|---------------------------|---------------------------|
                             allright               allright
      oooom  shoobeedooowop    Baaoooom  shoobeedooowop    Baa

      03:44

    e|------ ------ ------ ------|2---2- 2---2- 2---2- 2-----|
    B|2------2---2--2---2--2-----|3---3--3---3--3---3--3-----|
    G|2------4---2--2---2--4-----|2---2--4---2--2---2--4-----|
    D|2------4---2--2---2--4-----|0---0--0---0--0---0--0-----|
    A|0------0---0--0---0--0-----|---------------------------|
    E|---------------------------|---------------------------|  ...

    e|------ ------ ------ ------|------ ------ ------ ------|
    B|---------------------------|---------------------------|
    G|---------------------------|---------------------------|
    D|7-------------7---7------7-|7-------------7---7------7-|
    A|7-------------9---7------9-|7-------------9---7------9-|
    E|5--------------------------|5--------------------------|  ...

    e|------ ------ ------ ------|------ ------ ------ ------|
    B|---------5----5--7P5-------|-------7P5----5------------|
    G|-----------7--5--7P5-------|-------7P5----5------------|
    D|-------7-------------------|----7------7------7--------|
    A|---------------------------|---------------------------|
    E|---------------------------|---------------------------|
             allright      allright      allright      allright ...
      oooom  shoobeedooowop    Baaoooom  shoobeedooowop


    e|------ ------ ------ ------|------ ------ ------ ------|
    B|-------7-5-----------------|-------7-5----5------------|
    G|-------7-5----7B9R75-5H7---|----5----5----5---7-\------|
    D|----7------7-------P-------|-----------7---------------|
    A|---------------------------|---------------------------|
    E|---------------------------|---------------------------|

      03:53

    e|------ ------ ------ ------|------ ------ ------ ------|
    B|-------7-5----5------------|----7--7-5----7-5----7-5---|
    G|-------7-5----5---7--------|----7--7-5----7-5----7-5---|
    D|----7------7---------------|-----------7------7------7-|
    A|---------------------------|---------------------------|
    E|---------------------------|---------------------------|

    e|------ ------ ------ ------|------ ------ ------ ------|
    B|----5--------------------5-|---------------------------|
    G|----5--------------------5-|-----------------------7P5-|
    D|7----------7---------------|5----------5------7--------|
    A|---------------------------|----7----------------------|
    E|---------------------------|---------------------------|

    e|------ ------ ------ ------|------ ------ ------ ------|
    B|---------------------8-----|------------------8--------|
    G|------------------/9--9\7P5|7--------------/9----9\7P5-|
    D|7--------------------------|--7P5--7------------------7|
    A|---------------------------|---------------------------|
    E|---------------------------|---------------------------|
                                  ......... Fade out ........


    e|------ ------ ------ ------|------ ------ ------ ------|
    B|-----------8---------------|8-------------7------------|
    G|5-------/9----9\7P5--5-7/9-|-9\7P5----5---7------------|
    D|----7--------------7-------|-------7-------------------|
    A|---------------------------|---------------------------|
    E|---------------------------|---------------------------|
      .......................................................


    e|------ ------ ------ ------|------ ------ ------ ------|
    B|-------7-5-----------------|---------------------------|
    G|-------7-5-----------------|---------------------------|
    D|----7----------------------|---------------------------|
    A|---------------------------|---------------------------|
    E|---------------------------|---------------------------|
      .............


        B  Bend
        R  Release
        /  slide up
        \  slide down
        H  hammer-on
        P  pull-off
        ~  vibrato
        +  harmonic
        x  Mute note
        .  Play note like a dot in standard notation
        ^  Ties two notes together
        (. Pause

  -----------------------------------------------------------

  THE BEATLES - HONEY PIE (Lennon & McCartney) From the WHITE
                ALBUM. Released on November 22nd 1968.

  -----------------------------------------------------------


  Tabbed by PJVillanueva


  She was a working girl
  North of England way
  Now she's hit the big time
  In the U.S.A.
  And if she could only hear me
  This is what I'd say.

  Honey pie you are making me crazy
  I'm in love but I'm lazy
  So won't you please come home.

  Oh honey pie my position is tragic
  Come and show me the magic
  Of your Hollywood song.

  You became a legend of the silver screen
  And now the thought of meeting you
  Makes me weak in the knee.

  Oh honey pie you are driving me frantic
  Sail across the Atlantic
  To be where you belong.

  Will the wind that blew her boat
  Across the sea
  Kindly send her sailing back to me.

  Honey pie you are making me crazy
  I'm in love but I'm lazy
  So won't you please come home.

                                 (.

e|------------------------5--7---5----------------|
B|------5-----7-----8-----5--5---5----------------|
G|4-----------6-----------5--5---5----------------|
D|2-----------7-----------7-----------------------|
A|------------------------------------------------|
E|------------------------------------------------|
        She   was   a     working girl
e|-----------------------------------15\----------|
B|------------------------------------------------|
G|------------------------------------------------|
D|------------------------------------------------|
A|------------------------------------------------|
E|------------------------------------------------|

                               (.
e|7---8-------5--7-------------3------------------|
B|6-----------5--5----3-------3-------------------|
G|6-----------5--5-----------4--------------------|
D|8-----------7-------------5---------------------|
A|------------------------------------------------|
E|------------------------3-----------------------|
  North  of  England  way
e|----------------------------7H8P7--/-15---------|
B|------------------------------------------------|
G|------------------------------------------------|
D|-------------------------------------------14-12|
A|-----------------------------------------14-----|
E|------------------------------------------------|
                                 (.

e|-----------------------5---7---5----------------|
B|------5-----7----8-----5---5---5----------------|
G|4-----------6----------5---5---5----------------|
D|2-----------7----------7------------------------|
A|------------------------------------------------|
E|------------------------------------------------|
    Now she's hit the big time    + + +
e|--------------------------------12-----5H7P5H7P5|
B|----------------------------------12---5--------|
G|------------------------------------12-5--------|
D|------------------------------------------------|
A|------------------------------------------------|
E|------------------------------------------------|


                                 (.
e|7---8-------5--7---------------3-------------7--|
B|6-----------5--5----3---------3-----------------|
G|6-----------5--5-------------4---------------7--|
D|8-----------7---------------5-------------------|
A|-------------------------2-5--------------------|
E|------------------------3-----------------------|


e|-------------------------------15-\-------------|
B|--------------------------12---15---------------|
G|-------------------------12---------------------|
D|------------------------12----------------------|
A|------------------------------------------------|
E|------------------------------------------------|
  in the U S A


e|7----5---------------------------7--------------|
B|----------8--7--5------7------8-----------------|
G|7----6----6--6--6------6------6-----------------|
D|------------------------------------------------|
A|------------------------------------------------|
E|------------------------------------------------|
  And  If  she could only hear me

                          (.
e|5-----------------------------------------------|
B|-----8----7----5--------3-----------------------|
G|5----5----5----5-------5-------------7-7---7--7-|
D|----------------------4--------------7-7---7--7-|
A|---------------------5---------------5----------|
E|---------------------------------------8---7--5-|
  This is what I'd say
e|----------------------------0-------------------|
B|---------------------------5----/---15----------|
G|-------------------------5----------------------|
D|---------------------0-4------------------------|
A|------------------------------------------------|
E|------------------------------------------------|

  G6
e|3----- 3----- 3----- 3-----|3----- 3----- 3----- 3-----|
B|5------5------5------5-----|5------5------5------5-----|
G|4------4------4------4-----|4------4------4------4-----|
D|---------------------------|---------------------------|
A|--------------5------------|--------------5------------|
E|3--------------------------|3--------------------------|
  Honey     pie                  You are making    me


  Eb7                         E7
e|------ ------ ------ ------|------ ------ ------ ------|
B|4------4------4------4-----|5------5------5------5-----|
G|6------6------6------6-----|7------7------7------7-----|
D|5------5------5------5-----|6------6------6------6-----|
A|6--------------------------|7--------------------------|
E|--------------6------------|--------------7------------|
  crazy                          I'm in love   but I'm

  A                           D7
e|------ ------ ------ ------|------ ------ ------ ------|
B|5------5------5------5-----|3------3------3------3-----|
G|6------6------6------6-----|5------5------5------5-----|
D|7------7------7------7-----|4------4------4------4-----|
A|--------------7------------|5--------------------------|
E|5--------------------------|--------------5------------|
  lazy                         so won't you please come home


  G                           Eb7           D7
e|------ ------ ------ ------|------ ------ ------ ------|
B|3------3------3------3-----|4------4------3------3-----|
G|4------4------4------4-----|6------6------5------5-----|
D|5------5------5------5-----|5------5------4------4-----|
A|--------------5------------|6-------------5------------|
E|3--------------------------|---------------------------|
                                                   Oh
e|------ ------ ------ ------|6----- ------ ------ ------|
B|---------------------8-----|8------10-----8------------|
G|-------7------9------------|8--------------------9-----|
D|-------9-------------------|---------------------------|
A|---------------------------|---------------------------|
E|---------------------------|---------------------------|

  G6
e|3----- 3----- 3----- 3-----|3----- 3----- 3----- 3-----|
B|5------5------5------5-----|5------5------5------5-----|
G|4------4------4------4-----|4------4------4------4-----|
D|---------------------------|---------------------------|
A|--------------5------------|--------------5------------|
E|3--------------------------|3--------------------------|
  Honey     pie                  my  position      is
e|------ ------ ------ ------|------ ------ ------ 7-----|
B|8--------------------------|--------------10-----------|
G|7--------------------------|-------9-------------------|
D|9--------------------------|---------------------------|
A|---------------------------|---------------------------|
E|---------------------------|---------------------------|

  Eb7                         E7
e|------ ------ ------ ------|------ ------ ------ ------|
B|4------4------4------4-----|5------5------5------5-----|
G|6------6------6------6-----|7------7------7------7-----|
D|5------5------5------5-----|6------6------6------6-----|
A|6--------------------------|7--------------------------|
E|--------------6------------|--------------7------------|
  tragic                         Come and show me  the
e|6----- ----6- ------ ------|12---- ------ ------ ------|
B|8--------------------------|-9------------11-----12----|
G|8------8-------------------|-9-------------------------|
D|---------------------------|---------------------------|
A|---------------------------|---------------------------|
E|---------------------------|---------------------------|

  A                           D7
e|------ ------ ------ ------|------ ------ ------ ------|
B|5------5------5------5-----|3------3------3------3-----|
G|6------6------6------6-----|5------5------5------5-----|
D|7------7------7------7-----|4------4------4------4-----|
A|--------------7------------|5--------------------------|
E|5--------------------------|--------------5------------|
  magic                          of your Hollywood    song
e|------ ------ ------ ------|0----- ------ ------ ------|
B|5--------------------------|1--------------------------|
G|6--------------------------|2--------------------------|
D|7--------------------------|0--------------------------|
A|---------------------------|---------------------------|
E|---------------------------|---------------------------|

  G                           F#            F
e|------ ------ ------ ------|------ ------ ------ ------|
B|3------3------3------3-----|2------2------1------1-----|
G|4------4------4------4-----|3------3------2------2-----|
D|5------5------5------------|4------4------3------3-----|
A|---------------------------|---------------------------|
E|3-------------3------------|2-------------1------------|

e|------ ------ ------ ------|------ ------ ------ 1-----|
B|--------------3------------|2-------------1------------|
G|--------------4------------|3-------------2------------|
D|--------------5------------|4-------------3------------|
A|---------------------------|---------------------------|
E|---------------------------|---------------------------|

  Em                          D
e|------ ------ ------ ------|------ ------ ------ ------|
B|0------0------0------0-----|3------3------3------3-----|
G|0------0------0------0-----|2------2------2------2-----|
D|2------2------2------2-----|0------0------0------0-----|
A|---------------------------|---------------------------|
E|0-------------0------------|2-------------2------------|
  You    became        a      legend        of    the silver
e|------ ------ ------ ------|------ ------ ------ ------|
B|8--------------------------|10-------------------------|
G|9--------------------------|11-------------------------|
D|9--------------------------|11-------------------------|
A|---------------------------|---------------------------|
E|---------------------------|---------------------------|

  G
e|------ ------ ------ ------|------ ------ ------ ------|
B|0------0------0------0-----|0------0------0------0-----|
G|0------0------0------0-----|0------0------0------0-----|
D|0------0------0------0-----|0------0------0------0-----|
A|--------------5------------|--------------0------2-----|
E|3--------------------------|3------3-------------------|
            screen                   and    now    the
e|------ ------ ------ ------|------ 15---- 14---- 13----|
B|12-------------------121314|15-----12------------------|
G|12-------------------12----|-------12------------------|
D|12-------------------12----|---------------------------|
A|---------------------------|---------------------------|
E|---------------------------|---------------------------|

  C                           E
e|0----- 0----- 0----- 0-----|0----- 0----- 0----- 0-----|
B|1------1------1------1-----|0------0------0------0-----|
G|0------0------0------0-----|1------1------1------1-----|
D|---------------------------|---------------------------|
A|3--------------------3-----|2--------------------2-----|
E|---------------------------|---------------------------|
  thought of  meeting  you    makes  me weak    on the
e|12---- ------ ------ ------|10---- ------ ------ ------|
B|13-------------------------|12-------------------------|
G|12-------------------------|13-------------------------|
D|---------------------------|---------------------------|
A|---------------------------|---------------------------|
E|---------------------------|---------------------------|

  Am                          D
e|0----- 0----- 0----- 0-----|------ ------ ------ ------|
B|1------1------1------1-----|3---3------3---------------|
G|2------2------2------2-----|2---2------2---------------|
D|---------------------------|0---2------4---------------|
A|0--------------------------|---------------------------|
E|---------------------------|---------------------------|
  knee                                         Oh
e|-8---- ------ ------ ------|7---7- ----7- ------ ------|
B|10-------------------------|7---7------7---------------|
G|-9-------------------------|7---7------7---------------|
D|---------------------------|---------------------------|
A|---------------------------|---------------------------|
E|---------------------------|---------------------------|

  G6
e|3----- 3----- 3----- 3-----|3----- 3----- 3----- 3-----|
B|5------5------5------5-----|5------5------5------5-----|
G|4------4------4------4-----|4------4------4------4-----|
D|---------------------------|---------------------------|
A|--------------5------------|--------------5------------|
E|3--------------------------|3--------------------------|
  Honey     pie                   You are driving  me
e|------ ------ ------ ------|------ ------ ------ ------|
B|8--------------------------|8--------------------------|
G|9--------------------9-----|7--------------------------|
D|9--------------------------|9------9-------------------|
A|---------------------------|--------------10-----7-----|
E|---------------------------|---------------------------|

  Eb7                         E7
e|------ ------ ------ ------|------ ------ ------ ------|
B|4------4------4------4-----|5------5------5------5-----|
G|6------6------6------6-----|7------7------7------7-----|
D|5------5------5------5-----|6------6------6------6-----|
A|6--------------------------|7--------------------------|
E|--------------6------------|--------------7------------|
  frantic                         Sail across  the At....
e|------ ------ 6----- ------|------ ------ 6----- 7-----|
B|4-------------4------------|5-------------5------5-----|
G|6-------------0------------|7-------------7------7-----|
D|5--------------------------|6--------------------------|
A|6-------------6------------|7--------------------------|
E|---------------------------|---------------------------|

  A                           D7
e|------ ------ ------ ------|------ ------ ------ ------|
B|5------5------5------5-----|3------3------3------3-----|
G|6------6------6------6-----|5------5------5------5-----|
D|7------7------7------7-----|4------4------4------4-----|
A|--------------7------------|5--------------------------|
E|5--------------------------|--------------5------------|
  lantic                         to be where you be......
e|------ ------ ------ ------|5----- ------ ------ ------|
B|8--------------------------|7--------------------------|
G|6--------------------------|7--------------------------|
D|7--------------------------|0--------------------------|
A|7--------------------------|---------------------------|
E|---------------------------|---------------------------|

  G
e|------ ------ ------ ------|------ ------ ------ ------|
B|3------3------3------3-----|4------4------4------4-----|
G|4------4------4------4-----|5------5------5------5-----|
D|5------5------5------------|4------4------4------4-----|
A|---------------------------|5------5-------------------|
E|3-------------3------------|--------------5------5-----|
  long                 Honey  pie    come   back   to
e|------ ------ 10---- ------|11---- ----12 ------ ------|
B|--------------12-----------|11---------10--------------|
G|--------------12-----------|12---------11--------------|
D|---------------------------|---------------------------|
A|---------------------------|---------------------------|
E|---------------------------|---------------------------|

Solo

  G6
e|3----- 3----- 3----- 3-----|3----- 3----- 3----- 3-----|
B|5------5------5------5-----|5------5------5------5-----|
G|4------4------4------4-----|4------4------4------4-----|
D|---------------------------|---------------------------|
A|--------------5------------|--------------5------------|
E|3--------------------------|3--------------------------|

e|----10 ------ ------ ------|------ ------ 7---8- 7-----|
B|12-------------------------|-----------8-------------8-|
G|-----------12--------------|---------------------------|
D|---------------------------|---------------------------|
A|---------------------------|---------------------------|
E|---------------------------|---------------------------|
  me

  Eb7                         E7
e|------ ------ ------ ------|------ ------ ------ ------|
B|4----------4---------------|5----------5---------------|
G|6----------6---------------|7----------7---------------|
D|5----------5---------------|6----------6---------------|
A|6----------6---------------|7----------7---------------|
E|---------------------------|---------------------------|

e|------ ----8- 9---11 ----12|14---- ----13 ----12 ------|
B|-------8-------------------|---------------------------|
G|----8----------------------|---------------------------|
D|---------------------------|---------------------------|
A|---------------------------|---------------------------|
E|---------------------------|---------------------------|


  A7                          D9
e|------ ------ ------ ------|------ ------ ------ ------|
B|8------8------8------8-----|5------5------5------5-----|
G|6------6------6------6-----|5------5------5------5-----|
D|7------7------7------7-----|4------4------4------4-----|
A|--------------7------------|5--------------------------|
E|5--------------------------|--------------5------------|
e|------ ------ ------ ------|------ ------ ------ ------|
B|8--------------------------|5--------------------------|
G|6--------------------------|5--------------------------|
D|5--------------------------|4--------------------------|
A|7--------------------------|5--------------------------|
E|5--------------------------|---------------------------|


  G                           Eb9        D9
e|------ ------ ------ ------|------ ------ ------ ------|
B|3------3------3------3-----|6----------5---------------|
G|4------4------4------4-----|6----------5---------------|
D|5------5------5------5-----|5----------4---------------|
A|--------------5------------|6----------5---------------|
E|3--------------------------|---------------------------|

e|------ ------ ------ ------|------ ------ ------ ------|
B|3--------------------------|6----------5---------------|
G|4--------------------------|6----------5---------------|
D|5--------------------------|5----------4---------------|
A|---------------------------|6----------5---------------|
E|3--------------------------|---------------------------|


  G6
e|3----- 3----- 3----- 3-----|3----- 3----- 3----- 3-----|                           -
B|5------5------5------5-----|5------5------5------5-----|
G|4------4------4------4-----|4------4------4------4-----|
D|---------------------------|---------------------------|
A|--------------5------------|--------------5------------|
E|3--------------------------|3--------------------------|

e|------ ----3- ----7- ------|10---- ------ 7----- ------|
B|3------5----------5--------|-8------------5------------|
G|4-----------------4--------|-7------------4------------|
D|---------------------------|---------------------------|
A|---------------------------|---------------------------|
E|---------------------------|---------------------------|


  Eb7                         E7
e|------ ------ ------ ------|------ ------ ------ ------|
B|4----------4---------------|5----------5---------------|
G|6----------6---------------|7----------7---------------|
D|5----------5---------------|6----------6---------------|
A|6----------6---------------|7----------7---------------|
E|---------------------------|---------------------------|

e|6----- ----6- ------ ------|7----- ----7- ------ ------|
B|8----------8---------------|9----------9---------------|
G|8----------8---------------|9----------9---------------|
D|---------------------------|---------------------------|
A|---------------------------|---------------------------|
E|---------------------------|---------------------------|

e|------ ------ ------ ------|------ ------ ------ -10---|
B|---------------------------|---------------------------|
G|-------10---------10-------|----11-------B13R12B13-----|
D|---------------------------|---------------------------|
A|---------------------------|---------------------------|
E|---------------------------|---------------------------|


  A7                          D9
e|------ ------ ------ ------|------ ------ ------ ------|
B|8------8------8------8-----|5------5------5------5-----|
G|6------6------6------6-----|5------5------5------5-----|
D|7------7------7------7-----|4------4------4------4-----|
A|7-------------7------------|5--------------------------|
E|---------------------------|--------------5------------|

e|------ ------ ------ ------|10---- ------ 6----- ------|
B|8-------------5------8-----|-7------------7------------|
G|6--------------------------|-7------------7------------|
D|7--------------------------|---------------------------|
A|---------------------------|---------------------------|
E|---------------------------|---------------------------|


  G                           F#            F
e|------ ------ ------ ------|------ ------ ------ ------|
B|3------3------3------3-----|2------2------1------1-----|
G|4------4------4------4-----|3------3------2------2-----|
D|5------5------5------5-----|4------4------3------3-----|
A|---------------------------|---------------------------|
E|3-------------3------------|2-------------1------------|

e|------ 7-8-9- 10-9-8 7-----|------ ------ ------ ------|
B|-----------------------10-9|8-7\6----------------------|
G|---------------------------|-------9-8-7--6\5----------|
D|---------------------------|------------------9--8-7-6-|
A|---------------------------|---------------------------|
E|---------------------------|---------------------------|


  Em                          D
e|------ ------ ------ ------|------ ------ ------ ------|
B|0------0------0------0-----|3------3------3------3-----|
G|0------0------0------0-----|2------2------2------2-----|
D|2------2------2------2-----|0------0------0------0-----|
A|---------------------------|---------------------------|
E|0-------------0------------|2-------------2------------|
  Will   the wind      that   blew  her boat       a.....
e|------ ------ ------ ------|------ ------ ------ ------|
B|-8-------------------------|10-------------------------|
G|-9-------------------------|11-------------------------|
D|-9-------------------------|11-------------------------|
A|10-------------------------|---------------------------|
E|---------------------------|---------------------------|


  G
e|------ ------ ------ ------|------ ------ ------ ------|
B|0------0------0------0-----|0------0------0------0-----|
G|0------0------0------0-----|0------0------0------0-----|
D|0------0------0------0-----|0------0------0------0-----|
A|--------------5------------|--------------0------2-----|
E|3--------------------------|3------3-------------------|
  cross  the sea
e|------ ------ ------ ------|------ ------ ------ ------|
B|-------121314-151413-12----|12-------------------------|
G|-------12--------------1514|12-----10------------------|
D|-------12------------------|12-------------------------|
A|---------------------------|---------------------------|
E|---------------------------|---------------------------|

  C                           E
e|0----- 0----- 0----- 0-----|0----- 0----- 0----- 0-----|
B|1------1------1------1-----|0------0------0------0-----|
G|0------0------0------0-----|1------1------1------1-----|
D|---------------------------|---------------------------|
A|3------3-------------------|2------2-------------------|
E|---------------------------|---------------------------|
  Kindly     send      her    sailing   back       to  me.
e|------ ------ ------ ------|------ ------ ------ ------|
B|-8-------------------------|9--------------------------|
G|-9-------------------------|9--------------------------|
D|10-------------------------|9--------------------------|
A|---------------------------|---------------------------|
E|---------------------------|---------------------------|

  Am                          D
e|0----- 0----- 0----- 0-----|------ ------ ------ ------|
B|1------1------1------1-----|3---3------3---------------|
G|2------2------2------2-----|2---2------2---------------|
D|---------------------------|0---2------4---------------|
A|0--------------------------|---------------------------|
E|---------------------------|---------------------------|

e|------ 7----- 8----- 8-----|------ ----5- ------ ------|
B|10-------------------8-----|7---8------7---------------|
G|-9-------------------9-----|7----------7---------------|
D|---------------------------|---------------------------|
A|---------------------------|---------------------------|
E|---------------------------|---------------------------|

  G6
e|3----- 3----- 3----- 3-----|3----- 3----- 3----- 3-----|
B|5------5------5------5-----|5------5------5------5-----|
G|4------4------4------4-----|4------4------4------4-----|
D|---------------------------|---------------------------|
A|--------------5------------|--------------5------------|
E|3--------------------------|3--------------------------|
  Honey      pie                 You are making    me
e|------ ------ ------ ------|------ ------ ------ 7-----|
B|8--------------------------|--------------8------------|
G|7--------------------------|-------9-------------------|
D|9--------------------------|---------------------------|
A|---------------------------|---------------------------|
E|---------------------------|---------------------------|

  Eb7                         E7
e|------ ------ ------ ------|------ ------ ------ ------|
B|4------4------4------4-----|5------5------5------5-----|
G|6------6------6------6-----|7------7------7------7-----|
D|5------5------5------5-----|6------6------6------6-----|
A|6--------------------------|7--------------------------|
E|--------------6------------|--------------7------------|
  crazy                          I'm in love but   I'm
e|11---- ------ ------ ------|12---- ------ ------ ------|
B|-8---------11--------------|-9------------11-----12----|
G|-8----------8--------------|-9-------------9-----------|
D|-8----------8--------------|-9-------------9-----------|
A|---------------------------|---------------------------|
E|---------------------------|---------------------------|

  A                           D7
e|------ ------ ------ ------|------ ------ ------ ------|
B|5------5------5------5-----|3------3------3------3-----|
G|6------6------6------6-----|5------5------5------5-----|
D|7------7------7------7-----|4------4------4------4-----|
A|--------------7------------|5--------------------------|
E|5--------------------------|--------------5------------|
  lazy                         So won't you please come home
e|------ ------ ------ ------|------ ------ ------ ------|
B|5--------------------------|0--------------------------|
G|6--------------------------|2--------------------------|
D|7--------------------------|0--------------------------|
A|---------------------------|---------------------------|
E|---------------------------|---------------------------|

  G                           C#9           D9
e|------ ------ ------ ------|------ ------ ------ ------|
B|3------3------3------3-----|4------4------5------5-----|
G|4------4------4------4-----|4------4------5------5-----|
D|5------5------5------5-----|3------3------4------4-----|
A|--------------5------------|4-------------5------------|
E|3--------------------------|---------------------------|
         Come      come back to me Honey pie
e|------ ------ 10---- ------|11---- ------ 12---- ------|
B|--------------12-----------|11------------10-----------|
G|--------------12-----------|12------------11-----------|
D|---------------------------|---------------------------|
A|---------------------------|---------------------------|
E|---------------------------|---------------------------|


  G
e|3----- 3----- 3----- 3-----|3----- 3----- 3----- 3-----|
B|5------5------5------5-----|5------5------5------5-----|
G|4------4------4------4-----|4------4------4------4-----|
D|---------------------------|---------------------------|
A|--------------5------------|--------------5------------|
E|3--------------------------|3--------------------------|

e|7---10 ------ ------ ------|----10 12--15 ----12 10----|
B|8----8-----8---------------|----12-12--12-----12-12----|
G|7----------7---------------|----12-12--12-----12-12----|
D|---------------------------|---------------------------|
A|---------------------------|---------------------------|
E|---------------------------|---------------------------|


  Eb7                         E7
e|------ ------ ------ ------|------ ------ ------ ------|
B|4------4------4------4-----|5------5------5------5-----|
G|6------6------6------6-----|7------7------7------7-----|
D|5------5------5------5-----|6------6------6------6-----|
A|6--------------------------|7--------------------------|
E|--------------6------------|--------------7------------|

e|6----- ----6- ------ ------|------ ----12 ------ ------|
B|8----------8---------------|----11-12---------12-11--12|
G|8----------8---------------|----12------------12-------|
D|---------------------------|----11------------11-------|
A|---------------------------|---------------------------|
E|---------------------------|---------------------------|


  A                           D7
e|------ ------ ------ ------|------ ------ ------ ------|
B|5------5------5------5-----|3------3------3------3-----|
G|6------6------6------6-----|5------5------5------5-----|
D|7------7------7------7-----|4------4------4------4-----|
A|--------------7------------|5--------------------------|
E|5--------------------------|--------------5------------|

e|------ ------ ------ ------|------ 10---- -9---- -8----|
B|8----------8---------------|-------12-----11-----10----|
G|6----------6---------------|-------11-----10------9----|
D|7----------7---------------|---------------------------|
A|7----------7---------------|---------------------------|
E|---------------------------|---------------------------|


  G                           Eb9        D9
e|------ ------ ------ ------|------ ------ ------ ------|
B|3------3------3------3-----|6----------5---------------|
G|4------4------4------4-----|6----------5---------------|
D|5------5------5------5-----|5----------4---------------|
A|--------------5------------|6----------5---------------|
E|3--------------------------|---------------------------|

e|7----- 8----- 10---- ------|6----- ----5- ------ ------|
B|8--------------8-----8-----|8----------7---------------|
G|7--------------7-----------|8----------7---------------|
D|---------------------------|---------------------------|
A|---------------------------|---------------------------|
E|---------------------------|---------------------------|


  G
e|7----- ------ ------ ------|------ ------ ------ ------|
B|8--------------------------|---------------------------|
G|7--------------------------|---------------------------|
D|---------------------------|---------------------------|
A|---------------------------|---------------------------|
E|---------------------------|---------------------------|

e|------ ------ ------ ------|------ ------ ------ ------|
B|3--------------------------|---------------------------|
G|4--------------------------|---------------------------|
D|5--------------------------|---------------------------|
A|---------------------------|---------------------------|
E|3--------------------------|---------------------------|


        B  Bend
        R  Release
        /  slide up
        \  slide down
        H  hammer-on
        P  pull-off
        ~  vibrato
        +  harmonic
        x  Mute note
        . - play note like a dot in standard notation
        ^ - ties two notes together
        (. Pause

  ----------------------------------------------------------------------

  THE BEATLES - SAVOY TRUFFLE (Harrison) From the WHITE ALBUM. Released
                on November 22nd 1968

  ----------------------------------------------------------------------

  Tabbed by:PJVillanueva


  Creme tangerine and montelimat
  A ginger sling with a pineapple heart
  A coffee dessert  yes you know it's good news
  But you'll have to have them all pulled out
  After the Savoy truffle.

  Cool cherry cream, nice apple tart
  I feel your taste all the time we're apart
  Coconut fudge  really blows down those blues
  But you'll have to have them all pulled out
  After the Savoy truffle.

  You might not feel it now
  But when the pain cuts through
  You're going to know and how
  The sweat is going to fill your head
  When it becomes too much
  You'll shout aloud
  Creme tangerine.

  You know that what you eat you are,
  But what is sweet now, turns so sour--
  We all know Obla-Di-Bla-Da
  But can you show me, where you are?..

  Creme tangerine and montelimat
  A ginger sling with a pineapple heart
  A coffee dessert--yes you know its good news
  But you'll have to have them all pulled out
  After the Savoy truffle.

                                                x x   x x   x x

e|------- ------- ------- -------|------- ------- ------- -------|
B|-------------------------------|-------------------------------|
G|-------------------------------|-------------------------------|
D|-------------------------------|-------------------------------|
A|-------------------------------|-------------------------------|
E|-------------------------------|-------------------------------|

  E
e|------- ------- ------- -------|------- ------- ------- -------|
B|-------------------------------|-------------------------------|
G|1-------1-------1---1-------1--|--------1-------1---1----------|
D|2-------2-------2---2-------2--|--------2-------2---2----------|
A|2-------2-------2---2-------2--|--------2-------2---2----------|
E|0-------0-------0---0-------0--|--------0-------0---0----------|
                                                              Cream
e|------- ------- ------- -------|------- ------- ------- -------|
B|--------3---3-------3---3------|------------------0---0-0------|
G|--------1---1-------1---1------|3--2--0-----------0---0-0------|
D|2---------------------------2--|--------2---0-2----------------|
A|-------------------------------|-------------------------------|
E|-------------------------------|-------------------------------|

e|------- ------- ------- -------|------- ------- ------- -------|
B|-------------------------------|---------------------------------|
G|-------------------------------|----------------------------9B11-|
D|-------------------------------|---------------------------------|
A|-------------------------------|---------------------------------|
E|-------------------------------|---------------------------------|


e|------- ------- -------|------- ------- ------- -------|
B|-----------------------|-------------------------------|
G|-----------------------|-----------------1--1-------1--|
D|-----------------------|-----------------2--2-------2--|
A|-----------------------|-----------------2--2-------2--|
E|-----------------------|-----------------0--0-------0--|
              tangerine               and montelimat
e|------- ------- -------|------- ------- ------- -------|
B|-----------------------|-------------------------------|
G|------R-9---7----------|9------------------------------|
D|--------------------9--|-------------------------------|
A|-----------------------|-------------------------------|
E|-----------------------|-------------------------------|

                                                              F#
e|------- ------- ------- -------|------- ------- ------- -------|
B|-------------------------------|-------------------------------|
G|----------------1---1-------1--|--------1---1-------1-------3--|
D|----------------2---2-------2--|--------2---2-------2-------4--|
A|----------------2---2-------2--|--------2---2-------2-------4--|
E|----------------0---0-------0--|--------0---0-------0-------2--|

e|------- ------- ------- -------|------- ------- ------- -------|
B|--------5-------3--------------|--------3----------------------|
G|------------4------------------|------------4------------------|
D|2-------2-------0---6---5---2--|--------0-------5---6---2---3--|
A|------------2------------------|------------2------------------|
E|0-------------------4---3---0--|----------------3---4---0---1--|

                                                              A
e|------- ------- ------- -------|------- ------- ------- -------|
B|-------------------------------|-------------------------------|
G|--------3---3-------3-------3--|----3-------3-------3-------6--|
D|--------4---4-------4-------4--|----4-------4-------4-------7--|
A|--------4---4-------4-------4--|----4-------4-------4-------7--|
E|--------2---2-------2-------2--|----2-------2-------2-------5--|
              A   ginger      sling   with a pine......apple  heart
e|------- ------- ------- -------|------- ------- ------- -------|
B|--------5-------7---5----------|--------7---5------------------|
G|------------6-----------2------|-------------------------------|
D|4-------2-------4---2----------|4-------4---2---4---5---6---7--|
A|------------4-----------0------|-------------------------------|
E|2------------------------------|2---------------2---3---4---5--|


e|------- ------- ------- -------|------- ------- ------- -------|
B|-------------------------------|-------------------------------|
G|--------6-----------6-------6--|--------6---6-------6-------4--|
D|--------7-----------7-------7--|--------7---7-------7-------5--|
A|--------7-----------7-------7--|--------7---7-------7-------5--|
E|--------5-----------5-------5--|--------5---5-------5-------3--|

e|------- ------- ------- -------|------- 3------ ------- -------|
B|--------7---5------------------|------------5------------------|
G|----------------5---6-------2--|--------0-------5---6----------|
D|--------4---2-----------2------|------------2-----------7---6--|
A|----------------3---4-------0--|----------------3---4----------|
E|------------------------0------|------------------------5---4--|

              G                                               B
e|------- ------- ------- -------|------- ------- ------- -------|
B|-------------------------------|-------------------------------|
G|------------4-------4-------4--|----4-------4-------4-----/-8--|
D|------------5-------5-------5--|----5-------5-------5-----/-9--|
A|------------5-------5-------5--|----5-------5-------5-----/-9--|
E|------------3-------3-------3--|----3-------3-------3-----/-7--|
              A   coffee  dessert     yes you know   it's good news
e|------- ------- ------- -------|------- ------- ------- -------|
B|-------------------------------|-------------------------------|
G|----------------4---5---6---7--|-------------------------------|
D|5------------------------------|----------------5---7---8---9--|
A|----------------2---3---4---5--|-------------------------------|
E|3------------------------------|----------------3---5---6---7--|


e|------- ------- ------- -------|------- ------- ------- -------|
B|-------------------------------|-------------------------------|
G|----8-------8-------8-------8--|--------8-------8---8----------|
D|----9-------9-------9-------9--|--------9-------9---9----------|
A|----9-------9-------9-------9--|--------9-------9---9----------|
E|----7-------7-------7-------7--|--------7-------7---7----------|
                                                          But you'll
e|------- ------- ------- -------|------- ------- ------- -------|
B|-------10-------12-----10------|-----------10----------12------|
G|-----------11------11----------|-------------------------------|
D|--------7--------9------7---9--|------------7-----------9------|
A|------------9-------9----------|-------------------------------|
E|----------------------------7--|-------------------------------|

          Em              Em+5            Em6             Em+5
e|------- ------- ------- -------|------- ------- ------- -------|
B|--------8---------------8------|--------8---------------8------|
G|--------9---------------9------|--------9---------------9------|
D|--------9--------------10------|-------11--------------10------|
A|--------7---------------7------|--------7---------------7------|
E|-------------------------------|-------------------------------|
  have to have them all pulled out    after   the Savoy       truffle.
e|------- ------- ------- -------|------- ------- ------- -------|
B|-------------------------------|-------------------------------|
G|-------------------------------|-------------------------------|
D|2---2-----------2---2----------|2---2-----------2---2----------|
A|-------------------------------|-------------------------------|
E|0---0-----------0---0----------|0---0-----------0---0----------|

          C                       G5
e|------- ------- ------- 8--\---|------- ------- ------- -------|
B|--------8---------------8--\---|-------------------------------|
G|--------9---------------9--\---|-------------------------------|
D|-------10--------------10--\---|5---5---5---5------------------|
A|-------10--------------10--\---|5---5---5---5------------------|
E|--------8---------------8--\---|3---3---3---3------------------|

e|------- ------- ------- -------|------- ------- ------- -------|
B|-------------------------------|0---0---0---0------------------|
G|-------------------------------|0---0---0---0------------------|
D10------------------------------|--------0----------------------|
A|-------------------------------|----2--------------------------|
E|8------------------------------|3------------------------------|

  E
e|------- ------- ------- -------|------- ------- ------- -------|
B|-------------------------------|-------------------------------|
G|1-------1-------1---1-------1--|----1-------1-------1----------|
D|2-------2-------2---2-------2--|----2-------2-------2----------|
A|2-------2-------2---2-------2--|----2-------2-------2----------|
E|0-------0-------0---0-------0--|----0-------0-------0----------|
                                                              Cool
e|------- ------- ------- ------5/6---5-- ------- ------- -------|
B|--------3---3-------3---3------|--------8---5------------------|
G|--------1---1-------1---1-----7|----------------7---4----------|
D|2------------------------------|------------------------7---5--|
A|-------------------------------|-------------------------------|
E|-------------------------------|-------------------------------|

e|------- ------- ------- -------|------- ------- ------- -------|
B|-------------------------------|---------------------------------|
G|-------------------------------|----------------------------9B11-|
D|-------------------------------|---------------------------------|
A|-------------------------------|---------------------------------|
E|-------------------------------|---------------------------------|


e|------- ------- -------|------- ------- ------- -------|
B|-----------------------|-------------------------------|
G|-----------------------|----------------1---1-------1--|
D|-----------------------|----------------2---2-------2--|   ritmo
A|-----------------------|----------------2---2-------2--|
E|-----------------------|----------------0---0-------0--|
              cherry      cream,          nice apple  tart
e|------- ------- -------|------- ------- ------- -------|
B|-----------------------|-------------------------------|
G|------R-9---7----------|9------------------------------|
D|--------------------9--|-------------------------------|
A|-----------------------|-------------------------------|
E|-----------------------|-------------------------------|

                                                              F#
e|------- ------- ------- -------|------- ------- ------- -------|
B|-------------------------------|-------------------------------|
G|--------1-------1---1-------1--|------------1-------1-------3--|
D|--------2-------2---2-------2--|------------2-------2-------4--|
A|--------2-------2---2-------2--|------------2-------2-------4--|
E|--------0-------0---0-------0--|------------0-------0-------2--|

e|------- ------- ------- -------|------- ------- ------- -------|
B|--------5-------3--------------|--------3----------------------|
G|------------4------------------|------------4------------------|
D|2-------2-------0---6---5---2--|--------0-------5---6---2---3--|
A|------------2------------------|------------2------------------|
E|0-------------------4---3---0--|----------------3---4---0---1--|

                                                              A
e|------- ------- ------- -------|------- ------- ------- -------|
B|-------------------------------|-------------------------------|
G|----3-------3---3---3-------3--|----3-------3-------3-------6--|
D|----4-------4---4---4-------4--|----4-------4-------4-------7--|
A|----4-------4---4---4-------4--|----4-------4-------4-------7--|
E|----2-------2---2---2-------2--|----2-------2-------2-------5--|
              I   feel your   taste   all the time    we're apart
e|------- ------- ------- -------|------- ------- ------- -------|
B|--------5-------7---5----------|--------7---5------------------|
G|------------6-----------2------|-------------------------------|
D|4-------2-------4---2----------|4-------4---2---4---5---6---7--|
A|------------4-----------0------|-------------------------------|
E|2------------------------------|2---------------2---3---4---5--|

                                                              G
e|------- ------- ------- -------|------- ------- ------- -------|
B|-------------------------------|-------------------------------|
G|--------6-------6---6---6---6--|--------6---6-------6-------4--|
D|--------7-------7---7---7---7--|--------7---7-------7-------5--|
A|--------7-------7---7---7---7--|--------7---7-------7-------5--|
E|--------5-------5---5---5---5--|--------5---5-------5-------3--|

e|------- ------- ------- -------|------- 3------ ------- -------|
B|--------7---5------------------|------------5------------------|
G|----------------5---6-------2--|--------0-------5---6----------|
D|--------4---2-----------2------|------------2-----------7---6--|
A|----------------3---4-------0--|----------------3---4----------|
E|------------------------0------|------------------------5---4--|

                                                              B
e|------- ------- ------- -------|------- ------- ------- -------|
B|-------------------------------|-------------------------------|
G|--------4---4-------4-------4--|----4-------4-------4-------8--|
D|--------5---5-------5-------5--|----5-------5-------5-------9--|
A|--------5---5-------5-------5--|----5-------5-------5-------9--|
E|--------3---3-------3-------3--|----3-------3-------3-------7--|
                  Coconut     fudge   really  blows down those blues
e|------- ------- ------- -------|------- ------- ------- -------|
B|-------------------------------|-------------------------------|
G|----------------4---5---6---7--|-------------------------------|
D|5------------------------------|----------------5---7---8---9--|
A|----------------2---3---4---5--|-------------------------------|
E|3------------------------------|----------------3---5---6---7--|


e|------- ------- ------- -------|------- ------- ------- -------|
B|-------------------------------|-------------------------------|
G|--------8-------x---8-------8--|--------8-------x---8---8---\--|
D|--------9-------x---9-------9--|--------9-------x---9---9---\--|
A|--------9-------x---9-------9--|--------9-------x---9---9---\--|
E|--------7-------x---7-------7--|--------7-------x---7---7---\--|
                                                          But you'll
e|------- ------- ------- -------|------- ------- ------- -------|
B|-------10-------12-----10------|-----------10----------12------|
G|-----------11------11----------|-------------------------------|
D|--------7--------9------7---9--|------------7-----------9------|
A|------------9-------9----------|-------------------------------|
E|----------------------------7--|-------------------------------|

          Em              Em+5            Em6             Em+5
e|------- ------- ------- -------|------- ------- ------- -------|
B|--------8---------------8------|--------8---------------8------|
G|--------9---------------9------|--------9---------------9------|
D|--------9--------------10------|-------11--------------10------|
A|--------7---------------7------|--------7---------------7------|
E|-------------------------------|-------------------------------|
  have to have them all pulled out   After   the  Savoy       truffle.
e|------- ------- ------- -------|------- ------- ------- -------|
B|-------------------------------|-------------------------------|
G|-------------------------------|-------------------------------|
D|2---2-----------2---2----------|2---2-----------2---2----------|
A|-------------------------------|-------------------------------|
E|0---0-----------0---0----------|0---0-----------0---0----------|

e|------- 12----- ------- 12-----|------- 12----- ------- 12-----|
B|--------15B17-----------15B17--|--------15B17-----------15B17--|
G|-------------------------------|-------------------------------|
D|-------------------------------|-------------------------------|
A|-------------------------------|-------------------------------|
E|-------------------------------|-------------------------------|

          C                       G5
e|------- 8------ ------- 8--\---|------- ------- ------- -------|
B|--------8---------------8--\---|-------------------------------|
G|--------9---------------9--\---|-------------------------------|
D|-------10--------------10--\---|5---5---5---5------------------|
A|-------10--------------10--\---|5---5---5---5------------------|
E|--------8---------------8--\---|3---3---3---3------------------|

e|------- ------- ------- -------|------- ------- ------- -------|
B|-------------------------------|0---0---0---0------------------|
G|-------------------------------|0---0---0---0------------------|
D10------------------------------|--------0----------------------|
A|-------------------------------|----2--------------------------|
E|8------------------------------|3------------------------------|

e|12----- ------- ------- -------|------- ------- ------- -------|
B|15B17--------------------------|-------------------------------|
G|-------------------------------|-------------------------------|
D|-------------------------------|-------------------------------|
A|-------------------------------|-------------------------------|
E|-------------------------------|-------------------------------|

Middle eight

          Em                              A
e|------- 4------ ------- 4------|------- 5------ ------- 5------|
B|--------5---------------5------|--------5---------------5------|
G|--------6---------------6------|--------6---------------6------|
D|--------6---------------6------|--------7---------------7------|
A|--------7---------------7------|--------7---------------7------|
E|-------------------------------|--------5---------------5------|
      You might not feel it   now                     But when the
e|12----- ------- ------- -------|-9----- ------- ------- -------|
B|12-----------------------------|10-----------------------------|
G|12-----------------------------|-9-----------------------------|
D|-------------------------------|-------------------------------|
A|-------------------------------|-------------------------------|
E|-------------------------------|-------------------------------|

  A7sus4      A7                  G           B
e|5------ ----5-- ------- -------|------- ------- ------- -------|
B|5-----------5------------------|-------------------------------|
G|7-----------6------------------|4-------/---8------------------|
D|5-----------5------------------|5-------/---9------------------|
A|7-----------7------------------|5-------/---9------------------|
E|5-----------5------------------|3-------/---7------------------|
  pain cuts through You're going to know and how                The
e|10----- ----9-- ------- -------|7------ ----7-- ------- -------|
B|10---------10------------------|8-----------7------------------|
G|-9----------9------------------|7-----------8------------------|
D|-------------------------------|-------------------------------|
A|-------------------------------|-------------------------------|
E|-------------------------------|-------------------------------|

e|------- ------- ------- -------|3------ ------- ------- -------|
B|-------------------------------|3-----------7------------------|
G|7-----------6------------------|4-----------8------------------|
D|5-----------7------------------|------------9------------------|
A|-------------------------------|-------------------------------|
E|5-----------5------------------|3-----------7------------------|

          Em                              A
e|------- 4------ ------- 4------|------- 5------ ------- 5------|
B|--------5---------------5------|--------5---------------5------|
G|--------6---------------6------|--------6---------------6------|
D|--------6---------------6------|--------7---------------7------|
A|--------7---------------7------|--------7---------------7------|
E|-------------------------------|--------5---------------5------|
  sweat is going to fill your head                    When it be..
e|12----- ------- ------- -------|-9----- ------- ------- -------|
B|12-----------------------------|10-----------------------------|
G|12-----------------------------|-9-----------------------------|
D|-------------------------------|-------------------------------|
A|-------------------------------|-------------------------------|
E|-------------------------------|-------------------------------|

  A7sus4      A                   G           B
e|5------ ----5-- ------- -------|------- ------- ------- -------|
B|5-----------5------------------|-------------------------------|
G|7-----------6------------------|4-------/---8------------------|
D|5-----------5------------------|5-------/---9------------------|
A|7-----------7------------------|5-------/---9------------------|
E|5-----------5------------------|3-------/---7------------------|
  comes too  much         You'll  shout aloud
e|10----- ----9-- ------- -------|7------ ----7-- ------- -------|
B|10---------10------------------|8-----------7------------------|
G|-9----------9------------------|7-----------8------------------|
D|-------------------------------|-------------------------------|
A|-------------------------------|-------------------------------|
E|-------------------------------|-------------------------------|

e|------- ------- ------- -------|3------ ------- ------- -------|
B|-------------------------------|3-----------7------------------|
G|7-----------6------------------|4-----------8------------------|
D|5-----------7------------------|------------9------------------|
A|-------------------------------|-------------------------------|
E|5-----------5------------------|3-----------7------------------|

Solo

  E5                  E                               E7
e|------- ------- ------- -------|------- ------- ------- -------|
B|-------------------------------|--------------------3-------3--|
G|--------------------1-------1--|--------------------1-------1--|
D|2-------2-------2---2-------2--|--------------------2-------2--|
A|2-------2-------2---2-------2--|--------------------2-------2--|
E|0-------0-------0---0-------0--|--------------------0-------0--|

e|------- ------- ------- -------|------- ------- ------- -------|
B|-------------------------------|----------------9---10--11--12-|
G|9-B-11------9B11----7----------|9------------------------------|
D|-------------------------------|-------------------------------|
A|-------------------------------|-------------------------------|
E|-------------------------------|-------------------------------|

                                                              F#
e|------- ------- ------- -------|------- ------- ------- -------|
B|-------------------------------|-------------------------------|
G|--------------------1-------1--|--------1-----------1-------3--|
D|--------------------2-------2--|--------2-----------2-------4--|
A|--------------------2-------2--|--------2-----------2-------4--|
E|--------------------0-------0--|--------0-----------0-------2--|

e|------- ------- ------- -------|------- ------- ------- -------|
B|-------------------------------|-------------------------------|
G|-------------------------------|-------------------------------|
D|-------------------------------|-------------------------------|
A|-------------------------------|-------------------------------|
E|-------------------------------|-------------------------------|

e|------- ------- ------- -------|------- ------- ------- -------|
B|--------5---3------------------|----3--------------------------|
G|----------------4---2----------|------------4---2--------------|
D|--------2---0-----------5---2--|----0---------------5---2---3--|
A|----------------2---0----------|------------2---0--------------|
E|------------------------3---0--|--------------------3---0---1--|

                                                              A
e|------- ------- ------- -------|------- ------- ------- -------|
B|-------------------------------|-------------------------------|
G|3-------3-----------3-------3--|----3---3---3-------3---3---6--|
D|4-------4-----------4-------4--|----4---4---4-------4---4---7--|
A|4-------4-----------4-------4--|----4---4---4-------4---4---7--|
E|2-------2-----------2-------2--|----2---2---2-------2---2---5--|

e|------- ------- ------- -------|------- ------- ----6-- 7---8--|
B|-------------------------------|----------------------7---8---9|
G|-------------------------------|-------------------------------|
D|11R9--------11R9--------11R9---|7B8----------------------------|
A|-------------------------------|----9--------------------------|
E|-------------------------------|-------------------------------|

e|------- ------- ------- -------|------- ------- ------- -------|
B|-------------------------------|-------------------------------|
G|-------------------------------|-------------------------------|
D|4------------------------------|-------------------------------|
A|-------------------------------|-------------------------------|
E|2------------------------------|-------------------------------|


e|------- ------- ------- -------|------- ------- ------- -------|
B|-------------------------------|-------------------------------|
G|--------6-----------6-------6--|----6-------6-------6---6---6--|
D|--------7-----------7-------7--|----7-------7-------7---7---7--|
A|--------7-----------7-------7--|----7-------7-------7---7---7--|
E|--------5-----------5-------5--|----5-------5-------5---5---5--|

e|------- ------- ------- -------|------- ------- ------- -------|
B|-------------------------------|-------------------------------|
G|-------------------------------|-------------------------------|
D|-------------------------------|-------------------------------|
A|-------------------------------|-------------------------------|
E|-------------------------------|-------------------------------|

e|------- 5---3-- ------- -------|------- ------- ------- -------|
B|----------------5---3----------|------------5---3--------------|
G|--------2---0-----------5---2--|--------------------5----------|
D|----------------2---0----------|----5-------2---0-------7---6--|
A|------------------------3---0--|--------------------3----------|
E|-------------------------------|----3-------------------5---4--|

  G                                                           B
e|------- ------- ------- -------|------- ------- ------- -------|
B|-------------------------------|-------------------------------|
G|4-----------4-------4-------4--|----4-------4-------4---4-/-8--|
D|5-----------5-------5-------5--|----5-------5-------5---5-/-9--|
A|5-----------5-------5-------5--|----5-------5-------5---5-/-9--|
E|3-----------3-------3-------3--|----3-------3-------3---3-/-7--|

e|------- ------- ------- -------|------- ------- 7---9-- 10--11-|
B|----------------12--13--1413B15|--R-------------9--10---11--12-|
G|------------12-----------------|----12-------------------------|
D|-------------------------------|-------------------------------|
A|-------------------------------|-------------------------------|
E|-------------------------------|-------------------------------|

e|------- ------- ------- -------|------- ------- ------- -------|
B|-------------------------------|-------------------------------|
G|-------------------------------|-------------------------------|
D|5------------------------------|-------------------------------|
A|-------------------------------|-------------------------------|
E|3------------------------------|-------------------------------|


e|------- ------- ------- -------|------- ------- ------- -------|
B|-------------------------------|-------------------------------|
G|--------8---8-------8-------8--|----8-------8-------8---8---8--|
D|--------9---9-------9-------9--|----9-------9-------9---9---9--|
A|--------9---9-------9-------9--|----9-------9-------9---9---9--|
E|--------7---7-------7-------7--|----7-------7-------7---7---7--|
                                                          But you'll
e|------- ------- ------- -------|------- ------- ------- -------|
B|-------------------------------|------------12-----------------|
G|-------------------------------|------------15B17--------------|
D|-------------------------------|-------------------------------|
A|-------------------------------|-------------------------------|
E|-------------------------------|-------------------------------|

e|------- 7---5-- ------- -------|------- ------- ------- -------|
B|----------------7---5----------|-------------------------------|
G|--------4---2-----------7---8--|-------------------------------|
D|----------------4---2----------|9---7---8---9---4---3---2---1--|
A|------------------------5---6--|----------------------------2--|
E|-------------------------------|7---5---6---7---2---1---0------|

          Em              Em+5            Em6             Em+5
e|------- ------- ------- -------|------- ------- ------- -------|
B|--------8---------------8------|--------8---------------8------|
G|--------9---------------9------|--------9---------------9------|
D|--------9--------------10------|-------11--------------10------|
A|--------7---------------7------|--------7---------------7------|
E|-------------------------------|-------------------------------|
  have to have them all pulled out    after   the Savoy       truffle
e|------- ------- ------- -------|------- ------- ------- -------|
B|-------------------------------|-------------------------------|
G|-------------------------------|-------------------------------|
D|2---2-----------2---2----------|2---2-----------2---2----------|
A|-------------------------------|-------------------------------|
E|0---0-----------0---0----------|0---0-----------0---0----------|

          C                       G5
e|------- 8------ ------- 8--\---|------- ------- ------- -------|
B|--------8---------------8--\---|-------------------------------|
G|--------9---------------9--\---|-------------------------------|
D|-------10--------------10--\---|5---5---5---5------------------|
A|-------10--------------10--\---|5---5---5---5------------------|
E|--------8---------------8--\---|3---3---3---3------------------|
                                                              You
e|------- ------- ------- -------|------- ----3-- ------- -------|
B|-------------------------------|--------3----------------------|
G|-------------------------------|----4-------0------------------|
D10------------------------------|5-------0----------------------|
A|-------------------------------|----2--------------------------|
E|8------------------------------|3------------------------------|


Middle eight

          Em                              A
e|------- 4------ ------- 4------|------- 5------ ------- 5------|
B|--------5---------------5------|--------5---------------5------|
G|--------6---------------6------|--------6---------------6------|
D|--------6---------------6------|--------7---------------7------|
A|--------7---------------7------|--------7---------------7------|
E|-------------------------------|--------5---------------5------|
 know that what you eat you   are                      But what is
e|12----- ------- ------- -------|-9----- ------- ------- -------|
B|12-----------------------------|10-----------------------------|
G|12-----------------------------|-9-----------------------------|
D|-------------------------------|-------------------------------|
A|-------------------------------|-------------------------------|
E|-------------------------------|-------------------------------|

  A7sus4      A7                  G           B
e|5------ ----5-- ------- -------|------- ------- ------- -------|
B|5-----------5------------------|-------------------------------|
G|7-----------6------------------|4-------/---8------------------|
D|5-----------5------------------|5-------/---9------------------|
A|7-----------7------------------|5-------/---9------------------|
E|5-----------5------------------|3-------/---7------------------|
  sweet       now,           turns so         sour            We
e|10----- ----9-- ------- -------|7------ ----7-- ------- -------|
B|10---------10------------------|8-----------7------------------|
G|-9----------9------------------|7-----------8------------------|
D|-------------------------------|-------------------------------|
A|-------------------------------|-------------------------------|
E|-------------------------------|-------------------------------|

e|------- ------- ------- -------|------- ------- ------- -------|
B|-------------------------------|3------------------------------|
G|7-----------6------------------|4-----------8------------------|
D|7-----------7------------------|5-----------9------------------|
A|-------------------------------|------------9------------------|
E|5-----------5------------------|3-----------7------------------|

          Em                              A
e|------- 4------ ------- 4------|------- 5------ ------- 5------|
B|--------5---------------5------|--------5---------------5------|
G|--------6---------------6------|--------6---------------6------|
D|--------6---------------6------|--------7---------------7------|
A|--------7---------------7------|--------7---------------7------|
E|-------------------------------|--------5---------------5------|
  all know Obla - Di-Bla   -  Da                      But can you
e|12----- ------- ------- -------|-9----- ------- ------- -------|
B|12-----------------------------|10-----------------------------|
G|12-----------------------------|-9-----------------------------|
D|-------------------------------|-------------------------------|
A|-------------------------------|-------------------------------|
E|-------------------------------|-------------------------------|

  A7sus4      A                   G           B
e|5------ ----5-- ------- -------|------- ------- ------- -------|
B|5-----------5------------------|-------------------------------|
G|7-----------6------------------|4-------/---8------------------|
D|5-----------5------------------|5-------/---9------------------|
A|7-----------7------------------|5-------/---9------------------|
E|5-----------5------------------|3-------/---7------------------|
  show        me,            where you        are?..
e|10----- ----9-- ------- -------|7------ ----7-- ------- -------|
B|10---------10------------------|8-----------7------------------|
G|-9----------9------------------|7-----------8------------------|
D|-------------------------------|-------------------------------|
A|-------------------------------|-------------------------------|
E|-------------------------------|-------------------------------|

e|------- ------- ------- -------|3------ ------- ------- -------|
B|-------------------------------|3-----------7------------------|
G|7-----------6------------------|4-----------8------------------|
D|5-----------7------------------|------------9------------------|
A|-------------------------------|-------------------------------|
E|5-----------5------------------|3-----------7------------------|


  E7
e|------- ------- ------- -------|------- ------- ------- -------|
B|3-------3---3---3---3-------3--|----3-------3-------3-------3--|
G|1-------1---1---1---1-------1--|----1-------1-------1-------1--|
D|2-------2---2---2---2-------2--|----2-------2-------2-------2--|
A|2-------2---2---2---2-------2--|----2-------2-------2-------2--|
E|0-------0---0---0---0-------0--|----0-------0-------0-------0--|
  Creme       tangerine                       and  montelimat

                                                              F#
e|------- ------- ------- -------|------- ------- ------- -------|
B|----3-------3---3---3-------3--|----3-------3-------3----------|
G|----1-------1---1---1-------1--|----1-------1-------1-------3--|
D|----2-------2---2---2-------2--|----2-------2-------2-------4--|
A|----2-------2---2---2-------2--|----2-------2-------2-------4--|
E|----0-------0---0---0-------0--|----0-------0-------0-------2--|

e|------- ------- ------- -------|------- ------- ------- -------|
B|--------5-------3--------------|--------3----------------------|
G|------------4-------4----------|------------4------------------|
D|2-------2-------0-------5---2--|--------0-------5---6---2---3--|
A|------------2-------2----------|------------2------------------|
E|0-----------------------3---0--|----------------3---4---0---1--|


                                                              A
e|------- ------- ------- -------|------- ------- ------- -------|
B|-------------------------------|-------------------------------|
G|----3-------3-------3-------3--|----3--------3------3-------6--|
D|----4-------4-------4-------4--|----4--------4------4-------7--|
A|----4-------4-------4-------4--|----4--------4------4-------7--|
E|----2-------2-------2-------2--|----2--------2------2-------5--|
              A   ginger      sling   with a pine......apple  heart
e|------- ------- ------- -------|------- ------- ------- -------|
B|--------5-------7---5----------|--------7---5------------------|
G|------------6-----------2------|-------------------------------|
D|4-------2-------4---2----------|4-------4---2---4---5---6---7--|
A|------------4-----------0------|-------------------------------|
E|2------------------------------|2---------------2---3---4---5--|

                                                              G
e|------- ------- ------- -------|------- ------- ------- -------|
B|-------------------------------|-------------------------------|
G|--------6-------6---6-------6--|--------6-------6---6-------4--|
D|--------7-------7---7-------7--|--------7-------7---7-------5--|
A|--------7-------7---7-------7--|--------7-------7---7-------5--|
E|--------5-------5---5-------5--|--------5-------5---5-------3--|

e|------- ------- ------- -------|------- 3------ ------- -------|
B|--------7---5------------------|------------5------------------|
G|----------------5---6-------2--|--------0-------5---6----------|
D|--------4---2-----------2------|------------2-----------7---6--|
A|----------------3---4-------0--|----------------3---4----------|
E|------------------------0------|------------------------5---4--|

                                                              B
e|------- ------- ------- -------|------- ------- ------- -------|
B|-------------------------------|-------------------------------|
G|--------4---4-------4-------4--|----4---4---4---4-----------8--|
D|--------5---5-------5-------5--|----5---5---5---5-----------9--|
A|--------5---5-------5-------5--|----5---5---5---5-----------9--|
E|--------3---3-------3-------3--|----3---3---3---3-----------7--|
              A   coffee  dessert     yes you know   it's good news
e|------- ------- ------- -------|------- ------- ------- -------|
B|-------------------------------|-------------------------------|
G|----------------4---5---6---7--|-------------------------------|
D|5------------------------------|----------------5---7---8---9--|
A|----------------2---3---4---5--|-------------------------------|
E|3------------------------------|----------------3---5---6---7--|


e|------- ------- ------- -------|------- ------- ------- -------|
B|-------------------------------|-------------------------------|
G|--------8-------8---8-------8--|--------8-------8---8---8------|
D|--------9-------9---9-------9--|--------9-------9---9---9------|
A|--------9-------9---9-------9--|--------9-------9---9---9------|
E|--------7-------7---7-------7--|--------7-------7---7---7------|
                                                          But you'll
e|------- ------- ------- -------|------- ------- ------- -------|
B|-------10-------12-----10------|-----------10----------12------|
G|-----------11------11----------|-------------------------------|
D|--------7--------9------7---9--|------------7-----------9------|
A|------------9-------9----------|-------------------------------|
E|----------------------------7--|-------------------------------|

          Em              Em+5            Em6             Em+5
e|------- ------- ------- -------|------- ------- ------- -------|
B|--------8---------------8------|--------8---------------8------|
G|--------9---------------9------|--------9---------------9------|
D|--------9--------------10------|-------11--------------10------|
A|--------7---------------7------|--------7---------------7------|
E|-------------------------------|-------------------------------|
  have to have them all pulled out    after   the Savoy       truffle.
e|------- ------- ------- -------|------- ------- ------- -------|
B|-------------------------------|-------------------------------|
G|-------------------------------|-------------------------------|
D|2---2-----------2---2----------|2---2-----------2---2----------|
A|-------------------------------|-------------------------------|
E|0---0-----------0---0----------|0---0-----------0---0----------|

          C                       G5
e|------- 8------ ------- 8--\---|------- ------- ------- -------|
B|--------8---------------8--\---|-------------------------------|
G|--------9---------------9--\---|-------------------------------|
D|-------10--------------10--\---|5---5---5---5------------------|
A|-------10--------------10--\---|5---5---5---5------------------|
E|--------8---------------8--\---|3---3---3---3------------------|
                                                          Yes, you'll
e|------- ------- ------- -------|------- ----3-- ------- -------|
B|-------------------------------|--------3----------------------|
G|-------------------------------|----4-------0------------------|
D10------------------------------|5-------0----------------------|
A|-------------------------------|----2--------------------------|
E|8------------------------------|3------------------------------|


          Em              Em+5            Em6             Em+5
e|------- ------- ------- -------|------- ------- ------- -------|
B|--------8---------------8------|--------8---------------8------|
G|--------9---------------9------|--------9---------------9------|
D|--------9--------------10------|-------11--------------10------|
A|--------7---------------7------|--------7---------------7------|
E|-------------------------------|-------------------------------|
  have to have them all pulled out    after   the Savoy       truffle.
e|------- ------- ------- -------|------- ------- ------- -------|
B|-------------------------------|-------------------------------|
G|-------------------------------|-------------------------------|
D|2---2-----------2---2----------|2---2-----------2---2----------|
A|-------------------------------|-------------------------------|
E|0---0-----------0---0----------|0---0-----------0---0----------|

          C                       G
e|------- 8------ ------- 8--\---|------- ------- ------- -------|
B|--------8---------------8--\---|-------------------------------|
G|--------9---------------9--\---|4---4---4---4------------------|
D|-------10--------------10--\---|5---5---5---5------------------|
A|-------10--------------10--\---|5---5---5---5------------------|
E|--------8---------------8--\---|3---3---3---3------------------|

e|------- ------- ------- -------|------- ----3-- ------- -------|
B|-------------------------------|--------3----------------------|
G|-------------------------------|----4-------0------------------|
D10------------------------------|5-------0----------------------|
A|-------------------------------|----2--------------------------|
E|8------------------------------|3------------------------------|



        B  Bend
        R  Release
        /  slide up
        \  slide down
        H  hammer-on
        P  pull-off
        ~  vibrato
        +  harmonic
        x  Mute note
        . - play note like a dot in standard notation
        ^ - ties two notes together
        (. Pause

  ----------------------------------------------------------------

  THE BEATLES - CRY, BABY, CRY (Lennon & McCartney) From the WHITE
                ALBUM. Released on November, 22nd  1968.

  ----------------------------------------------------------------

  Tabbed by:PJVillanueva


  Cry baby cry
  Make your mother sigh
  She's old enough to know better.
  So cry baby cry

  The King of Marigold was in the kitchen
  Cooking breakfast for the Queen
  The Queen was in the parlor
  Playing piano for the children of the King.

  Cry baby cry
  Make your mother sigh
  She's old enough to know better.
  So cry baby cry.

  The King was in the garden
  Picking flowers for a friend who came to play
  The Queen was in the playroom
  Painting pictures for the children's holiday.

  Cry baby cry
  Make your mother sigh
  She's old enough to know better.
  So cry baby cry.

  The dutchess of Kircaldy always smiling
  And arriving late for tea
  The duke was having problems
  With a message at the local bird and bee.

  Cry baby cry
  Make your mother sigh
  She's old enough to know better.
  So cry baby cry.

  At twelve o'clock a meeting round the table
  For a seance in the dark
  With voices out of nowhere
  Put on specially by the children for a lark.

  Cry baby cry
  Make your mother sigh
  She's old enough to know better.
  So cry baby cry cry cry cry baby
  Make your mother sigh.

  She's old enough to know better
  Cry baby cry
  Cry cry cry
  Make your mother sigh
  She's old enough to know better.
  So cry baby cry.

  G                               Am
e|3------ 3---3-- 3---3-- 3------|0------ 0------ 0------ 0------|
B|3-------3---3---3---3---3------|1-------1-------1-------0------|
G|0-------0---0---0---0---0------|2-------2-------2-------0------|
D|0-------0---0---0---0---0------|2-------2-------2-------0------|
A|2-------2---2---2---2---2------|0-------0-------0--------------|
E|3-------3---3---3---3---3------|-------------------------------|
  Cry         baby        cry

  F                               G
e|1------ 1---1-- 1------ 1------|3---3-- 3------ 3------ 3---3--|
B|1-------1---1---1-------1------|3---3---3-------3-------3---3--|
G|2-------2---2---2-------2------|0---0---0-------0-------0---0--|
D|3-------3---3---3-------3------|0---0---0-------0-------0---0--|
A|3-------3---3---3-------3------|2---2---2-------2-------2---2--|
E|1-------1---1---1-------1------|3---3---3-------3-------3---3--|
          Make your mother sigh                               She's
e|------- ------- ------- -------|------- ------- ------- -------|
B|-------------------------------|-------------------------------|
G|-------------------------------|----------------4-------4---7--|
D|-------------------------------|--------5---7-------5----------|
A|-------------------------------|-------------------------------|
E|-------------------------------|-------------------------------|

  Em                              A
e|0------ 0------ 0------ 0---0--|0------ 0------ 0---0-- 0------|
B|0-------0-------0-------0---0--|2-------2-------2---2---2------|
G|0-------0-------0-------0---0--|2-------2-------2---2---2------|
D|2-------2-------2-------2---2--|2-------2-------2---2---2------|
A|2-------2-------2-------2---2--|0-------0-------0---0---0------|
E|0-------0-------0-------0---0--|-------------------------------|
  old     enough      to  know    better.
e|------- ------- ------- -------|------- ------- ------- -------|
B|5---7---8---7---5--------------|----------------5--------------|
G|--------------------7---4------|----4---6---7-------7---6---4--|
D|----------------------------5--|7------------------------------|
A|-------------------------------|-------------------------------|
E|-------------------------------|-------------------------------|

  F
e|1------ 1------ 1------ 1------|
B|1-------1-------1-------1------|
G|2-------2-------2-------2------|
D|3-------3-------3-------3------|
A|3-------3-------3-------3------|
E|1-------1-------1-------1------|
                              The
e|------- ------- ------- -------|
B|-------------------------------|
G|-------------------------------|
D|7-----------------------7------|
A|--------8------10--------------|
E|-------------------------------|

  Em                              EmMaj7
e|0------ 0------ 0------ 0------|0------ 0------ 0------ 0------|
B|0-------0-------0-------0------|0-------0-------0-------0------|
G|0-------0-------0-------0------|0-------0-------0-------0------|
D|2-------2-------2-------2------|1-------1-------1-------1------|
A|2-------2-------2-------2------|2-------2-------2-------2------|
E|0-------0-------0-------0------|0-------0-------0-------0------|
  King    of      Marigold                was     in      the kit..
e|------- ------- ------- -------|------- ------- ------- -------|
B|-------------------------------|-------------------------------|
G|-------------------------------|-------------------------------|
D|-9-----------------------------|-------------------------------|
A|10-----------------------------|-------------------------------|
E|12-----------------------------|-------------------------------|


  Em7                             Em6
e|0------ 0------ 0------ 0------|0------ 0------ 0------ 0------|
B|0-------0-------0-------0------|0-------0-------0-------0------|
G|0-------0-------0-------0------|0-------0-------0-------0------|
D|0-------0-------0-------0------|-------------------------------|
A|2-------2-------2-------2------|4-------4-------4-------4------|
E|0-------0-------0-------0------|0-------0-------0-------0------|
  ........chen    Cooking     breakfast           for     the Queen

  C                               G
e|0------ 0------ 0------ 0---0--|3------ ------- ------- 3---3--|
B|1-------1-------1-------1---1--|3-----------------------3---3--|
G|0-------0-------0-------0---0--|0-----------------------0---0--|
D|2-------2-------2-------2---2--|0-----------------------0---0--|
A|3-------3-------3-------3---3--|2-----------------------2---2--|
E|3-------3-------3-------3---3--|3-----------------------3---3--|
                                                              The
e|------- ------- ------- -------|------- ------- ------- -------|
B|-------------------------------|0---------------0--------------|
G|0---------------3-------0------|0-------0-------0-------0------|
D|2---------------2--------------|0---------------0--------------|
A|--------3----------------------|-------------------------------|
E|-------------------------------|3------------------------------|


  Em                              EmMaj7
e|0------ 0------ 0------ 0------|0------ 0------ 0------ 0------|
B|0-------0-------0-------0------|0-------0-------0-------0------|
G|0-------0-------0-------0------|0-------0-------0-------0------|
D|2-------2-------2-------2------|1-------1-------1-------1------|
A|2-------2-------2-------2------|2-------2-------2-------2------|
E|0-------0-------0-------0------|0-------0-------0-------0------|
  Queen   was     in      the parlor               Playing    piano

  Em7                             Em6
e|0------ 0------ 0------ 0------|0------ 0---0-- 0------ 0------|
B|0-------0-------0-------0------|0-------0---0---0-------0------|
G|0-------0-------0-------0------|0-------0---0---0-------0------|
D|0-------0-------0-------0------|-------------------------------|
A|2-------2-------2-------2------|4-------4---4---4-------4------|
E|0-------0-------0-------0------|0-------0---0---0-------0------|
                  for     the children            of      the King.

  C
e|0------ 0------ 0------ -------|
B|1-------1-------1--------------|
G|0-------0-------0--------------|
D|2-------2-------2--------------|
A|3-------3-------3--------------|
E|3-------3-------3--------------|


  G                               Am
e|3------ ------- 3------ -------|0------ 0------ 0------ 0------|
B|3---------------3--------------|1-------1-------1-------1------|
G|0---------------0--------------|2-------2-------2-------2------|
D|0---------------0--------------|2-------2-------2-------2------|
A|2---------------2--------------|0-------0-------0-------0------|
E|3---------------3--------------|-------------------------------|
  Cry         baby            cry
e|------- ------- ------- -------|------- ------- ------- -------|
B|0---------------0--------------|1---------------1--------------|
G|0-------0-------0-------0------|2-------2-------2-------2---0--|
D|0---------------0--------------|2---------------2--------------|
A|-------------------------------|0---------------0--------------|
E|3---------------3--------------|-------------------------------|


  F                               G
e|1------ ------- 1------ 1------|3------ ------- 3------ 3------|
B|1---------------1-------1------|3---------------3-------3------|
G|2---------------2-------2------|0---------------0-------0------|
D|3---------------3-------3------|0---------------0-------0------|
A|3---------------3-------3------|2---------------2-------2------|
E|1---------------1-------1------|3---------------3-------3------|
          Make your mother sigh                               She's
e|------- ------- ------- -------|------- ------- ------- -------|
B|1---------------1--------------|0---------------0--------------|
G|2---------------0-------2------|0-------0-------0-------0------|
D|3---------------3--------------|0---------------0--------------|
A|-------------------------------|-------------------------------|
E|-------------------------------|3---------------3-------3---1--|

  Em                              A
e|0------ 0------ 0------ 0------|0------ 0------ 0------ 0------|
B|0-------0-------0-------0------|2-------2-------2-------2------|
G|0-------0-------0-------0------|2-------2-------2-------2------|
D|2-------2-------2-------2------|2-------2-------2-------2------|
A|2-------2-------2-------2------|0-------0-------0-------0------|
E|0-------0-------0-------0------|-------------------------------|
  old     enough      to  know    better                      so
e|0------ ------- ------- -------|------- ------- ------- -------|
B|0---------------0--------------|2---------------2--------------|
G|0-------0-------0-------0------|2-------2-------2-------2---0--|
D|2---------------2--------------|2---------------2--------------|
A|2---------------2--------------|0---------------0--------------|
E|0---------------0--------------|-------------------------------|

  F                               G
e|1------ 1------ 1------ -------|3------ 3------ 3------ 3------|
B|1-------1-------1--------------|3-------3-------3-------3------|
G|2-------2-------2--------------|0-------0-------0-------0------|
D|3-------3-------3--------------|0-------0-------0-------0------|
A|3-------3-------3--------------|2-------2-------2-------2------|
E|1-------1-------1--------------|3-------3-------3-------3------|
  cry         baby        cry                                 The
e|------- ------- ------- -------|------- ------- ------- -------|
B|1---------------1--------------|0---------------0--------------|
G|2-------2-------0-------2------|0-------0-------0-------0------|
D|3---------------3--------------|0---------------0--------------|
A|-------------------------------|-------------------------------|
E|-------------------------------|3---------------3--------------|


  Em                              EmMaj7
e|------- ------- ------- -------|------- ------- ------- -------|
B|-------------------------------|-------------------------------|
G|-------------------------------|-------------------------------|
D|2------------------------------|1------------------------------|
A|-------------------------------|-------------------------------|
E|-------------------------------|-------------------------------|
  King    was     in      the garden              Picking     flo..


  Em7                             Em6
e|------- ------- ------- -------|------- ------- ------- -------|
B|-------------------------------|-------------------------------|
G|-------------------------------|-------------------------------|
D|0------------------------------|-------------------------------|
A|-------------------------------|4------------------------------|
E|-------------------------------|-------------------------------|
  ....wers        for a       friend      who came        to  play

  C                               G
e|0------ ------- 0------ -------|3------ ------- 3------ -------|
B|1---------------1--------------|3---------------3--------------|
G|0---------------0--------------|0---------------0--------------|
D|2---------------2--------------|0---------------0--------------|
A|3---------------3--------------|2---------------2--------------|
E|3---------------3--------------|3---------------3--------------|
                                                              The
e|------- ------- ------- -------|------- ------- ------- -------|
B|-------------------------------|0-------0----------------------|
G|0---------------3-------0------|0-------0----------------------|
D|2---------------2--------------|0-------0----------------------|
A|--------3----------------------|-------------------------------|
E|-------------------------------|3------------------------------|


  Em                              EmMaj7
e|------- ------- ------- -------|------- ------- ------- -------|
B|-------------------------------|-------------------------------|
G|-------------------------------|-------------------------------|
D|2------------------------------|1------------------------------|
A|-------------------------------|-------------------------------|
E|-------------------------------|-------------------------------|
  Queen   was     in      the playroom            Painting    pic..

  Em7                             Em6
e|------- ------- ------- -------|------- ------- ------- -------|
B|-------------------------------|-------------------------------|
G|-------------------------------|-------------------------------|
D|0------------------------------|-------------------------------|
A|-------------------------------|4------------------------------|
E|-------------------------------|-------------------------------|
  .....tures      for     the children's          holiday.

  C
e|0------ ------- 0------ -------|
B|1---------------1--------------|
G|0---------------0--------------|
D|2---------------2--------------|
A|3---------------3--------------|
E|3---------------3--------------|

e|------- ------- ------- -------|
B|-------------------------------|
G|0---------------3-------0------|
D|2---------------2--------------|
A|--------3----------------------|
E|-------------------------------|


  G                               Am
e|3------ ------- ------- 3------|0------ 0------ 0------ -------|
B|3-----------------------3------|1-------1-------1--------------|
G|0-----------------------0------|2-------2-------2--------------|
D|0-----------------------0------|2-------2-------2-------2------|
A|2-----------------------2------|0-------0-------0-------0------|
E|3-----------------------3------|------------------------0------|
  Cry         baby            cry
e|------- ------- ------- -------|------- ------- ------- -------|
B|0---------------0--------------|1---------------1--------------|
G|0-------0-------0-------0------|2-------2-------2-------2---0--|
D|0---------------0--------------|2---------------2--------------|
A|-------------------------------|0---------------0--------------|
E|3---------------3--------------|-------------------------------|


  F                               G
e|1------ ------- 1------ 1------|3------ ------- 3------ 3------|
B|1---------------1-------1------|3---------------3-------3------|
G|2---------------2-------2------|0---------------0-------0------|
D|3---------------3-------3------|0---------------0-------0------|
A|3---------------3-------3------|2---------------2-------2------|
E|1---------------1-------1------|3---------------3-------3------|
          Make your mother sigh                               She's
e|------- ------- ------- -------|------- ------- ------- -------|
B|1---------------1--------------|0---------------0--------------|
G|2---------------2-------2------|0-------0-------0-------0------|
D|3---------------3--------------|0---------------0--------------|
A|-------------------------------|-------------------------------|
E|-------------------------------|3---------------3-------3---1--|


  Em                              A
e|0------ 0------ 0------ 0------|0------ 0------ 0------ 0------|
B|0-------0-------0-------0------|2-------2-------2-------2------|
G|0-------0-------0-------0------|2-------2-------2-------2------|
D|2-------2-------2-------2------|2-------2-------2-------2------|
A|2-------2-------2-------2------|0-------0-------0-------0------|
E|0-------0-------0-------0------|-------------------------------|
  old     enough      to  know    better                      so
e|0------ ------- ------- -------|------- ------- ------- -------|
B|0---------------0--------------|2---------------2--------------|
G|0-------0-------0--------------|2---------------2-------2---0--|
D|2---------------2--------------|2---------------2--------------|
A|2---------------2--------------|0---------------0--------------|
E|0---------------0--------------|-------------------------------|


  F                               G
e|1------ 1------ 1------ 1------|3------ ------- ------- -------|
B|1-------1-------1-------1------|3------------------------------|
G|2-------2-------2-------2------|0------------------------------|
D|3-------3-------3-------3------|0------------------------------|
A|3-------3-------3-------3------|2------------------------------|
E|1-------1-------1-------1------|3------------------------------|
  Cry         baby        cry                                 The
e|------- ------- ------- -------|------- ------- ------- -------|
B|1---------------1--------------|0---------------0--------------|
G|2---------------2--------------|0---------------0-------0------|
D|3---------------3--------------|0---------------0--------------|
A|-------------------------------|-------------------------------|
E|-------------------------------|3---------------3--------------|


  Em                              EmMaj7
e|0------ 0------ 0------ 0------|0------ 0------ 0------ 0------|
B|0-------0-------0-------0------|0-------0-------0-------0------|
G|0-------0-------0-------0------|0-------0-------0-------0------|
D|2-------2-------2-------2------|1-------1-------1-------1------|
A|2-------2-------2-------2------|2-------2-------2-------2------|
E|0-------0-------0-------0------|0-------0-------0-------0------|
  dutchess        of      Kircaldy                always      smi..

  Em7                             Em6
e|0------ ------- 0------ 0------|0------ ------- 0------ -------|
B|0---------------0-------0------|0---------------0--------------|
G|0---------------0-------0------|0---------------0--------------|
D|0---------------0-------0------|-------------------------------|
A|2---------------2-------2------|4---------------4--------------|
E|0---------------0-------0------|0---------------0--------------|
  ling            and arriving                    late    for tea

  C                               G
e|0------ 0------ 0------ -------|3------ ------- 3------ -------|
B|1-------1-------1--------------|3---------------3--------------|
G|0-------0-------0--------------|0---------------0--------------|
D|2-------2-------2--------------|0---------------0--------------|
A|3-------3-------3--------------|2---------------2--------------|
E|3-------3-------3--------------|3---------------3--------------|
                                                              The
e|------- ------- ------- -------|------- ------- ------- -------|
B|-------------------------------|0------------------------------|
G|0---------------3-------0------|0------------------------------|
D|2---------------2--------------|0------------------------------|
A|--------3----------------------|-------------------------------|
E|-------------------------------|3------------------------------|

e|------- ------- ------- -------|------- ------- ------- -------|
B|-------------------------------|-------------------------------|
G|-------------------------------|-------------------------------|
D|5---------------8--------------|5------------------------------|
A|---------7---------------------|-------------------------------|
E|-------------------------------|-------------------------------|


  Em                              EmMaj7
e|0------ ------- ------- -------|0------ ------- ------- -------|
B|0------------------------------|0------------------------------|
G|0------------------------------|0------------------------------|
D|2------------------------------|1------------------------------|
A|2------------------------------|2------------------------------|
E|0------------------------------|0------------------------------|
  duke    was     having      problems            with    a   message


  Em7                             Em6
e|0------ 0------ 0------ 0------|0------ ------- 0------ -------|
B|0-------0-------0-------0------|0---------------0--------------|
G|0-------0-------0-------0------|0---------------0--------------|
D|0-------0-------0-------0------|-------------------------------|
A|2-------2-------2-------2------|4---------------4--------------|
E|0-------0-------0-------0------|0---------------0--------------|
                at      the local               bird    and bee.


  C
e|0------ 0------ 0------ -------|
B|1-------1-------1--------------|
G|0-------0-------0--------------|
D|2-------2-------2--------------|
A|3-------3-------3--------------|
E|3-------3-------3--------------|

e|------- ------- ------- -------|
B|-------------------------------|
G|0---------------3-------0------|
D|2---------------2--------------|
A|--------3----------------------|
E|-------------------------------|

e|------- ------- 12----- -------|
B|--------------------11---------|
G|--------12---------------------|
D|-------------------------------|
A|-------------------------------|
E|-------------------------------|

  G                               Am
e|3------ 3------ 3------ 3------|0------ ------- 0------ -------|
B|3-------3-------3-------3------|1---------------1--------------|
G|0-------0-------0-------0------|2---------------2-------0------|
D|0-------0-------0-------0------|2---------------2-------2------|
A|2-------2-------2-------2------|0---------------0-------0------|
E|3-------3-------3-------3------|------------------------0------|
  Cry         baby            cry
e|------- ------- ------- -------|------- ------- ------- -------|
B|0---------------0--------------|1---------------1--------------|
G|0-------0-------0-------0------|2-------2-------2-------2---0--|
D|0---------------0--------------|2---------------2--------------|
A|-------------------------------|0---------------0--------------|
E|3---------------3--------------|-------------------------------|


  F                               G
e|1------ 1------ 1------ 1------|3------ 3------ 3------ 3------|
B|1-------1-------1-------1------|3-------3-------3-------3------|
G|2-------2-------2-------2------|0-------0-------0-------0------|
D|3-------3-------3-------3------|0-------0-------0-------0------|
A|3-------3-------3-------3------|2-------2-------2-------2------|
E|1-------1-------1-------1------|3-------3-------3-------3------|
          Make your mother sigh                               She's
e|------- ------- ------- -------|------- ------- ------- -------|
B|1---------------1--------------|0---------------0--------------|
G|2---------------0-------2------|0-------0-------0-------0------|
D|3---------------3--------------|0---------------0--------------|
A|-------------------------------|-------------------------------|
E|-------------------------------|3---------------3--------------|


  Em                              A
e|0------ 0------ 0------ 0------|0------ 0------ 0------ -------|
B|0-------0-------0-------0------|2-------2-------2--------------|
G|0-------0-------0-------0------|2-------2-------2--------------|
D|2-------2-------2-------2------|2-------2-------2-------2------|
A|2-------2-------2-------2------|0-------0-------0-------0------|
E|0-------0-------0-------0------|------------------------0------|
  old     enough      to  know    better                      so
e|0------ ------- ------- -------|------- ------- ------- -------|
B|0---------------0--------------|2---------------2--------------|
G|0-------0-------0-------0------|2-------2-------2-------2---0--|
D|2---------------2--------------|2---------------2--------------|
A|2---------------2--------------|0---------------0--------------|
E|0---------------0--------------|-------------------------------|


  F                               G
e|1------ 1------ 1------ 1------|3------ 3------ 3------ 3------|
B|1-------1-------1-------1------|3-------3-------3-------3------|
G|2-------2-------2-------2------|0-------0-------0-------0------|
D|3-------3-------3-------3------|0-------0-------0-------0------|
A|3-------3-------3-------3------|2-------2-------2-------2------|
E|1-------1-------1-------1------|3-------3-------3-------3------|
  Cry         baby        cry                                 At
e|------- ------- ------- -------|------- ------- ------- -------|
B|1---------------1--------------|0-----------------------0------|
G|2---------------2--------------|0-----------------------0------|
D|3---------------3--------------|0-----------------------0------|
A|-------------------------------|-------------------------------|
E|-------------------------------|-------------------------------|


  Em                              EmMaj7
e|0------ ------- ------- -------|0------ ------- ------- -------|
B|0------------------------------|0------------------------------|
G|0------------------------------|0------------------------------|
D|2------------------------------|1------------------------------|
A|2------------------------------|2------------------------------|
E|0------------------------------|0------------------------------|
  twelve  o'clock         a   meeting             round   the table


  Em7                             Em6
e|0------ ------- ------- -------|0------ ------- ------- -------|
B|0------------------------------|0------------------------------|
G|0------------------------------|0------------------------------|
D|0------------------------------|-------------------------------|
A|2------------------------------|4------------------------------|
E|0------------------------------|0------------------------------|
                  For     a   seance              in      the dark

  C                               G
e|0------ ------- 0------ -------|3------ ------- ------- -------|
B|1---------------1--------------|3------------------------------|
G|0---------------3--------------|0------------------------------|
D|2---------------2--------------|0------------------------------|
A|3---------------3--------------|2------------------------------|
E|-------------------------------|3------------------------------|
                                                              With
e|------- ------- ------- -------|------- ------- ------- -------|
B|-------------------------------|0-------0----------------------|
G|0---------------3-------0------|0-------0----------------------|
D|2---------------2--------------|0-------0----------------------|
A|--------3----------------------|-------------------------------|
E|-------------------------------|3------------------------------|


  Em                              EmMaj7
e|0------ ------- ------- -------|0------ ------- ------- -------|
B|0------------------------------|0------------------------------|
G|0------------------------------|0------------------------------|
D|2------------------------------|1------------------------------|
A|2------------------------------|2------------------------------|
E|0------------------------------|0------------------------------|
  voices          out of          nowhere         put on

  Em7                             Em6
e|0------ ------- ------- -------|0------ ------- ------- -------|
B|0------------------------------|0------------------------------|
G|0------------------------------|0------------------------------|
D|0------------------------------|-------------------------------|
A|2------------------------------|4------------------------------|
E|0------------------------------|0------------------------------|
   specially      by      the children            for     a   lark

  C
e|0------ 0------ 0------ -------|
B|1-------1-------1--------------|
G|0-------0-------0--------------|
D|2-------2-------2--------------|
A|3-------3-------3--------------|
E|3-------3-------3--------------|

e|------- ------- ------- -------|
B|-------------------------------|
G|0---------------3-------0------|
D|2---------------2--------------|
A|--------3----------------------|
E|-------------------------------|


  G                               Am
e|3------ 3------ 3------ 3------|0------ 0------ 0------ 0------|
B|3-------3-------3-------3------|1-------1-------1-------1------|
G|0-------0-------0-------0------|2-------2-------2-------2------|
D|0-------0-------0-------0------|2-------2-------2-------2------|
A|2-------2-------2-------2------|0-------0-------0-------0------|
E|3-------3-------3-------3------|-------------------------------|
  Cry         baby            cry
e|------- ------- ------- -------|------- ------- ------- -------|
B|0---------------0--------------|1---------------1--------------|
G|0-------0-------0-------0------|2-------2-------2-------2---0--|
D|0---------------0--------------|2---------------2--------------|
A|-------------------------------|0---------------0--------------|
E|3---------------3--------------|-------------------------------|


  F                               G
e|1------ 1------ ------- 1------|3------ 3------ 3------ 3------|
B|1-------1---------------1------|3-------3-------3-------3------|
G|2-------2---------------2------|0-------0-------0-------0------|
D|3-------3---------------3------|0-------0-------0-------0------|
A|3-------3---------------3------|2-------2-------2-------2------|
E|1-------1---------------1------|3-------3-------3-------3------|
          Make your mother sigh                               She's
e|------- ------- ------- -------|------- ------- ------- -------|
B|1---------------1--------------|0---------------0--------------|
G|2---------------0-------2------|0-------0-------0-------0------|
D|3---------------3--------------|0---------------0--------------|
A|-------------------------------|-------------------------------|
E|-------------------------------|3---------------3--------------|


  Em                              A
e|0------ 0------ 0------ 0------|0------ 0------ 0------ 0------|
B|0-------0-------0-------0------|2-------2-------2-------2------|
G|0-------0-------0-------0------|2-------2-------2-------2------|
D|2-------2-------2-------2------|2-------2-------2-------2------|
A|2-------2-------2-------2------|0-------0-------0-------0------|
E|0-------0-------0-------0------|-------------------------------|
  old     enough      to  know    better                      so
e|0------ ------- ------- -------|------- ------- ------- -------|
B|0---------------0--------------|2---------------2--------------|
G|0-------0-------0-------0------|2-------2-------2-------2---0--|
D|2---------------2--------------|2---------------2--------------|
A|2---------------2--------------|0---------------0--------------|
E|0---------------0--------------|-------------------------------|


  F
e|1------ 1------ 1------ 1------|
B|1-------1-------1-------1------|
G|2-------2-------2-------2------|
D|3-------3-------3-------3------|
A|3-------3-------3-------3------|
E|1-------1-------1-------1------|
  Cry         baby        cry
e|------- ------- ------- -------|
B|-------------------------------|
G|-------------------------------|
D|-------------------------------|
A|-------------------------------|
E|-------------------------------|


  G                               Am
e|3------ 3------ 3------ 3------|0------ 0------ 0------ 0------|
B|3-------3-------3-------3------|1-------1-------1-------1------|
G|0-------0-------0-------0------|2-------2-------2-------2------|
D|0-------0-------0-------0------|2-------2-------2-------2------|
A|2-------2-------2-------2------|0-------0-------0-------0------|
E|3-------3-------3-------3------|-------------------------------|
      cry         cry         cry     baby
e|------- ------- ------- -------|------- ------- ------- -------|
B|0---------------0--------------|1---------------1--------------|
G|0-------0-------0-------0------|2-------2-------2-------2---0--|
D|0---------------0--------------|2---------------2--------------|
A|-------------------------------|0---------------0--------------|
E|3---------------3--------------|-------------------------------|


  F                               G
e|1------ 1------ 1------ 1------|3------ 3---3-- 3---3-- 3------|
B|1-------1-------1-------1------|3-------3---3---3---3---3------|
G|2-------2-------2-------2------|0-------0---0---0---0---0------|
D|3-------3-------3-------3------|0-------0---0---0---0---0------|
A|3-------3-------3-------3------|2-------2---2---2---2---2------|
E|1-------1-------1-------1------|3-------3---3---3---3---3------|
          Make your mother sigh                               She's
e|------- ------- ------- -------|------- ------- ------- -------|
B|1---------------1--------------|0---------------0--------------|
G|2---------------0-------2------|0-------0-------0-------0------|
D|3---------------3--------------|0---------------0--------------|
A|-------------------------------|-------------------------------|
E|-------------------------------|3---------------3--------------|


  Em                              A
e|0------ 0------ 0------ 0------|0------ 0---0-- 0------ 0------|
B|0-------0-------0-------0------|2-------2---2---2-------2------|
G|0-------0-------0-------0------|2-------2---2---0-------0------|
D|2-------2-------2-------2------|2-------2---2---2-------2------|
A|2-------2-------2-------2------|0-------0---0---0-------0------|
E|0-------0-------0-------0------|-------------------------------|
  old     enough      to  know    better                      so
e|0------ ------- ------- -------|------- ------- ------- -------|
B|0---------------0--------------|2---------------2--------------|
G|0-------0-------0-------0------|2-------2-------2-------2---0--|
D|2---------------2--------------|2---------------2--------------|
A|2---------------2--------------|0---------------0--------------|
E|0---------------0--------------|-------------------------------|


  F
e|1------ 1------ 1------ 1------|
B|1-------1-------1-------1------|
G|2-------2-------2-------2------|
D|3-------3-------3-------3------|
A|3-------3-------3-------3------|
E|1-------1-------1-------1------|
      cry     baby        cry
e|------- ------- ------- -------|
B|1---------------1--------------|
G|2---------------0-------2------|
D|3---------------3--------------|
A|-------------------------------|
E|-------------------------------|


  G                               Am
e|3------ 3---3-- 3------ 3------|0------ 0------ 0------ -------|
B|3-------3---3---3-------3------|1-------1-------1-------0------|
G|0-------0---0---0-------0------|2-------2-------2-------0------|
D|0-------0---0---0-------0------|2-------2-------2-------0------|
A|2-------2---2---2-------2------|0-------0-------0--------------|
E|3-------3---3---3-------3------|-------------------------------|
      cry         cry         cry     baby
e|------- ------- ------- -------|------- ------- ------- -------|
B|0---------------0--------------|1---------------1--------------|
G|0-------0-------0-------0------|2-------2-------2-------2---0--|
D|0---------------0--------------|2---------------2--------------|
A|-------------------------------|0---------------0--------------|
E|3---------------3--------------|-------------------------------|


  F                               G
e|1------ 1------ 1------ 1------|3------ 3------ ------- 3------|
B|1-------1-------1-------1------|3-------3---------------3------|
G|2-------2-------2-------2------|0-------0---------------0------|
D|3-------3-------3-------3------|0-------0---------------0------|
A|3-------3-------3-------3------|2-------2---------------2------|
E|1-------1-------1-------1------|3-------3---------------3------|
          Make your mother sigh                               She's
e|------- ------- ------- -------|------- ------- ------- -------|
B|1---------------1--------------|0---------------0--------------|
G|2---------------0-------2------|0-------0-------0-------0------|
D|3---------------3--------------|0---------------0--------------|
A|-------------------------------|-------------------------------|
E|-------------------------------|3---------------3--------------|


  Em                              A
e|0------ 0------ ------- 0------|0------ 0---0-- 0---0-- 0------|
B|0-------0---------------0------|2-------2---2---2---2---2------|
G|0-------0---------------0------|2-------2---2---0---0---0------|
D|2-------2---------------2------|2-------2---2---2---2---2------|
A|2-------2---------------2------|0-------0---0---0---0---0------|
E|0-------0---------------0------|-------------------------------|
  old     enough      to  know    better                      so
e|0------ ------- ------- -------|------- ------- ------- -------|
B|0---------------0--------------|2---------------2--------------|
G|0-------0-------0-------0------|2-------2-------2-------2---0--|
D|2---------------2--------------|2---------------2--------------|
A|2---------------2--------------|0---------------0--------------|
E|0---------------0--------------|-------------------------------|


                                 (.
  F                               Em
e|1------ 1------ 1------ 1------|0------ ------- ------- -------|
B|1-------1-------1-------1------|0------------------------------|
G|2-------2-------2-------2------|0------------------------------|
D|3-------3-------3-------3------|2------------------------------|
A|3-------3-------3-------3------|2------------------------------|
E|1-------1-------1-------1------|0------------------------------|
  cry         baby        cry
e|------- ------- ------- -------|------- ------- ------- -------|
B|1---------------1--------------|0---------------0--------------|
G|2---------------2--------------|0---------------0--------------|
D|3---------------3--------------|2---------------2--------------|
A|-------------------------------|--------2----------------------|
E|-------------------------------|0------------------------------|


e|------- ------- ------- -------|------- ------- ------- -------|
B|-------------------------------|-------------------------------|
G|-------------------------------|-------------------------------|
D|-------------------------------|-------------------------------|
A|-------------------------------|-------------------------------|
E|0------------------------------|-------------------------------|



        B  Bend
        R  Release
        /  slide up
        \  slide down
        H  hammer-on
        P  pull-off
        ~  vibrato
        +  harmonic
        x  Mute note
        . - play note like a dot in standard notation
        ^ - ties two notes together
        (. Pause

  ---------------------------------------------------------------

  THE BEATLES - REVOLUTION #9 (Lennon & McCartney) From the WHITE
                ALBUM. Released on November 22nd 1968.

  ---------------------------------------------------------------


  Although most people didn't bother to listen to the track more
  than once or twice, a few times at most, at the time, the sheer
  fact of the inclussion of this eight minute random collage in
  the WHITE ALBUM made it reach a much wider diffusion than the
  works of the rest of the avant-garde composers, including the
  musique concrète of Cage or Stockhausen or the works of all the
  members of Fluxus or the Situationists. Lennon's talent and
  imagination was acclaimed by musicologists all over the world
  and after forty years the piece has surely had many hundreds of
  millions of listeners, something beyond the scope of all those
  elitist minorities.
  I suppose that no one would consider tabbing it, that would be
  impossible, but also the fact that the other Beatles were rather
  reluctant about its inclussion in the double album and no less
  the fact of knowing that Yoko was hanging over the whole project
  (although hers was a minor contribution she was all the time with
  John at Kenwood and Abbey Road helping him assemble the collage)
  would dissuade me from doing it If it was possible at all.


  ------------------------------------------------------------

  THE BEATLES - GOOD NIGHT (Lennon & McCartney) From the WHITE
                ALBUM. Released on 22nd November 1968.

  ------------------------------------------------------------

  Tabbed by:PJVillanueva

  Now it's time to say good night
  Good night Sleep tight
  Now the sun turns out his light
  Good night Sleep tight
  Dream sweet dreams for me
  Dream sweet dreams for you.

  Close your eyes and I'll close mine
  Good night Sleep tight
  Now the moon begins to shine
  Good night Sleep tight
  Dream sweet dreams for me
  Dream sweet dreams for you.

  Close your eyes and I'll close mine
  Good night Sleep tight
  Now the sun turns out his light
  Good night Sleep tight
  Dream sweet dreams for me
  Dream sweet dreams for you.

  Good night Good night Everybody
  Everybody everywhere
  Good night.


 I hope there's not too much finger stretching in this number. Use your
thumb for bass notes when needed and let chords ring as much as you can.

Intro


  Gmaj7            Cmaj7            Gmaj7            Cmaj7
E|2---------------|0---------------|2---------------|0---------------|
B|3---------------|0---------------|3---------------|0---------------|
G|4---------------|4---------------|4---------------|4---------------|
D|4---------------|2---------------|4---------------|2---------------|
A|----------------|3---------------|----------------|3---------------|
E|-------3--------|--------3-------|--------3-------|--------3-------|x4
  .......Fade in.......
  G                Bm7              Am7         Am11 D7sus4  D7
E|3---------------|5---------------|------------10--|--------5-------|
B|3-----------3---|3-----------3---|8---------------|8-------7-------|
G|0---------------|2---------------|5---------------|5-------5-------|
D|0---------------|4---------------|5---------------|7-------7-------|
A|----------------|2---------------|----------------|5-------5-------|
E|3---------------|----------------|5---------------|----------------|


  G                Bm7              Am
E|3---------------|5-----------2---|----------------|----------------|
B|3-----------3---|3---------------|5---------------|----------------|
G|0---------------|2-----------2---|5---------------|----5-----------|
D|0-------2---4---|4-------5-------|7-------5---7---|9-------7---5---|
A|----------------|2---------------|7---------------|7-------7-------|
E|3---------------|----------------|5---------------|5-------5-------|
  Now        it's  time        to   say         good night

  Bm7              Am7              C/G              D
E|----------------|----------------|----------------|----------------|
B|3---------------|1---------------|1-------0---1---|3---------------|
G|2---------------|0---------------|0---------------|2-------0-------|
D|4---------------|2---------------|2---------------|0-----------4---|
A|2---------------|0---------------|----------------|----------------|
E|----------------|----------------|3---------------|2---------------|
  Good             night            Sleep            tight


  G                Bm7              Am7              C/G
E|3---------------|5-----------2---|3---------------|0---------------|
B|0-------1---3---|3-------5-------|1-----------1---|1---------------|
G|0---------------|2---------------|0---------------|0---------------|
D|0---------------|4---------------|2---------------|2---------------|
A|----------------|2---------------|0---------------|----------------|
E|3---------------|----------------|----------------|3---------------|
  Now         the  sun        turns out         his  light

  Bm7              Am7              Am7              D
E|2---------------|0---------------|----------------|---------------0|
B|3---------------|1---------------|1---0---3---1---|3---------0-1-2-|
G|2---------------|0---------------|2---------------|2------0-2------|
D|4---------------|2---------------|2---------------|0-0-2-4---------|
A|2---------------|0---------------|----------------|----------------|
E|----------------|----------------|3---------------|2---------------|
  Good             night            Sleep            tight


  Gmaj7            Cmaj7            Gmaj7            Cmaj7
E|----2-----------|----2-----------|----2-----------|----2-----------|
B|----3-----------|0---------------|----3-----------|0---------------|
G|4---------------|0---------------|4---------------|0---------------|
D|4---------------|2---------------|4---------------|2---------------|
A|----------------|3---------------|----------------|3---------------|
E|3---------------|----------------|3---------------|----------------|
  Dream      sweet dreams      for  me

  G                C                G                C
E|--3-------------|--3-------------|--3-------------|--3-------------|
B|0-----------0---|1-----------1---|0-----------0---|1---------------|
G|0-----------0---|0---------------|0-----------0---|0---------------|
D|0-----------0---|2---------------|0-----------0---|2---------------|
A|----------------|3---------------|----------------|3---------------|
E|3---------------|----------------|3---------------|----------------|
  Dream      sweet dreams      for  you

  G                Bm7              Am7
E|3---------------|5-----------2---|3---------------|0---------------|
B|3-----------3---|3---------------|1-----------1---|1---------------|
G|0---------------|2---------------|0---------------|0---------------|
D|----------------|4---------------|2---------------|2---------------|
A|----------------|2-------2-------|0-------0-------|0-------0-------|
E|3-------3-------|----------------|----------------|----------------|
  Close       your eyes        and  I'll       close mine

  Bm7              Am7              C6               D
E|--------7-------|----------------|--------5-------|----------------|
B|7---------------|5---------------|5---------------|3---------------|
G|7---------------|5---------------|5---------------|2---------------|
D|7---------------|5---------------|5---------------|0-------2---0---|
A|9---------------|7---------------|----------------|----------------|
E|7-------7-------|5-------5-------|3-------3-------|2---------------|
  Good             night            Sleep            tight

  G                Bm7              Am7              C/G
E|3---------------|5-----------2---|3---------------|0---------------|
B|3-----------3---|3---------------|1---1H3-1---3---|1-------0-------|
G|0---------------|2---------------|0---------------|0---------------|
D|----------------|4---------------|2---------------|2---------------|
A|----------------|2-------2-------|0-------0-------|----------------|
E|3-------3-------|----------------|----------------|3-------3-------|
  Now         the  moon         begins          to   shine

  Bsus4            Am               C/G              D
E|----------------|----------------|0---------------|----------------|
B|--------5-------|--------1---3---|1-------0-------|3---------------|
G|4---------------|2---------------|0---------------|2---------------|
D|4---------------|2---------------|2---------------|0---------------|
A|2-------2-------|0-------0-------|----------------|----------------|
E|----------------|----------------|3-------3-------|2---------------|
  Good             night            Sleep            tight

  B5               Cmaj7            B5               7
E|----2-----------|----------------|----2-----------|----------------|
B|0---------------|0---------------|0---------------|0---------------|
G|4---------------|0---0-----------|4---------------|0---0-----------|
D|4---4---0-------|2-------2-------|4---4---0-------|2-------2-------|
A|----------------|3---------------|----------------|3---------------|
E|----------------|----------------|----------------|----------------|
  Dream      sweet dreams      for  me

  G                C                G                C
E|----3-----------|----3-----------|----3-----------|----3-----------|
B|0---------------|1---------------|0---------------|1---------------|
G|0---0-----------|0---0-----------|0---0-----------|0---0-----------|
D|0-------0-------|2-------2-------|0-------0-------|2-------2-------|
A|----------------|----------------|----------------|----------------|
E|3---------------|----------------|3---------------|----------------|
  Dream      sweet dreams      for  you

  G                C                A                Dm
E|3---------------|----------0-1-3-|5---------------|1---------------|
B|3-----------3---|1---0-1-3-------|2---------------|3-----------0-1-|
G|0---------------|0-2-------------|2-------------0-|2-------0-2-----|
D|----------0-2-3-|2---------------|--------0-2-3---|--0-2-3---------|
A|----0-2-3-------|----------------|--0-2-4---------|----------------|
E|--3-------------|----------------|----------------|----------------|
  Mmmmmmmmmmmmmmmmmmmmmmmmmmmmmmmm  Mmmmmmmmmmmmmmmmmmmmmmmmmmmmmmmmm

  G                C                D                C
E|----------------|------------0---|------------5---|3---------------|
B|0---------------|1-----0-1-3---1-|3-------3-------|1---1-------3---|
G|0---------------|--0-2-----------|2---------------|0-------2-------|
D|0---------0-2-3-|2---------------|0---------------|2-------0-------|
A|----0-2-3-------|3---------------|----------------|--------0-------|
E|--3-------------|----------------|2---------------|0-------2-------|
  Mmmmmmmmmmmmmmmmmmmmmmmmmmmmmmm   Mmmmmmmmmmmmmmmmmmmmmmmmmmmmmmmmm

  G                Bm7              Am7
E|3---------0-----|5---2-----------|3---------------|0---------------|
B|3---------3-----|3-------5---3---|1-----------1---|1---------------|
G|0---------0-----|2---------------|0---------------|0---------------|
D|----------------|4---------------|2---------------|2---------------|
A|----------------|2---------------|0---------------|0---------------|
E|3---------------|----------------|----------------|----------------|
  Close       your eyes        and  I'll       close mine

  Bm               Am               Am7            Dsus4 D Dsus2 D
E|2-----------2---|0-----------0---|------------0---|3---2---0-------|
B|3-----2-3-5-----|1-----0-1-3-----|1-----0-1-3-----|3-----------3---|
G|4---4-----------|2---2-----------|2---2-----------|2---------------|
D|4---------------|2---------------|2---------------|0---------------|
A|2---------------|0---------------|----------------|----------------|
E|----------------|----------------|3---------------|----------------|
  Good             night            Sleep            tight

  G                Bm7              Am7              C/G
E|3---2---0-------|5-----------3---|3---0-----------|0---------------|
B|3-----------3---|3---------------|1-------3---1---|1---------------|
G|0---------------|2---------------|0---------------|0---------------|
D|----------------|4---------------|2---------------|2---------------|
A|----------------|2---------------|0---------------|----------------|
E|3---------------|----------------|----------------|3---------------|
  Now          the sun        turns out         his  light

  Bm               Am               C/G              D
E|2---------------|0---------------|0---------------|----------------|
B|3---------------|1---3---1-------|1---3---1---0---|3---1---0-------|
G|4-------4-------|2-----------2---|0---------------|2-----------2---|
D|4---------------|2---------------|2---------------|0---------------|
A|2---------------|----------------|----------------|----------------|
E|----------------|----------------|3---------------|2---------------|
  Good             night            Sleep            tight

  Gmaj7            Cmaj7            Gmaj7            C       C6
E|2---------------|0---------------|--------7-------|--------5-------|
B|3---------------|0---------------|7-----------7---|5-----------5---|
G|4---------------|4---------------|7---------------|5---------------|
D|4---------------|2---------------|----------------|----------------|
A|----------------|3---------------|----------------|----------------|
E|3-------3-------|3-------3-------|3-------3-------|3-------3-------|
  Dream      sweet dreams      for  me

  G                C/G              G                Am7
E|--------3-------|--------3-------|--------0-------|----------------|
B|3-----------3---|1-----------1---|0-----------0---|1-------3-------|
G|0---------------|0---------------|0---------------|2-----------2---|
D|0---------------|2---------------|0---------------|2---------------|
A|----------------|----------------|----------------|----------------|
E|3-------3-------|3-------3-------|3-------3-------|3---------------|
  Dream      sweet dreams      for  you


  G                Bm7              Am7         Am11 D7sus4
E|3---------------|5---------------|------------10--|--------5-------|
B|3-----------3---|3-----------3---|8---------------|8---------------|
G|0---------------|2---------------|5---------------|5---------------|
D|----------------|4---------------|5---------------|7---------------|
A|----------------|2---------------|7---------------|5---------------|
E|3---------------|----------------|5---------------|----------------|
                                                     Good night

  G                D                C                C       D
E|10--------------|14--------------|12----------12--|12------14------|
B|12--------------|15--------------|13--------------|13------15------|
G|12--------------|14--------------|12--------------|12------14------|
D|------------12--|--------------12|----------------|----------------|
A|----------------|----------------|----------------|----------------|
E|----------------|----------------|----------------|----------------|
      Good night everybody      Everybody everywhere       Good night

  G¨¨¨¨¨¨¨¨¨¨¨¨¨¨¨¨¨¨¨¨¨¨¨¨¨¨¨¨¨¨¨¨
E|3---------------|----------------|
B|0---------------|----------------|
G|0---------------|----------------|
D|0---------------|----------------|
A|2---------------|----------------|
E|3---------------|----------------|



        B  Bend
        R  Release
        /  slide up
        \  slide down
        H  hammer-on
        P  pull-off
        ~  vibrato
        +  harmonic
        x  Mute note
        . - play note like a dot in standard notation
        ^ - ties two notes together
        (. Pause
comments
We did not receive enough feedback on this tab! Please rate:
print report bad tab
1 2 3 4 5
I want to post or [tab]
guest
You may want to rate the tab now too:
select rating
Please do not post tabs as comments. Select "correction" instead!