Oops, an error
Loading. Please wait.

White Album Tab

ver1
ver1

Album

Whole song

More versions @911Tabs.com
171,790 views 243 this week
5 commentsread comments
1 2 3 4 5
excellent!
x 10
add to favorites launch autoscroll
font size
0
reset
Autoscroll
+/-
esc
set tempo
stop
Contributor
WARNING: You are trying to view
                                    content from Ultimate-Guitar.com
                                    in an unauthorized application,
                                    which is prohibited.

                                    Please use an official Ultimate
                                    Guitar Tabs application for iPhone,
                                    iPad or Android to access legitimate
                                    chords, guitar, bass, and drum tabs
                                    from Ultimate-Guitar.com database.

                                    Type "ultimate guitar tabs" in Apple
                                    App Store's or Android Market's
                                    search to find the application.
             THE BEATLES (WHITE ALBUM) 1

          1  BACK IN THE USSR
          2  DEAR PRUDENCE
          3  GLASS ONION
          4  OBLADI OBLADA
          5  WILD HONEY PIE
          6  THE CONTINUING STORY OF BUNGALOW BILL
          7  WHILE MY GUITAR GENTLY WEEPS
          8  HAPPINESS IS A WARM GUN
          9  MARTHA MY DEAR
         10  I'M SO TIRED
         11  BLACKBIRD
         12  PIGGIES
         13  ROCKY RACCOON
         14  DON'T PASS ME BY
         15  WHY DON'T WE DO IT IN THE ROAD
         16  I WILL
         17  JULIA

  ------------------------------------------------------------------

  THE BEATLES - BACK IN THE USSR (Lennon & McCartney) From the WHITE
                ALBUM. Released on November 22nd 1968.

  ------------------------------------------------------------------

  Tabbed by:PJVillanueva


  Flew in from Miami Beach BOAC
  Didn't get to bed last night
  On the way the paper bag was on my knee
  Man I had a dreadful flight
  I'm back in the U.S.S.R.
  You don't know how lucky you are boy
  Back in the U.S.S.R.

  Been away so long I hardly knew the place
  Gee it's good to be back home
  Leave it till tomorrow to unpack my case
  Honey disconnect the phone
  I'm back in the U.S.S.R.
  You don't know how lucky you are boy
  Back in the U.S.S.R.

  Well the Ukraine girls really knock me out
  They leave the West behind
  And Moscow girls make me sing and shout
  That Georgia's always on my mind.

  I'm back in the U.S.S.R.
  You don't know how lucky you are boys
  Back in the U.S.S.R.

  Show me round your snow peaked mountains way down south
  Take me to your daddy's farm
  Let me hear your balalaika's ringing out
  Come and keep your comrade warm.
  I'm back in the U.S.S.R.
  You don't know how lucky you are boys
  Back in the U.S.S.R.

  e|------- ------- ------- -------|------- 8------ ------- -------|
  B|-------------------------------|-------------------------------|
  G|-------------------------------|-------------------------------|
  D|-------------------------------|------------8\5-----B7\-x------|
  A|-------------------------------|-------------------------------|
  E|-------------------------------|-------------------------------|

    00:09
    x   x   x   x   x   x   x   x   x   x   x   x   x   x   x   x
                            E                               E7
  e|------- ------- ------- 0------|------- ------- ------- 0------|
  B|-------------------------------|------------------------3------|
  G|-------------------------------|------------------------1------|
  D|-------------------------------|------------------------0------|
  A|-------------------------------|------------------------2------|
  E|-------------------------------|-------------------------------|

  e|------- ------- ------- -------|------- ------- ------- -------|
  B|3---3---3---3---3---3---3---3--|3---3---3---3---3---3---3---3--|
  G|1---1---1---1---1---1---1---1--|1---1---1---1---1---1---1---1--|
  D|0---0---0---0---0---0---0---0--|0---0---0---0---0---0---0---0--|
  A|2---2---2---2---2---2---2---2--|2---2---2---2---2---2---2---2--|
  E|0---0---0---0---0---0---0---0--|0---0---0---0---0---0---0---0--|


    00:16
    A5                              D5
  e|------- ------- ------- -------|------- ------- ------- -------|
  B|-------------------------------|-------------------------------|
  G|-------------------------------|7---7---7---7---7---7---7---7--|
  D|7---7---7---7---7---7---7---7--|7---7---7---7---7---7---7---7--|
  A|7---7---9---7---7---7---9---7--|5---5---5---5---5---5---5---5--|
  E|5---5---5---5---5---5---5---5--|-------------------------------|
    Flew    from            Beach                               Didn't
        in      Miami           B   O   A       C


    C5                              D5
  e|------- ------- ------- -------|------- ------- ------- -------|
  B|-------------------------------|-------------------------------|
  G|5---5---5---5---5---5---5---5--|7---7---7---7---7---7---7---7--|
  D|5---5---5---5---5---5---5---5--|7---7---7---7---7---7---7---7--|
  A|3---3---3---3---3---3---3---3--|5---5---5---5---5---5---5---5--|
  E|-------------------------------|-------------------------------|
            get to  bed last    night                           On


    A5                              D5
  e|------- ------- ------- -------|------- ------- ------- -------|
  B|-------------------------------|-------------------------------|
  G|-------------------------------|7---7---7---7---7---7---7---7--|
  D|7---7---7---7---7---7---7---7--|7---7---7---7---7---7---7---7--|
  A|7---7---7---7---7---7---7---7--|5---5---5---5---5---5---5---5--|
  E|5---5---5---5---5---5---5---5--|-------------------------------|

  e|------- ------- ------- -------|------- ------- ------- -------|
  B|-------------------------------|-------------------------------|
  G|-------------------------------|-------------------------------|
  D|7-----------7-----------7------|12----------12----------12-----|
  A|7-----------7-----------7------|12----------12----------12-----|
  E|5-----------5-----------5------|10----------10----------10-----|
        the way the paper   bag was on  my      knee            Man

    C5                              D5
  e|------- ------- ------- -------|------- ------- ------- -------|
  B|-------------------------------|-------------------------------|
  G|5---5---5---5---5---5---5---5--|7---7---7---7---7---7---7---7--|
  D|5---5---5---5---5---5---5---5--|7---7---7---7---7---7---7---7--|
  A|3---3---3---3---3---3---3---3--|5---5---5---5---5---5---5---5--|
  E|-------------------------------|-------------------------------|

  e|------- ------- ------- -------|------- ------- ------- -------|
  B|-------------------------------|-------------------------------|
  G|-------------------------------|-------------------------------|
  D|10----------10----------10-----|12----------12----------12-----|
  A|10----------10----------10-----|12----------12----------12-----|
  E|-8-----------8-----------8-----|10----------10----------10-----|
        I   had a   dreadful    flight  I'm back  the
                                                in  U.  S.  S.  R.


    00:29
    A                               C
  e|------- ------- ------- -------|------- ------- ------- -------|
  B|-------------------------------|-------------------------------|
  G|-------------------------------|-------------------------------|
  D|7---7---7---7---7---7---7---7--|10--10--10--10--10--10--10--10-|
  A|7---7---7---7---7---7---7---7--|10--10--10--10--10--10--10--10-|
  E|5---5---5---5---5---5---5---5--|-8---8---8---8---8---8---8---8-|

  e|------- ------- ------- -------|------- ------- ------- -------|
  B|-------------------------------|-------------------------------|
  G|----2-------0------------------|---5--------3------------------|
  D|----2-------2-------4----------|---5--------5-------7----------|
  A|0-----------------------3H4P3H4|3-----------------------6--H--7|
  E|-------------------------------|-------------------------------|
                                         You     know        you are,
                                           don't   how
                                                    lucky

    D
  e|------- ------- ------- -------|------- ------- ------- -------|
  B|-------------------------------|-------------------------------|
  G|-------------------------------|-------------------------------|
  D|12--12--12--12--12--12--12--12-|12-----------------------------|
  A|12--12--12--12--12--12--12--12-|12-----------------------------|
  E|10--10--10--10--10--10--10--10-|10-\---------------------------|
                boy                     Back    in  U.  S.  S.  R.
                                                  the
  e|------- ------- ------- -------|------- ------- ------- -------|
  B|-------------------------------|-------------------------------|
  G|----7-------5------------------|-------------------------------|
  D|----7-------7-------9----------|-------------------------------|
  A|5-----------------------8--H--9|5------------------------------|
  E|-------------------------------|-------------------------------|

    A                                           E7
  e|------- ------- ------- -------|------- ------- ------- -------|
  B|-------------------------------|------------5-------5---5------|
  G|-------------------------------|------------7-------7---7------|
  D|7---7---7---7---7---7---7---7--|7---7--7----6-------6---6------|
  A|7---7---7---7---7---7---7---7--|7---7--7----7-------7---7------|
  E|5---5---5---5---5---5---5---5--|5---5--5-----------------------|
                                       D    D# E
  e|------- ------- ------- -------|---10-- 11--12- ------- -------|
  B|-------------------------------|---10---11--12-----------------|
  G|-------------------------------|---11---12--13-----------------|
  D|-------------------------------|-------------------------------|
  A|-------------------------------|-------------------------------|
  E|-------------------------------|-------------------------------|


    00:39
    A5      A6  A5          A6  A5  D5
  e|------- ------- ------- -------|------- ------- ------- -------|
  B|-------------------------------|-------------------------------|
  G|-------------------------------|7---7---7---7---7---7---7---7--|
  D|7---7---7---7---7---7---7---7--|7---7---7---7---7---7---7---7--|
  A|7---7---9---7---7---7---9---7--|5---5---5---5---5---5---5---5--|
  E|5---5---5---5---5---5---5---5-/|-------------------------------|
    Been        so  long    hardly  knew    the place           Gee
        away            I

    C5                              D5
  e|------- ------- ------- -------|------- ------- ------- -------|
  B|-------------------------------|-------------------------------|
  G|5---5---5---5---5---5---5---5--|7---7---7---7------------------|
  D|5---5---5---5---5---5---5---5--|7---7---7---7-------7----------|
  A|3---3---3---3---3---3---3---3--|5---5---5---5---9------\7---5--|
  E|-------------------------------|-------------------------------|
        it's    to  be  back    home                            Leave
            good

    A5                              D5
  e|------- ------- ------- -------|------- ------- ------- -------|
  B|-------------------------------|-------------------------------|
  G|-------------------------------|7---7---7---7------------------|
  D|7---7---7---7---7---7---7---7--|7---7---7---7-------7----------|
  A|7---7---9---7---7---7---9---7--|5---5---5---5---9------\7---5--|
  E|5---5---5---5---5---5---5---5--|-------------------------------|
        it  till            to  unpack  my      case            Honey
                tomorrow

    C5                              D5
  e|------- ------- ------- -------|------- ------- ------- -------|
  B|-------------------------------|-------------------------------|
  G|5---5---5---5---5---5---5---5--|7---7---7---7---7---7---7---7--|
  D|5---5---5---5---5---5---5---5--|7---7---7---7---7---7---7---7--|
  A|3---3---3---3---3---3---3---3--|5---5---5---5---5---5---5---5--|
  E|-------------------------------|-------------------------------|
            disconnect      the phone.  I'm back the
                                                in  U.  S.  S.  R.
    00:53
    A5                              C5
  e|------- ------- ------- -------|------- ------- ------- -------|
  B|-------------------------------|-------------------------------|
  G|-------------------------------|-------------------------------|
  D|7---7---7---7---7---7---7---7--|10--10--10--10--10--10--10--10-|
  A|7---7---7---7---7---7---7---7--|10--10--10--10--10--10--10--10-|
  E|5---5---5---5---5---5---5---5--|-8---8---8---8---8---8---8---8-|

  e|------- ------- ------- -------|------- ------- ------- -------|
  B|-------------------------------|-------------------------------|
  G|----2-------0------------------|---5--------3------------------|
  D|----2-------2-------4----------|---5--------5-------7----------|
  A|0-----------------------3H4P3H4|3-----------------------6--H--7|
  E|-------------------------------|-------------------------------|
                                       You       know        you are,
                                          don't   how
                                                     lucky

    D5
  e|------- ------- ------- -------|------- ------- ------- -------|
  B|-------------------------------|-------------------------------|
  G|-------------------------------|-------------------------------|
  D|12--12--12--12--12--12--12--12-|12--12------12------12------12-|
  A|12--12--12--12--12--12--12--12-|12--12------12------12------12-|
  E|10--10--10--10--10--10--10--10-|10-\10------10------10------10-|

  e|------- ------- ------- -------|------- ------- ------- -------|
  B|-------------------------------|-------------------------------|
  G|----7-------5------------------|-------------------------------|
  D|----7-------7-------9----------|-------------------------------|
  A|5-----------------------8--H--9|5------------------------------|
  E|-------------------------------|-------------------------------|
                boy                     Back    in  U.  S.      Back
                                                  the

  e|------- ------- ------- -------|------- -------|
  B|-------------------------------|---------------|
  G|-------------------------------|---------------|
  D|----10------10------10------10-|----10------10-|
  A|----12------12------12------12-|----12------12-|
  E|-------------------------------|---------------|
        in  U.  S.      Back    in  U.  S.  S.  R.
          the                     the


    A5      A6  A5
  e|------- ------- ------- -------|------- ------- ------- -------|
  B|-------------------------------|-------------------------------|
  G|-------------------------------|-------------------------------|
  D|7---7---7---7---7---7---7---7--|7---7---7---7---7---7---7---7--|
  A|7---7---9---7---7---7---7---7--|7---7---7---7---7---7---7---7--|
  E|5---5---5---5---5---5---5---5--|5---5---5---5---5---5---5---5--|
                                                        Well    the

    01:05
    D5
  e|------- ------- ------- -------|------- ------- ------- -------|
  B|-------------------------------|-------------------------------|
  G|-------------------------------|-------------------------------|
  D|12--12--12--12--12--12--12--12|12---12--12--12--12--12--12--12-|
  A|12--12--12--12--12--12--12--12|12---12--12--12--12--12--12--12-|
  E|10--10--10--10--10--10--10--10|10---10--10--10--10--10--10--10-|
    Ukraine         girls   really  knock   me  out             They


    A5
  e|------- ------- ------- -------|------- ------- ------- -------|
  B|-------------------------------|-------------------------------|
  G|-------------------------------|-------------------------------|
  D|7---7---7---7---7---7---7---7--|7---7---7---7---7---7---7---7--|
  A|7---7---9---7---7---7---7---7--|7---7---7---7---7---7---7---7--|
  E|5---5---5---5---5---5---5---5--|5---5---5---5---5---5---5---5--|
    leave   the     West    behind                              And


    D5              C#5             C5              B5
  e|------- ------- ------- -------|------- ------- ------- -------|
  B|-------------------------------|-------------------------------|
  G|-------------------------------|-------------------------------|
  D|12--12--12--12--11--11--11--11-|10--10--10--10--9---9---9---9--|
  A|12--12--12--12--11--11--11--11-|10--10--10--10--9---9---9---9--|
  E|10--10--10--10---9---9---9---9-|-8---8---8---8--7---7---7---7--|
     Moscow         girls  make me  sing and     shout          that


    E7                              D7
  e|------- ------- ------- -------|------- ------- ------- -------|
  B|5---5---5---5---5---5---5---5--|3---3---3---3---3---3---3---3--|
  G|7---7---7---7---7---7---7---7--|5---5---5---5---5---5---5---5--|
  D|6---6---6---6---6---6---6---6--|4---4---4---4---4---4---4---4--|
  A|7---7---7---7---7---7---7---7--|5---5---5---5---5---5---5---5--|
  E|-------------------------------|-------------------------------|
    Georgia's        on my  my  my  my  my  my  my  my  my      mind
            always

    A5                              E7
  e|------- ------- ------- -------|------- ------- ------- -------|
  B|-------------------------------|----5---5---5---5---5---5---5--|
  G|-------------------------------|----7---7---7---7---7---7---7--|
  D|7---7---7---7---7---7---7---7--|----6---6---6---6---6---6---6--|
  A|7---7---7---7---7---7---7---7--|----7---7---7---7---7---7---7--|
  E|5---5---5---5---5---5---5---5--|-------------------------------|

    01::22
    SOLO

    A5                              D5
  e|------- ------- ------- -------|------- ------- ------- -------|
  B|13B1515-13B1515-13B1515-13B1515|13B1513B1513B15---------1515R13|
  G|-------------------------------|-------------------------------|
  D|-------------------------------|-------------------------------|
  A|-------------------------------|-------------------------------|
  E|-------------------------------|-------------------------------|

    C5                              D5
  e|------- ------- ------- -------|------- ------- ------- -------|
  B|--------15B17R15---------------|-------------------------------|
  G|----------------14--14------14-|----------------------------14-|
  D|-------------------------------|-------------------------------|
  A|-------------------------------|-------------------------------|
  E|-------------------------------|-------------------------------|


    A5                              D5
  e|------- ------- ------- -------|------- ------- ------- -------|
  B|13B15-R-1313B15----R13--13B15-R|14-B15--R--14-B-15---R--13-----|
  G|-------------------------------|-------------------------------|
  D|-------------------------------|-------------------------------|
  A|-------------------------------|-------------------------------|
  E|-------------------------------|-------------------------------|


    C5                              D5
  e|------- ------- ------- -------|------- ------- ------- -------|
  B|--------15B17R15---------------|-------------------------------|
  G|----------------14---14-----14-\----14\------------------------|
  D|-------------------------------|-------\12-10B11---------------|
  A|-------------------------------|-------------------------------|
  E|-------------------------------|-------------------------------|
                                        I'm back  the
                                                in  U.  S.  S.  R.

    01:36
    A5                              C5
  e|------- ------- ------- -------|------- ------- ------- -------|
  B|-------------------------------|-------------------------------|
  G|-------------------------------|-------------------------------|
  D|7---7---7---7---7---7---7---7--|10--10--10--10--10--10--10--10-|
  A|7---7---7---7---7---7---7---7--|10--10--10--10--10--10--10--10-|
  E|5---5---5---5---5---5---5---5--|-8---8---8---8---8---8---8---8-|

  e|------- ------- ------- -------|------- ------- ------- -------|
  B|-------------------------------|-------------------------------|
  G|----2-------0------------------|---5--------3------------------|
  D|----2-------2-------4----------|---5--------5-------7----------|
  A|0-----------------------3H4P3H4|3-----------------------6--H--7|
  E|-------------------------------|-------------------------------|
                                       You       know        you are,
                                          don't   how
                                                     lucky

    D5
  e|------- ------- ------- -------|------- ------- ------- -------|
  B|-------------------------------|-------------------------------|
  G|-------------------------------|-------------------------------|
  D|12--12--12--12--12--12--12--12-|12-----------------------------|
  A|12--12--12--12--12--12--12--12-|12-----------------------------|
  E|10--10--10--10--10--10--10--10-|10-\---------------------------|

  e|------- ------- ------- -------|------- ------- ------- -------|
  B|-------------------------------|-------------------------------|
  G|----7-------5------------------|-------------------------------|
  D|----7-------7-------9----------|-------------------------------|
  A|5-----------------------8--H--9|5------------------------------|
  E|-------------------------------|-------------------------------|
                boy                     Back    in  U.  S.  S.  R.
                                                  the


    A5
  e|------- ------- ------- -------|------- ------- ------- -------|
  B|-------------------------------|-------------------------------|
  G|-------------------------------|-------------------------------|
  D|7---7---7---7---7---7---7---7--|7---7---7---7---7---7---7---7--|
  A|7---7---7---7---7---7---7---7--|7---7---7---7---7---7---7---7--|
  E|5---5---5---5---5---5---5---5--|5---5---5---5---5---5---5---5--|

  e|------- ------- ------- -------|------- ------- ------- -------|
  B|-------------------------------|-------------------------------|
  G|-------------------------------|-------------------------------|
  D|-------------------------------|-------------------------------|
  A|-------------------------------|0-------2-------3-------4------|
  E|-------------------------------|-------------------------------|
                                                        Well    the

    01:46
    D5
  e|------- ------- ------- -------|------- ------- ------- -------|
  B|-------------------------------|-------------------------------|
  G|-------------------------------|-------------------------------|
  D|12--12--12--12--12--12--12--12-|12--12--12--12--12--12--12--12-|
  A|12--12--12--12--12--12--12--12-|12--12--12--12--12--12--12--12-|
  E|10--10--10--10--10--10--10--10-|10--10--10--10--10--10--10--10-|

  e|------- ------- ------- -------|------- ------- ------- -------|
  B|-------------------------------|-------------------------------|
  G|-------------------------------|-------------------------------|
  D|12---12---------12---12--------|12---12---------12---12--------|
  A|12---12---------12---12--------|12---12---------12---12--------|
  E|10---10---------10---10--------|10---10---------10---10--------|
    Ukraine         girls   really  knock   me  out             They
    (Oooooooooooooooooooooooooooooooooooooooooooooooooooooooooooooo


    A5
  e|------- ------- ------- -------|------- ------- ------- -------|
  B|-------------------------------|-------------------------------|
  G|-------------------------------|-------------------------------|
  D|7---7---7---7---7---7---7---7--|7---7---7---7---7---7---7---7--|
  A|7---7---9---7---7---7---7---7--|7---7---7---7---7---7---7---7--|
  E|5---5---5---5---5---5---5---5--|5---5---5---5---5---5---5---5--|
    leave   the     West    behind                              and
    ooooooooooooooooooooooooooooooooooooooooooooohhhhhhhhhh)


    D5              C#5             C5              B5
  e|------- ------- ------- -------|------- ------- ------- -------|
  B|-------------------------------|-------------------------------|
  G|-------------------------------|-------------------------------|
  D|12--12--12--12--11-11---11--11-|10--10--10--10--9---9---9---9--|
  A|12--12--12--12--11-11---11--11-|10--10--10--10--9---9---9---9--|
  E|10--10--10--10---9--9----9---9-|-8---8---8---8--7---7---7---7--|
    Moscow          girls  make me  sing and     shout          that
    (Oooooooooooooooooooooooooooooooooooooooooooooooooooooooooooooo


    E7                              D7
  e|------- ------- ------- -------|------- ------- ------- -------|
  B|5---5---5---5---5---5---5---5--|3---3---3---3---3---3---3---3--|
  G|7---7---7---7---7---7---7---7--|5---5---5---5---5---5---5---5--|
  D|6---6---6---6---6---6---6---6--|4---4---4---4---4---4---4---4--|
  A|7---7---7---7---7---7---7---7--|5---5---5---5---5---5---5---5--|
  E|-------------------------------|-------------------------------|
    Georgia's       on  my  my  my  my  my  my  my  my  my      mind
            always
    ooooooooooooooooooooooooooooooooooooooooooooooooooooohhhhhh

    A5                              E7
  e|------- ------- ------- -------|------- ------- ------- -------|
  B|-------------------------------|----5---5---5---5---5---5---5--|
  G|-------------------------------|----7---7---7---7---7---7---7--|
  D|7---7---7---7---7---7---7---7--|----6---6---6---6---6---6---6--|
  A|7---7---7---7---7---7---7---7--|----7---7---7---7---7---7---7--|
  E|5---5---5---5---5---5---5---5--|-------------------------------|
                                Oh,                             Show

    02:03
    A5                              D5
  e|------- ------- ------- -------|------- ------- ------- -------|
  B|-------------------------------|-------------------------------|
  G|-------------------------------|7---7---7---7---7---7---7---7--|
  D|7---7---7---7---7---7---7---7--|7---7---7---7---7---7---7---7--|
  A|7---7---9---7---7---7---9---7--|5---5---5---5---5---5---5---5--|
  E|5---5---5---5---5---5---5---5--|-------------------------------|

  e|1717171717171717171717171717171717171717171717171717171717171717
  B|-------------------------------|-------------------------------|
  G|-------------------------------|-------------------------------|
  D|-------------------------------|-------------------------------|
  A|-------------------------------|-------------------------------|
  E|-------------------------------|-------------------------------|
        me  round   snow    mountains   down    South           take
                your    peaked      way


    C5                              D5
  e|------- ------- ------- -------|------- ------- ------- -------|
  B|-------------------------------|-------------------------------|
  G|5---5---5---5---5---5---5---5--|7---7---7---7---7---7---7---7--|
  D|5---5---5---5---5---5---5---5--|7---7---7---7---7---7---7---7--|
  A|3---3---3---3---3---3---3---3--|5---5---5---5---5---5---5---5--|
  E|-------------------------------|-------------------------------|

  e|1717171717171717171717171717171717171717171717171717171717171717
  B|-------------------------------|-------------------------------|
  G|-------------------------------|-------------------------------|
  D|-------------------------------|-------------------------------|
  A|-------------------------------|-------------------------------|
  E|-------------------------------|-------------------------------|
        me  to  your            farm                            Let
                    daddy's


    A5                              D5
  e|------- ------- ------- -------|------- ------- ------- -------|
  B|-------------------------------|-------------------------------|
  G|-------------------------------|7---7---7---7---7---7---7---7--|
  D|7---7---7---7---7---7---7---7--|7---7---7---7---7---7---7---7--|
  A|7---7---9---7---7---7---9---7--|5---5---5---5---5---5---5---5--|
  E|5---5---5---5---5---5---5---5--|-------------------------------|

  e|1717171717171717171717171717171717171717171717171717171717171717
  B|-------------------------------|-------------------------------|
  G|-------------------------------|-------------------------------|
  D|-------------------------------|-------------------------------|
  A|-------------------------------|-------------------------------|
  E|-------------------------------|-------------------------------|
        me  hear    balalaikas      ringing     out             Come
                your


    C5                              D5
  e|------- ------- ------- -------|------- ------- ------- -------|
  B|-------------------------------|-------------------------------|
  G|5---5---5---5---5---5---5---5--|7---7---7---7---7---7---7---7--|
  D|5---5---5---5---5---5---5---5--|7---7---7---7---7---7---7---7--|
  A|3---3---3---3---3---3---3---3--|5---5---5---5---5---5---5---5--|
  E|-------------------------------|-------------------------------|

  e|1717171717171717171717171717171717171717171717171717171717-\---|
  B|-------------------------------|-------------------------------|
  G|-------------------------------|-------------------------------|
  D|-------------------------------|-------------------------------|
  A|-------------------------------|-------------------------------|
  E|-------------------------------|-------------------------------|
        and keep    comrade     warm,   I'm back the U. S.  S.  R.
                your                            in

    02:16
    A5                              C5
  e|------- ------- ------- -------|------- ------- ------- -------|
  B|-------------------------------|-------------------------------|
  G|-------------------------------|-------------------------------|
  D|7---7---7---7---7---7---7---7--|10--10--10--10--10--10--10--10-|
  A|7---7---7---7---7---7---7---7--|10--10--10--10--10--10--10--10-|
  E|5---5---5---5---5---5---5---5--|-8---8---8---8---8---8---8---8-|

  e|------- ------- ------- -------|------- ------- ------- -------|
  B|-------------------------------|-------------------------------|
  G|----2-------0------------------|---5--------3------------------|
  D|----2-------2-------4----------|---5--------5-------7----------|
  A|0-----------------------3H4P3H4|3-----------------------6--H--7|
  E|-------------------------------|-------------------------------|
                Hey!                     You     know        you are,
                                          don't   how
                                                     lucky

    D5
  e|------- ------- ------- -------|------- ------- ------- -------|
  B|-------------------------------|-------------------------------|
  G|-------------------------------|-------------------------------|
  D|12--12--12--12--12--12--12--12-|12-----------------------------|
  A|12--12--12--12--12--12--12--12-|12-----------------------------|
  E|10--10--10--10--10--10--10--10-|10-\---------------------------|

  e|------- ------- ------- -------|------- ------- ------- -------|
  B|-------------------------------|-------------------------------|
  G|----7-------5------------------|-------------------------------|
  D|----7-------7-------9----------|-------------------------------|
  A|5-----------------------8--H--9|5------------------------------|
  E|-------------------------------|-------------------------------|
                boys                    Back    in  U.  S.  S.  R.
                                                  the


    A5                                  D5  D#5 E5
  e|------- ------- ------- -------|----10- 11--12- ------- -------|
  B|-------------------------------|----10--11--12-----------------|
  G|-------------------------------|----11--12--13-----------------|
  D|7---7---7---7---7---7---7---7--|----12--13--14-----------------|
  A|7---7---7---7---7---7---7---7--|----12--13--14-----------------|
  E|5---5---5---5---5---5---5---5--|----10--11--12-----------------|
                    Oh,                 Let me  tell  you honey


    02:27
    A5
  e|------- ------- ------- -------|------- ------- ------- -------|
  B|-------------------------------|-------------------------------|
  G|----2-------0--------------5/6-|----2-------0------------------|
  D|----2-------2-------4----------|----2-------2-------4----------|
  A|0----------------------/4------|0-----------------------3B4----|
  E|-------------------------------|-------------------------------|
              Yeah  back                I'm  back  in  the U. S. S.
                 I'm                               (Ooooooooooooooo


  e|------- ------- ------- -------|------- ------- ------- -------|
  B|-------------------------------|-------------------------------|
  G|----2-------0------------------|---2--------0------------------|
  D|----2-------2-------4----------|---2--------2-------4----------|
  A|0-----------------------3B4----|0-----------------------3B4----|
  E|-------------------------------|-------------------------------|
    R.                          Yeah,  souvenir
    ooooooooooooooooooooooooooooooooooooooooooooooooooooooooooooooo

  e|------- ------- ------- -------|------- ------- ------- -------|
  B|-------------------------------|-------------------------------|
  G|----2-------0------------------|----2-------0------------------|
  D|----2-------2-------4----------|----2-------2-------4----------|
  A|0-----------------------3B4----|0-----------------------3B4----|
  E|-------------------------------|-------------------------------|
                        Yeaaaaaaaaahhh         in the U. S. S. R.
    ooooooooooooooooooooooooooooooooooooooooooooooooooooooooooooooo

     ¨¨¨¨¨¨¨¨¨¨¨¨¨¨¨¨¨¨¨¨¨¨¨¨¨¨¨¨¨¨¨¨¨¨¨¨¨¨¨¨¨¨¨¨¨¨¨¨¨¨¨¨¨¨¨¨¨¨¨¨¨¨
  e|------- ------- ------- -------|------- ------- ------- -------|
  B|-------------------------------|-------------------------------|
  G|2------------------------------|-------------------------------|
  D|2------------------------------|-------------------------------|
  A|0------------------------------|-------------------------------|
  E|-------------------------------|-------------------------------|

        B  Bend
        R  Release
        /  slide up
        \  slide down
        H  hammer-on
        P  pull-off
        ~  vibrato
        +  harmonic
        x  Mute note
        . - play note like a dot in standard notation
        ^ - ties two notes together
        (. Pause

  ----------------------------------------------------------------

   THE BEATLES  - DEAR PRUDENCE (Lennon & McCartney)from the WHITE
                  ALBUM. Released on 22nd November 1968.

  ----------------------------------------------------------------

  Tabbed by:PJVillanueva


  Dear Prudence, won't you come out to play
  Dear Prudence, greet the brand new day
  The sun is up, the sky is blue
  It's beautiful and so are you
  Dear Prudence won't you come out and play

  Dear Prudence open up your eyes
  Dear Prudence see the sunny skies
  The wind is low the birds will sing
  that you are part of everything
  Dear Prudence won't you open up your eyes?

  Look around round
  Look around round round
  Look around

  Dear Prudence let me see you smile
  Dear Prudence like a little child
  The clouds will be a daisy chain
  So let me see you smile again
  Dear Prudence won't you let me see you smile?

                        (Tune low E string to D)


    INTRO


  e|------- ------- ------- -------|12----- ------- ------- -------|
  B|-------------------------------|-------------------10----------|
  G|-------------------------------|-----------12------------------|
  D|-------------------------------|--------0---------------0------|
  A|-------------------------------|0------------------------------|
  D|-------------------------------|---------------0---------------|
                                    ................Fade in........


  e|10----- ------- ------- -------|8------ ------- ------- -------|
  B|-------------------10----------|-------------------8-----------|
  G|-----------11------------------|------------9------------------|
  D|--------0---------------0------|--------0---------------0------|
  A|0------------------------------|0------------------------------|
  D|-----------------0-------------|---------------0---------------|
    ...............................................................


  e|7------ ------- ------- -------|5------ ------- ------- -------|
  B|-------------------8-----------|-------------------5-----------|
  G|-----------7-------------------|-----------6-------------------|
  D|--------0---------------0------|--------0---------------0------|
  A|0------------------------------|0------------------------------|
  D|----------------0--------------|---------------0---------------|
    ...............................


  e|3------ ------- ------- -------|3------ ------- ------- -------|
  B|-------------------5-----------|-------------------5-----------|
  G|-----------5-------------------|-----------5-------------------|
  D|--------0---------------0------|--------0---------------0------|
  A|0------------------------------|0------------------------------|
  D|----------------0--------------|---------------0---------------|


    ***


  e|2------ ------- ------- -------|2------ ------- ------- -------|
  B|-------------------3-----------|-------------------3-----------|
  G|------------2------------------|------------2------------------|
  D|--------0---------------0------|--------0---------------0------|
  A|0------------------------------|3------------------------------|
  D|----------------0--------------|----------------0--------------|


  e|2------ ------- ------- -------|2------ ------- ------- -------|
  B|--------------------3----------|-------------------3-----------|
  G|------------0------------------|------------0------------------|
  D|--------0---------------0------|--------0---------------0------|
  A|2------------------------------|1------------------------------|
  D|----------------0--------------|-----------------0-------------|
                                                       Dear
                                                       Dear


  e|2------ ------- ------- -------|2------ ------- ------- -------|
  B|-------------------3-----------|-------------------3-----------|
  G|------------2------------------|------------2------------------|
  D|--------0---------------0------|--------0---------------0------|
  A|0------------------------------|3------------------------------|
  D|----------------0--------------|----------------0--------------|
    Prudence
    Prudence


 e|2------ ------- ------- -------|2------ ------- ------- -------|
 B|--------------------3----------|-------------------3-----------|
 G|------------0------------------|------------0------------------|
 D|--------0---------------0------|--------0---------------0------|
 A|2------------------------------|1------------------------------|
 D|----------------0--------------|-----------------0-------------|
                                           Won't you come out  to
                                           Open    up  your


  e|2------ ------- ------- -------|2------ ------- ------- -------|
  B|-------------------3-----------|-------------------3-----------|
  G|------------2------------------|------------2------------------|
  D|--------0---------------0------|--------0---------------0------|
  A|0------------------------------|3------------------------------|
  D|----------------0--------------|----------------0--------------|
    play
    eyes


  e|2------ ------- ------- -------|2------ ------- ------- -------|
  B|--------------------3----------|-------------------3-----------|
  G|------------0------------------|------------0------------------|
  D|--------0---------------0------|--------0---------------0------|
  A|2------------------------------|1------------------------------|
  D|----------------0--------------|-----------------0-------------|
                                                       Dear
                                                       Dear


  e|2------ ------- ------- -------|2------ ------- ------- -------|
  B|-------------------3-----------|-------------------3-----------|
  G|------------2------------------|------------2------------------|
  D|--------0---------------0------|--------0---------------0------|
  A|0------------------------------|3------------------------------|
  D|----------------0--------------|----------------0--------------|
    Prudence
    Prudence


  e|2------ ------- ------- -------|2------ ------- ------- -------|
  B|--------------------3----------|-------------------3-----------|
  G|------------0------------------|------------0------------------|
  D|--------0---------------0------|--------0---------------0------|
  A|2------------------------------|1------------------------------|
  D|----------------0--------------|-----------------0-------------|
                                            Greet the brand new
                                            See the sunny


  e|2------ ------- ------- -------|2------ ------- ------- -------|
  B|-------------------3-----------|-------------------3-----------|
  G|------------2------------------|------------2------------------|
  D|--------0---------------0------|--------0---------------0------|
  A|0------------------------------|3------------------------------|
  D|----------------0--------------|----------------0--------------|
    day
    skies


  e|2------ ------- ------- -------|2------ ------- ------- -------|
  B|--------------------3----------|-------------------3-----------|
  G|------------0------------------|------------0------------------|
  D|--------0---------------0------|--------0---------------0------|
  A|2------------------------------|1------------------------------|
  D|----------------0--------------|-----------------0-------------|
                                                                The
                                                                The


  e|2------ ------- ------- -------|2------ ------- ------- -------|
  B|-------------------3-----------|-------------------3-----------|
  G|------------2------------------|------------2------------------|
  D|--------0---------------0------|--------0---------------0------|
  A|0------------------------------|3------------------------------|
  D|----------------0--------------|----------------0--------------|
    sun     is  up,             the sky     is  blue            It's
    wind    is  low             the birds   will sing           that


  e|2------ ------- ------- -------|2------ ------- ------- -------|
  B|--------------------3----------|-------------------3-----------|
  G|------------0------------------|------------0------------------|
  D|--------0---------------0------|--------0---------------0------|
  A|2------------------------------|1------------------------------|
  D|----------------0--------------|-----------------0-------------|
    beautiful                   and so      are you    Dear
    you     are part            of  everything         Dear

  e|2------ ------- ------- -------|2------ ------- ------- -------|
  B|-------------------3-----------|-------------------3-----------|
  G|------------2------------------|------------2------------------|
  D|--------0---------------0------|--------0---------------0------|
  A|0------------------------------|3------------------------------|
  D|----------------0--------------|----------------0--------------|
    Prudence
    Prudence


  e|0------ ------- ------- -------|3------ ------- ------- -------|
  B|-------------------1-----------|-------------------3-----------|
  G|-----------0-------------------|-----------0-------------------|
  D|--------2---------------2------|--------0---------------0------|
  A|3---------------3--------------|-------------------------------|
  D|-------------------------------|5---------------5--------------|
                    Won't   you     come out                to  play?  ***
                    Won't   you     open       up      your


  e|2------ ------- ------- -------|3------ ------- ------- -------|
  B|-------------------3-----------|-------------------3-----------|
  G|------------2------------------|------------4------------------|
  D|--------0---------------0------|--------0---------------0------|
  A|0------------------------------|0------------------------------|
  D|----------------0--------------|----------------0--------------|

    eyes?


  e|5------ ------- ------- -------|3------ ------- ------- -------|
  B|-------------------5-----------|-------------------3-----------|
  G|------------6------------------|------------4------------------|
  D|--------0---------------0------|--------0---------------0------|
  A|0------------------------------|0------------------------------|
  D|----------------0--------------|----------------0--------------|
                                                            Look a..

  e|2------ ------- ------- -------|3------ ------- ------- -------|
  B|-------------------3-----------|-------------------3-----------|
  G|------------2------------------|------------4------------------|
  D|--------0---------------0------|--------0---------------0------|
  A|0------------------------------|0------------------------------|
  D|----------------0--------------|----------------0--------------|
    round
   (Round       round       round       round       round
  e|------- ------- ------- -------|------- ------- ------- -------|
  B|------------------------6-H-8--|6B7----------------------------|
  G|--------------------7----------|--------7----------------------|
  D|-------------------------------|-------------------------------|
  A|-------------------------------|-------------------------------|
  E|-------------------------------|-------------------------------|


  e|5------ ------- ------- -------|3------ ------- ------- -------|
  B|-------------------5-----------|-------------------3-----------|
  G|------------6------------------|------------4------------------|
  D|--------0---------------0------|--------0---------------0------|
  A|0------------------------------|0------------------------------|
  D|----------------0--------------|----------------0--------------|
                                                            Look a..
    Round       round       round       round       round
  e|------- ------- ------- -------|------- ------- ------- -------|
  B|6-------8-------8-B-10--8------|-------------------------------|
  G|-------------------------------|-------------------------------|
  D|-------------------------------|--------5-------5-P-3----------|
  A|-------------------------------|------------------------5------|
  E|-------------------------------|-------------------------------|


  e|2------ ------- ------- -------|3------ ------- ------- -------|
  B|-------------------3-----------|-------------------3-----------|
  G|------------2------------------|------------4------------------|
  D|--------0---------------0------|--------0---------------0------|
  A|0------------------------------|0------------------------------|
  D|----------------0--------------|----------------0--------------|
    round
    round       round       round       round       round
  e|------- ------- ------- -------|------- ------- ------- -------|
  B|------------------------6B7----|-------------------------------|
  G|7------------------------------|-------------------------------|
  D|-------------------------------|-------------------------------|
  A|-------------------------------|-------------------------------|
  E|-------------------------------|-------------------------------|


  e|5------ ------- ------- -------|3------ ------- ------- -------|
  B|-------------------5-----------|-------------------3-----------|
  G|------------6------------------|------------4------------------|
  D|--------0---------------0------|--------0---------------0------|
  A|0------------------------------|0------------------------------|
  D|----------------0--------------|----------------0--------------|
                                                            Look a..
    Round       round       round       round       round


  e|------- ------- ------- -------|------- ------- ------- -------|
  B|6-------8-------8-B-10--8------|-------------------------------|
  G|-------------------------------|-------------------------------|
  D|-------------------------------|--------5-------5-P-3----------|
  A|-------------------------------|------------------------5------|
  E|-------------------------------|-------------------------------|


  e|1------ ------- ------- -------|4------ ------- ------- -------|
  B|-------------------1-----------|-------------------4-----------|
  G|------------2------------------|------------5------------------|
  D|--------0---------------0------|--------0---------------0------|
  A|0------------------------------|0------------------------------|
  D|----------------0--------------|----------------0--------------|
    round
    Round)


  e|3------ ------- ------- -------|
  B|-------------------3-----------|
  G|------------4------------------|
  D|--------0---------------0------|
  A|0------------------------------|
  D|----------------0--------------|

  e|2------ ------- ------- -------|2------ ------- ------- -------|
  B|-------------------3-----------|-------------------3-----------|
  G|------------2------------------|------------2------------------|
  D|--------0---------------0------|--------0---------------0------|
  A|0------------------------------|3------------------------------|
  D|----------------0--------------|----------------0--------------|


  e|2------ ------- ------- -------|2------ ------- ------- -------|
  B|--------------------3----------|-------------------3-----------|
  G|------------0------------------|------------0------------------|
  D|--------0---------------0------|--------0---------------0------|
  A|2------------------------------|1------------------------------|
  D|----------------0--------------|-----------------0-------------|
                                                       Dear

  e|2------ ------- ------- -------|2------ ------- ------- -------|
  B|-------------------3-----------|-------------------3-----------|
  G|------------2------------------|------------2------------------|
  D|--------0---------------0------|--------0---------------0------|
  A|0------------------------------|3------------------------------|
  D|----------------0--------------|----------------0--------------|
    Prudence
  e|------- ------- ------- -------|------- ------- ------- -------|
  B|------------------------7H8----|--------7----------------------|
  G|-------------------7-----------|----------------7--------------|
  D|-------------------------------|-------------------------------|
  A|-------------------------------|-------------------------------|
  E|-------------------------------|-------------------------------|


  e|2------ ------- ------- -------|2------ ------- ------- -------|
  B|--------------------3----------|-------------------3-----------|
  G|------------0------------------|------------0------------------|
  D|--------0---------------0------|--------0---------------0------|
  A|2------------------------------|1------------------------------|
  D|----------------0--------------|-----------------0-------------|
                                            Let me  see you
  e|------- ------- ------- -------|------- ------- ------- -------|
  B|------------------------7-H-8--|7-------0---------------0------|
  G|--------7-------7--------------|-------------------------------|
  D|-------------------------------|----------------4--------------|
  A|-------------------------------|-------------------------------|
  E|-------------------------------|-------------------------------|


  e|2------ ------- ------- -------|2------ ------- ------- -------|
  B|-------------------3-----------|-------------------3-----------|
  G|------------2------------------|------------2------------------|
  D|--------0---------------0------|--------0---------------0------|
  A|0------------------------------|3------------------------------|
  D|----------------0--------------|----------------0--------------|
    smile
  e|------- ------- ------- -------|------- ------- ------- -------|
  B|------------------------7-H-8--|--------7----------------------|
  G|--------------------7----------|----------------7--------------|
  D|-------------------------------|-------------------------------|
  A|-------------------------------|-------------------------------|
  E|-------------------------------|-------------------------------|


  e|2------ ------- ------- -------|2------ ------- ------- -------|
  B|--------------------3----------|-------------------3-----------|
  G|------------0------------------|------------0------------------|
  D|--------0---------------0------|--------0---------------0------|
  A|2------------------------------|1------------------------------|
  D|----------------0--------------|-----------------0-------------|
                                                       Dear
  e|------- ------- ------- -------|------- ------- ------- -------|
  B|------------------------7-H-8--|7------------------------------|
  G|----------------7--------------|-------------------------------|
  D|-------------------------------|--------0-------4--------------|
  A|-------------------------------|-------------------------------|
  E|-------------------------------|-------------------------------|


  e|2------ ------- ------- -------|2------ ------- ------- -------|
  B|-------------------3-----------|-------------------3-----------|
  G|------------2------------------|------------2------------------|
  D|--------0---------------0------|--------0---------------0------|
  A|0------------------------------|3------------------------------|
  D|----------------0--------------|----------------0--------------|
         Prudence
  e|------- ------- ------- -------|------- ------- ------- -------|
  B|----------------------7H8------|--------7----------------------|
  G|-------------------------------|----------------7--------------|
  D|-------------------------------|-------------------------------|
  A|-------------------------------|-------------------------------|
  E|-------------------------------|-------------------------------|


  e|2------ ------- ------- -------|2------ ------- ------- -------|
  B|--------------------3----------|-------------------3-----------|
  G|------------0------------------|------------0------------------|
  D|--------0---------------0------|--------0---------------0------|
  A|2------------------------------|1------------------------------|
  D|----------------0--------------|-----------------0-------------|
                                            Like a  litlle
  e|------- ------- ------- -------|------- ------- ------- -------|
  B|------------------------7-H-8--|7------------------------------|
  G|-------------------------------|-------------------------------|
  D|-------------------------------|--------0-------4--------------|
  A|-------------------------------|-------------------------------|
  E|-------------------------------|-------------------------------|


  e|2------ ------- ------- -------|2------ ------- ------- -------|
  B|-------------------3-----------|-------------------3-----------|
  G|------------2------------------|------------2------------------|
  D|--------0---------------0------|--------0---------------0------|
  A|0------------------------------|3------------------------------|
  D|----------------0--------------|----------------0--------------|
    child
  e|------- ------- ------- -------|------- ------- ------- -------|
  B|------------------------7-H-8--|--------7----------------------|
  G|-------------------------------|----------------7--------------|
  D|-------------------------------|-------------------------------|
  A|-------------------------------|-------------------------------|
  E|-------------------------------|-------------------------------|


  e|2------ ------- ------- -------|2------ ------- ------- -------|
  B|--------------------3----------|-------------------3-----------|
  G|------------0------------------|------------0------------------|
  D|--------0---------------0------|--------0---------------0------|
  A|2------------------------------|1------------------------------|
  D|----------------0--------------|-----------------0-------------|
                                                                The
  e|------- ------- ------- -------|------- ------- ------- -------|
  B|------------------------7-H-8--|7------------------------------|
  G|--------------------7----------|-------------------------------|
  D|-------------------------------|----------------4-------0------|
  A|-------------------------------|-------------------------------|
  E|-------------------------------|-------------------------------|


  e|2------ ------- ------- -------|2------ ------- ------- -------|
  B|-------------------3-----------|-------------------3-----------|
  G|------------2------------------|------------2------------------|
  D|--------0---------------0------|--------0---------------0------|
  A|0------------------------------|3------------------------------|
  D|----------------0--------------|----------------0--------------|
    clouds  will be             a   daisy       chain           So
  e|------- ------- ------- -------|------- ------- ------- -------|
  B|--------------------7-H-8------|7------------------------------|
  G|-------------------------------|-------------------------------|
  D|-------------------------------|-------------------------------|
  A|-------------------------------|-------------------------------|
  E|-------------------------------|-------------------------------|


  e|2------ ------- ------- -------|2------ ------- ------- -------|
  B|--------------------3----------|-------------------3-----------|
  G|------------0------------------|------------0------------------|
  D|--------0---------------0------|--------0---------------0------|
  A|2------------------------------|1------------------------------|
  D|----------------0--------------|-----------------0-------------|
    let     me  see             you smile    again     Dear
  e|------- ------- ------- -------|------- ------- ------- -------|
  B|------------------------7------|6---------------5--------------|
  G|----------------4--------------|-------------------------------|
  D|-------------------------------|-------------------------------|
  A|-------------------------------|-------------------------------|
  E|-------------------------------|-------------------------------|


  e|2------ ------- ------- -------|2------ ------- ------- -------|
  B|-------------------3-----------|-------------------3-----------|
  G|------------2------------------|------------2------------------|
  D|--------0---------------0------|--------0---------------0------|
  A|0------------------------------|3------------------------------|
  D|----------------0--------------|----------------0--------------|
    Prudence
  e|------- ------- ------- -------|------- ------- ------- -------|
  B|------------------------7-H-8--|--------7---------------7------|
  G|--------------------7----------|----------------7--------------|
  D|-------------------------------|-------------------------------|
  A|-------------------------------|-------------------------------|
  E|-------------------------------|-------------------------------|


  e|0------ ------- ------- -------|3------ ------- ------- -------|
  B|-------------------1-----------|-------------------3-----------|
  G|-----------0-------------------|-----------0-------------------|
  D|--------2---------------2------|--------0---------------0------|
  A|3---------------3--------------|-------------------------------|
  D|-------------------------------|5---------------5--------------|
                    Won't   you     let     me  see     you
  e|------- ------- ------- -------|------- ------- ------- -------|
  B|-------------------------------|8-------10------10-B-12--------|
  G|9---------------9--------------|-------------------------------|
  D|-------------------------------|-------------------------------|
  A|-------------------------------|-------------------------------|
  E|-------------------------------|-------------------------------|


  e|2------ ------- 2------ ----2--|2---2-- 2------ 2------ ----2--|
  B|3---------------3-----------3--|3---3---3-------3-----------3--|
  G|2---------------2-----------2--|2---2---2-------2-----------2--|
  D|0---------------0-----------0--|0---0---0-------0-----------0--|
  A|-------------------------------|3---3---3-------3-----------3--|
  D|-------------------------------|-------------------------------|
    smile?
  e|------- ------- ------- -------|------- ------- ------- -------|
  B|10-----------------------------|-------------------------------|
  G|-------------------------------|-------------------------------|
  D|-------------------------------|-------------------------------|
  A|-------------------------------|-------------------------------|
  E|-------------------------------|-------------------------------|


  e|2---2-- 2------ 2------ ----2--|2---2-- 2------ 2------ -------|
  B|3---3---3-------3-----------3--|3---3---3-------3--------------|
  G|0---0---0-------0-----------0--|0---0---0-------0--------------|
  D|0---0---0-------0-----------0--|0---0---0-------0--------------|
  A|2---2---2-------2-----------2--|1---1---1-------1--------------|
  D|-------------------------------|-------------------------------|
                                                    Dear


  e|2------ ------- 2------ ----2--|2---2-- 2------ 2------ ----2----|
  B|3---------------3-----------3--|3---3---3-------3-----------3----|
  G|2---------------2-----------2--|2---2---2-------2-----------2----|
  D|0---------------0-----------0--|0---0---0-------0-----------0----|
  A|-------------------------------|3---3---3-------3-----------3----|
 D|-------------------------------|----------------------------------|
    Prudence
  e|------- ------- ------- -------|------- ------- ------- -------|
  B|-------------------------------|-------------------------------|
  G|-------------------------------|-------------------------------|
  D|4------------------------------|4---B---5-------7------ 7-B-9--|
  A|-------------------------------|-------------------------------|
  E|-------------------------------|-------------------------------|

  e|------- ------- ------- -------|------- ------- ------- -------|
  B|-------------------------------|-------------------------------|
  G11------------------------------11---B--12------14------14-B-16-|
  D|-------------------------------|-------------------------------|
  A|-------------------------------|-------------------------------|
  E|-------------------------------|-------------------------------|

  e|2---2-- 2------ 2------ ----2--|2---2-- 2------ 2------ -------|
  B|3---3---3-------3-----------3--|3---3---3-------3--------------|
  G|0---0---0-------0-----------0--|0---0---0-------0--------------|
  D|0---0---0-------0-----------0--|0---0---0-------0--------------|
  A|2---2---2-------2-----------2--|1---1---1-------1--------------|
  D|-------------------------------|-------------------------------|
                                            won't you come out  to
  e|------- ------- ------- -------|------- ------- ------- -------|
  B|-------------------------------|-------------------------------|
  G|-------------------------------|7-------9---R---7--------------|
  D|-------------------------------|------------------------7------|
  A|-------------------------------|-------------------------------|
  E|-------------------------------|-------------------------------|

  e|------- ------- ------- -------|------- ------- ------- -------|
  B|-------------------------------|15------17---R--15-------------|
  G|-------------------------------|------------------------14-----|
  D|-------------------------------|-------------------------------|
  A|-------------------------------|-------------------------------|
  E|-------------------------------|-------------------------------|

  e|2------ ------- 2------ -------|2------ ------- 2------ -------|
  B|3---------------3--------------|3---------------3--------------|
  G|2---------------2--------------|2---------------2--------------|
  D|0---------------0--------------|0---------------0--------------|
  A|-------------------------------|3---------------3--------------|
  D|-------------------------------|-------------------------------|
    play?
  e|------- ------- ------- -------|------- ------- ------- -------|
  B|-------------------------------|-------------------------------|
  G|-------------------------------|-------------------------------|
  D|-------------------------------|4---B---5-------7------ 7-B-9--|
  A|-------------------------------|-------------------------------|
  E|-------------------------------|-------------------------------|

  e|------- ------- ------- -------|------- ------- ------- -------|
  B|-------------------------------|-------------------------------|
  G|-------------------------------11---B--12------14------14-B-16-|
  D|-------------------------------|-------------------------------|
  A|-------------------------------|-------------------------------|
  E|-------------------------------|-------------------------------|


  e|2------ ------- 2------ -------|2------ ------- 2------ -------|
  B|3---------------3--------------|3---------------3--------------|
  G|0---------------0--------------|0---------------0--------------|
  D|0---------------0--------------|0---------------0--------------|
  A|2---------------2--------------|1---------------1--------------|
  D|-------------------------------|-------------------------------|
                                                        Dear
  e|------- ------- ------- -------|------- ------- ------- -------|
  B|-------------------------------|-------------------------------|
  G|-------------------------------|7-------9---R---7--------------|
  D|-------------------------------|------------------------7------|
  A|-------------------------------|-------------------------------|
  E|-------------------------------|-------------------------------|

  e|------- ------- ------- -------|------- ------- ------- -------|
  B|-------------------------------|15------17---R--15-------------|
  G|-------------------------------|------------------------14-----|
  D|-------------------------------|-------------------------------|
  A|-------------------------------|-------------------------------|
  E|-------------------------------|-------------------------------|


  e|2------ ------- 2------ -------|2------ ------- 2------ -------|
  B|3---------------3--------------|3---------------3--------------|
  G|2---------------2--------------|2---------------2--------------|
  D|0---------------0--------------|0---------------0--------------|
  A|-------------------------------|3---------------3--------------|
  D|-------------------------------|-------------------------------|
    Prudence
  e|------- ------- ------- -------|------- ------- ------- -------|
  B|-------------------------------|-------------------------------|
  G|-------------------------------|-------------------------------|
  D|-------------------------------|4---B---5-------7------ 7-B-9--|
  A|-------------------------------|-------------------------------|
  E|-------------------------------|-------------------------------|

  e|------- ------- ------- -------|------- ------- ------- -------|
  B|-------------------------------|-------------------------------|
  G|-------------------------------11---B--12------14------14-B-16-|
  D|-------------------------------|-------------------------------|
  A|-------------------------------|-------------------------------|
  E|-------------------------------|-------------------------------|

  e|2------ ------- 2------ -------|2------ ------- 2------ -------|
  B|3---------------3--------------|3---------------3--------------|
  G|0---------------0--------------|0---------------0--------------|
  D|0---------------0--------------|0---------------0--------------|
  A|2---------------2--------------|1---------------1--------------|
  D|-------------------------------|-------------------------------|
                                            Greet the brand new
  e|------- ------- ------- -------|------- ------- ------- -------|
  B|-------------------------------|-------------------------------|
  G|-------------------------------|7-------9---R---7--------------|
  D|-------------------------------|------------------------7------|
  A|-------------------------------|-------------------------------|
  E|-------------------------------|-------------------------------|

  e|------- ------- ------- -------|------- ------- ------- -------|
  B|-------------------------------|15------17---R--15-------------|
  G|-------------------------------|------------------------14-----|
  D|-------------------------------|-------------------------------|
  A|-------------------------------|-------------------------------|
  E|-------------------------------|-------------------------------|

  e|2------ ------- 2------ -------|2------ ------- 2------ -------|
  B|3---------------3--------------|3---------------3--------------|
  G|2---------------2--------------|2---------------2--------------|
  D|0---------------0--------------|0---------------0--------------|
  A|-------------------------------|3---------------3--------------|
  D|-------------------------------|-------------------------------|
    day.
  e|------- ------- ------- -------|------- ------- ------- -------|
  B|-------------------------------|-------------------------------|
  G|-------------------------------|-------------------------------|
  D|-------------------------------|4---B---5-------7------ 7-B-9--|
  A|-------------------------------|-------------------------------|
  E|-------------------------------|-------------------------------|

  e|------- ------- ------- -------|------- ------- ------- -------|
  B|-------------------------------|-------------------------------|
  G|-------------------------------11---B--12------14------14-B-16-|
  D|-------------------------------|-------------------------------|
  A|-------------------------------|-------------------------------|
  E|-------------------------------|-------------------------------|

  e|2------ ------- 2------ -------|2------ ------- 2------ -------|
  B|3---------------3--------------|3---------------3--------------|
  G|0---------------0--------------|0---------------0--------------|
  D|0---------------0--------------|0---------------0--------------|
  A|2---------------2--------------|1---------------1--------------|
  D|-------------------------------|-------------------------------|
                                                            The
  e|------- ------- ------- -------|------- ------- ------- -------|
  B|-------------------------------|-------------------------------|
  G|-------------------------------|7-------9---R---7--------------|
  D|-------------------------------|------------------------7------|
  A|-------------------------------|-------------------------------|
  E|-------------------------------|-------------------------------|

  e|------- ------- ------- -------|------- ------- ------- -------|
  B|-------------------------------|15------17---R--15-------------|
  G|-------------------------------|------------------------14-----|
  D|-------------------------------|-------------------------------|
  A|-------------------------------|-------------------------------|
  E|-------------------------------|-------------------------------|

  e|2------ 2------ 2------ 2------|2------ 2------ 2------ 2------|
  B|3-------3-------3-------3------|3-------3-------3-------3------|
  G|2-------2-------2-------2------|2-------2-------2-------2------|
  D|0-------0-------0-------0------|0-------0-------0-------0------|
  A|-------------------------------|3-------3-------3-------3------|
  D|-------------------------------|-------------------------------|
    sun             is      up                              The
  e|------- ------- ------- -------|------- ------- ------- -------|
  B|-------------------------------|-------------------------------|
  G|-------------------------------|------------------------7------|
  D|-------------------------------|4---H---5-------7--------------|
  A|------------------------5------|-------------------------------|
  E|-------------------------------|-------------------------------|

  e|------- ------- ------- -------|------- ------- ------- 10-----|
  B|-------------------------------|----------------10-------------|
  G|-------------------------------|11---H--12---------------------|
  D|-----------------------12------|-------------------------------|
  A|-------------------------------|-------------------------------|
  E|-------------------------------|-------------------------------|

  e|2------ 2------ 2------ 2------|2------ 2------ 2------ 2------|
  B|3-------3-------3-------3------|3-------3-------3-------3------|
  G|0-------0-------0-------0------|0-------0-------0-------0------|
  D|0-------0-------0-------0------|0-------0-------0-------0------|
  A|2-------2-------2-------2------|1-------1-------1-------1------|
  D|-------------------------------|-------------------------------|
    sky             is      blue                            It's
  e|------- ------- ------- -------|------- ------- ------- -------|
  B|-------------------------------|------------------------7------|
  G|-------------------------------|--------4-------7--------------|
  D|------------------------4------|7------------------------------|
  A|-------------------------------|-------------------------------|
  E|-------------------------------|-------------------------------|

  e|------- ------- ------- -------|------- ------- 10----- 14-----|
  B|-------------------------------|10------12---------------------|
  G|------------------------11-----|-------------------------------|
  D|-------------------------------|-------------------------------|
  A|-------------------------------|-------------------------------|
  E|-------------------------------|-------------------------------|

  e|2------ 2------ 2------ 2------|2------ 2------ 2------ 2------|
  B|3-------3-------3-------3------|3-------3-------3-------3------|
  G|2-------2-------2-------2------|2-------2-------2-------2------|
  D|0-------0-------0-------0------|0-------0-------0-------0------|
  A|-------------------------------|3-------3-------3-------3------|
  D|-------------------------------|-------------------------------|
    beautiful                                               and
  e|------- ------- ------- -------|------- ------- ------- 7------|
  B|-------------------------------|--------5-------7--------------|
  G|-------------------------------|7------------------------------|
  D|------------------------7------|-------------------------------|
  A|-------------------------------|-------------------------------|
  E|-------------------------------|-------------------------------|

  e|------- ------- ------- -------|------- 12----- 14----- 17-----|
  B|-------------------------------|15-----------------------------|
  G|------------------------14-----|-------------------------------|
  D|-------------------------------|-------------------------------|
  A|-------------------------------|-------------------------------|
  E|-------------------------------|-------------------------------|

  e|2------ 2------ 2------ 2------|2------ 2------ 2------ 2------|
  B|3-------3-------3-------3------|3-------3-------3-------3------|
  G|0-------0-------0-------0------|0-------0-------0-------0------|
  D|0-------0-------0-------0------|0-------0-------0-------0------|
  A|2-------2-------2-------2------|1-------1-------1-------1------|
  D|-------------------------------|-------------------------------|
    so              are     you                         Dear
  e|------- ------- ------- -------|------- ------- ------- 10-----|
  B|-------------------------------|7-------8-------10-------------|
  G|------------------------9------|-------------------------------|
  D|-------------------------------|-------------------------------|
  A|-------------------------------|-------------------------------|
  E|-------------------------------|-------------------------------|

  e|------- ------- ------- -------|------- 15----- 17----- 20-----|
  B|------------------------17-----|19-----------------------------|
  G|-------------------------------|-------------------------------|
  D|-------------------------------|-------------------------------|
  A|-------------------------------|-------------------------------|
  E|-------------------------------|-------------------------------|

  e|2------ 2------ 2------ 2------|2------ 2------ 2------ 2------|
  B|3-------3-------3-------3------|1-------1-------1-------1------|
  G|2-------2-------2-------2------|2-------2-------2-------2------|
  D|0-------0-------0-------0------|0-------0-------0-------0------|
  A|-------------------------------|-------------------------------|
  D|-------------------------------|-------------------------------|
   Prudence


  e|0------ ------- ------- -------|3------ ------- ------- -------|
  B|1------------------------------|3------------------------------|
  G|0------------------------------|4------------------------------|
  D|2------------------------------|5------------------------------|
  A|3------------------------------|-------------------------------|
  D|-------------------------------|5------------------------------|
                    Won't   you     come out                    to
  e|10----- ------- ------- -------|------- ------- ------- -------|
  B|-------------------------------|-------------------------------|
  G|-------------------------------|------------------------0------|
  D|-------------------------------|-------------------------------|
  A|-------------------------------|-------------------------------|
  E|-------------------------------|-------------------------------|

  e|20----- ------- ------- -------|------- ------- ------- -------|
  B|-------------------------------|-------------------------------|
  G|-------------------------------|-------------------------------|
  D|-------------------------------|-------------------------------|
  A|-------------------------------|-------------------------------|
  E|-------------------------------|-------------------------------|

  e|------- ------- ------- -------|------- ------- ------- -------|
  B|3------------------3-----------|3------------------3-----------|
  G|------------2------------------|------------2------------------|
  D|--------0---------------0------|--------0---------------0------|
  A|-------------------------------|-------------------------------|
  D|0---------------0--------------|0---------------0--------------|
    play
  e|------- ------- ------- -------|------- ------- ------- -------|
  B|------------------------3------|-------------------------------|
  G|--------------------2----------|-------------------------------|
  D|----------------------------4--|-------------------------------|
  A|-------------------------------|-------------------------------|
  E|-------------------------------|-------------------------------|
    (hit the fret with your finger)
  e|20-20-20-20-20-20-20-20 20-20-20-20-20-20-20-20 20-20-20-20-20-|
  B|-------------------------------|-------------------------------|
  G|-------------------------------|-------------------------------|
  D|-------------------------------|-------------------------------|
  A|-------------------------------|-------------------------------|
  E|-------------------------------|-------------------------------|


    OUTRO


  e|14----- ------- ------- -------|12----- ------- ------- -------|
  B|-------------------12----------|-------------------10----------|
  G|-----------14------------------|-----------12------------------|
  D|--------0---------------0------|--------0---------------0------|
  A|0------------------------------|0------------------------------|
  D|-----------------0-------------|---------------0---------------|


  e|10----- ------- ------- -------|8------ ------- ------- -------|
  B|-------------------10----------|-------------------8-----------|
  G|-----------11----------11-\-9--|------------9------------------|
  D|--------0---------------0------|--------0---------------0------|
  A|0------------------------------|0------------------------------|
  D|-----------------0-------------|---------------0---------------|

  e|7------ ------- ------- -------|5------ ------- ------- -------|
  B|-------------------8-----------|-------------------5-----------|
  G|-----------7-------------------|-----------6-------------------|
  D|--------0---------------0------|--------0---------------0------|
  A|0------------------------------|0------------------------------|
  D|----------------0--------------|---------------0---------------|
    .............................Fade..............................


  e|3------ ------- ------- ------0H3------ ------- ------- -------|
  B|-------------------5-----------|-------------------5-----------|
  G|-----------5-------------------|-----------5-------------------|
  D|--------0---------------0------|--------0---------------0------|
  A|0------------------------------|0------------------------------|
  D|----------------0--------------|---------------0---------------|
    .................................

        B  Bend
        R  Release
        /  slide up
        \  slide down
        H  hammer-on
        P  pull-off
        ~  vibrato
        +  harmonic
        x  Mute note
        . - play note like a dot in standard notation
        ^ - ties two notes together
        (. Pause

  -------------------------------------------------------------

  THE BEATLES - GLASS ONION (Lennon & McCartney) From the WHITE
                ALBUM. Released on 22nd November 1968.

  -------------------------------------------------------------

  Tabbed by:PJVillanueva


  I told you about strawberry fields
  You know the place where nothing is real
  Well here's another place you can go
  Where everything flows.
  Looking through the bent backed tulips
  To see how the other half live
  Looking through a glass onion.

  I told you about the walrus and me-man
  You know that we're as close as can be-man
  Well here's another clue for you all
  The walrus was Paul.
  Standing on the cast iron shore-yeah
  Lady Madonna trying to make ends meet-yeah
  Looking through a glass onion.

  I told you about the fool on the hill
  I tell you man he living there still
  Well here's another place you can be
  Listen to me.
  Fixing a hole in the ocean
  Trying to make a dove-tail joint-yeah
  Loking through a glass onion.

                                                  x x     x x

e|------- ------- ------- -------|------- ------- ------- -------|
B|-------------------------------|-------------------------------|
G|-------------------------------|-------------------------------|
D|-------------------------------|-------------------------------|
A|-------------------------------|-------------------------------|
E|-------------------------------|-------------------------------|


  Am                              F7
e|0------ 0---0-- 0---0-- 0------|1------ 1------ 0---0-- 0---0--|
B|1-------1---1---1---1---1------|4-------4-------4---4---4---4--|
G|2-------2---2---2---2---2------|2-------2-------2---2---2---2--|
D|2-------2---2---2---2---2------|1-------1-------1---1---1---1--|
A|0-------0---0---0---0---0------|3-------3-------3---3---3---3--|
E|-------------------------------|1-------1-------1---1---1---1--|
              I   told you about  strawberry  fields
e|------- 5------ ------- 5------|------- ----8-8 8---8-- 8------|
B|--------5---------------5------|------------6-6-6---6---6------|
G|--------5---------------5------|-------------------------------|
D|-------------------------------|-------------------------------|
A|-------------------------------|-------------------------------|
E|-------------------------------|-------------------------------|

  Am                              F7
e|0------ 0---0-- 0---0-- 0------|1---1-- 1---1-- 1---1-- 1---1--|
B|1-------1---1---1---1---1------|4---4---4---4---4---4---4---4--|
G|2-------2---2---2---2---2------|2---2---2---2---2---2---2---2--|
D|2-------2---2---2---2---2------|1---1---1---1---1---1---1---1--|
A|0-------0---0---0---0---0------|3---3---3---3---3---3---3---3--|
E|-------------------------------|1---1---1---1---1---1---1---1--|
             You know the place where nothing is real
e|------- 5------ ------- 5------|------- ----8-- ----8-- 8------|
B|--------5---------------5------|------------6-------6---6------|
G|--------5---------------5------|-------------------------------|
D|-------------------------------|-------------------------------|
A|-------------------------------|-------------------------------|
E|-------------------------------|-------------------------------|


  Am                              Gm
e|0------ 0---0-- 0---0-- 0------|3------ 3---3-- 3---3-- 3------|
B|1-------1---1---1---1---1------|3-------3---3---3---3---3------|
G|2-------2---2---2---2---2------|3-------3---3---3---3---3------|
D|2-------2---2---2---2---2------|5-------5---5---5---5---5------|
A|0-------0---0---0---0---0------|5-------5---5---5---5---5------|
E|-------------------------------|3-------3---3---3---3---3------|
              Well here's another place you can go
e|------- 5------ ------- 5------|------- 10----- ------- 10-----|
B|--------5---------------5------|--------11--------------11-----|
G|--------5---------------5------|--------10--------------10-----|
D|-------------------------------|-------------------------------|
A|-------------------------------|-------------------------------|
E|-------------------------------|-------------------------------|
                                  Gm
e|------- ------- ------- -------|3------ ------- /--------------|
B|-------------------------------|3---------------/--------------|
G|-------------------------------|3---------------/--------------|
D|-------------------------------|5---------------/--------------|
A|-------------------------------|5---------------/--------------|
E|-------------------------------|3---------------/--------------|


  C7                              Gm
e|3------ 3---3-- 3---3-- 3------|3------ 3------ 3---3-- 3------|
B|5-------5---5---5---5---5------|3-------3-------3---3---3------|
G|3-------3---3---3---3---3------|3-------3-------3---3---3------|
D|5-------5---5---5---5---5------|5-------5-------5---5---5------|
A|3-------3---3---3---3---3------|5-------5-------5---5---5------|
E|-------------------------------|3-------3-------3---3---3------|
                             Where everything flows.
e|------- 8------ ------- 8------|------- 10----- ------- 10-----|
B|-------10--------------10------|--------11--------------11-----|
G|--------9---------------9------|--------10--------------10-----|
D|-------------------------------|-------------------------------|
A|-------------------------------|-------------------------------|
E|-------------------------------|-------------------------------|
  C13                             Gm
e|8------ ------- ------- 8--\---|------- ------- ------- -------|
B10----------------------10--\---|3------------------------------|
G|9-----------------------9--\---|3------------------------------|
D|8-----------------------8--\---|5------------------------------|
A10----------------------10--\---|5------------------------------|
E|8-----------------------8--\---|3------------------------------|


  C7                          F7                              D7
e|3------ 3------ 3---3-- 3---1--|------- 1------ 1---1-- 1------|
B|5-------5-------5---5---5---4--|--------4-------4---4---4---3--|
G|3-------3-------3---3---3---2--|--------2-------2---2---2---5--|
D|5-------5-------5---5---5---1--|--------1-------1---1---1---4--|
A|3-------3-------3---3---3---3--|--------3-------3---3---3---5--|
E|----------------------------1--|--------1-------1---1---1------|
                               Looking through the bent backed tulips
e|------- 8------ 8---8-- ----8--|------- ------- 8------ ---10--|
B|--------8-------8---8------10--|---------------10----------10--|
G|--------9-------9---9-------8--|----------------8----------11--|
D|-------10------10--10------10--|---------------10----------10--|
A|----------------------------8--|----------------8----------12--|
E|-------------------------------|---------------------------10--|
  C5                          F7                              D7-9
e|------- ------- ------- -------|------- ------- ------- -------|
B|----------------------------6--|----------------6---6-------4--|
G|5---------------------------5--|----------------5---5-------5--|
D|5---------------------------7--|----------------7---7-------4--|
A|3---------------------------6--|----------------6---6-------5--|
E|-------------------------------|-------------------------------|


                              F7                              D7
e|------- ------- ------- ----1--|------- 1---1-- 1---1-- -------|
B|--------3-------3---3-------4--|--------4---4---4---4-------3--|
G|--------5-------5---5-------2--|--------2---2---2---2-------5--|
D|--------4-------4---4-------1--|--------1---1---1---1-------4--|
A|--------5-------5---5-------3--|--------3---3---3---3-------5--|
E|----------------------------1--|--------1---1---1---1----------|
                              To  see     how the other half  live
e|------- ------- 10-10-- ----8--|------- ------- 8------ ---10--|
B|----------------10-10------10--|---------------10----------10--|
G|----------------11-11-------8--|----------------8----------11--|
D|----------------10-10------10--|---------------10----------10--|
A|----------------12-12-------8--|----------------8----------12--|
E|----------------10-10----------|---------------------------10--|
                              F7                              D7-9
e|------- ------- ------- -------|------- ------- ------- -------|
B|----------------------------6--|----------------6---6---6---4--|
G|----------------------------5--|----------------5---5---5---5--|
D|----------------------------7--|----------------7---7---7---4--|
A|----------------------------6--|----------------6---6---6---5--|
E|-------------------------------|-------------------------------|


                              F7
e|------- ------- ------- ----1--|------- 1------ 1---1-- ----1--|
B|--------3---3---3---3-------4--|--------4-------4---4-------4--|
G|--------5---5---5---5-------2--|--------2-------2---2-------2--|
D|--------4---4---4---4-------1--|--------1-------1---1-------1--|
A|--------5---5---5---5-------3--|--------3-------3---3-------3--|
E|----------------------------1--|--------1-------1---1-------1--|
                              Looking    through a glass onion.
e|------- ------- ----10- ---13--|------- ------- ---13-- ---10--|
B|--------------------10-----13--|-------------------13------12--|
G|--------------------11-----14--|-------------------14------12--|
D|--------------------10---------|-------------------------------|
A|--------------------12---------|-------------------------------|
E|--------------------10---------|-------------------------------|
                                  F7
e|------- ------- ------- -------|------- ------- ------- -------|
B|-------------------------------|-------------------------------|
G|-------------------------------|8---8---8---8---8---8---8---8--|
D|-------------------------------|7---7---7---7---7---7---7---7--|
A|-------------------------------|8---8---8---8---8---8---8---8--|
E|-------------------------------|-------------------------------|


  G
e|3------ ------- ------- -------|
B|3------------------------------|
G|4------------------------------|
D|5------------------------------|
A|5------------------------------|
E|3------------------------------|
  G7
e|------- ------- ------- -------|
B|-------------------------------|
G10------------------------------|
D|9------------------------------|
A10------------------------------|
E|-------------------------------|

  Am                              F7
e|0------ 0------ 0---0-- 0---0--|1------ 1---1-- ----1-- ----1--|
B|1-------1-------1---1---1---1--|4-------4---4-------4-------4--|
G|2-------2-------2---2---2---2--|2-------2---2-------2-------2--|
D|2-------2-------2---2---2---2--|1-------1---1-------1-------1--|
A|0-------0-------0---0---0---0--|3-------3---3-------3-------3--|
E|-------------------------------|1-------1---1-------1-------1--|
              I  told you about the walrus and me-man
e|------- 8------ ----8-- -------|------- ------- 8---8-- 8------|
B|-------10----------10----------|---------------10--10--10------|
G|--------9-----------9----------|---------------10--10--10------|
D|-------------------------------|-------------------------------|
A|-------------------------------|-------------------------------|
E|-------------------------------|-------------------------------|


  Am                              F7
e|0------ 0------ 0---0-- 0---0--|1------ 1------ 1---1-- 1---1--|
B|1-------1-------1---1---1---1--|4-------4-------4---4---4---4--|
G|2-------2-------2---2---2---2--|2-------2-------2---2---2---2--|
D|2-------2-------2---2---2---2--|1-------1-------1---1---1---1--|
A|0-------0-------0---0---0---0--|3-------3-------3---3---3---3--|
E|-------------------------------|1-------1-------1---1---1---1--|
              You know that we're as close as can be-man
e|8------ 8------ ----8-- -------|------- 1313-13 ---13--13------|
B10------10----------10----------|--------1313-13----13--13------|
G|9-------9-----------9----------|--------1010-10----10--10------|
D|-------------------------------|-------------------------------|
A|-------------------------------|-------------------------------|
E|-------------------------------|-------------------------------|


  Am                              Gm
e|0------ 0------ 0---0-- 0---0--|3------ 3---3-- ----3-- 3------|
B|1-------1-------1---1---1---1--|3-------3---3-------3---3------|
G|2-------2-------2---2---2---2--|3-------3---3-------3---3------|
D|2-------2-------2---2---2---2--|5-------5---5-------5---5------|
A|0-------0-------0---0---0---0--|5-------5---5-------5---5------|
E|-------------------------------|3-------3---3-------3---3------|
              Well here's another clue for you all
e|8------ 8------ ----8-- -------|6------ 6---6-- ----6-- ----8--|
B10------10----------10----------|8-------8---8-------8------10--|
G|9-------9-----------9----------|7-------7---7-------7-------9--|
D|-------------------------------|----------------------------8--|
A|-------------------------------|-------------------------------|
E|-------------------------------|-------------------------------|

e|------- ------- ------- -------|3------ ------- /--------------|
B|-------------------------------|3---------------/--------------|
G|-------------------------------|3---------------/--------------|
D|-------------------------------|5---------------/--------------|
A|-------------------------------|5---------------/--------------|
E|-------------------------------|3---------------/--------------|


  C7                              Gm
e|3------ 3------ 3---3-- 3---3--|3------ 3------ 3---3-- 3------|
B|5-------5-------5---5---5---5--|3-------3-------3---3---3------|
G|3-------3-------3---3---3---3--|3-------3-------3---3---3------|
D|5-------5-------5---5---5---5--|5-------5-------5---5---5------|
A|3-------3-------3---3---3---3--|5-------5-------5---5---5------|
E|-------------------------------|3-------3-------3---3---3------|
                              The walrus  was Paul.
e|------- 8------ ------- -------|3------ 3------ ----3-- -------|
B|-------10----------------------|3-------3-----------3-------8--|
G|--------9----------------------|3-------3-----------3-------9--|
D|--------8--------------10------|5-------5-----------5-------8--|
A|-----------------------10------|-------------------------------|
E|------------------------8------|----------------------------8--|

e|8------ ------- ------- 8--\---|------- ------- ------- -------|
B10----------------------10--\---|3------------------------------|
G|9-----------------------9--\---|3------------------------------|
D|8-----------------------8--\---|5------------------------------|
A10----------------------10--\---|5------------------------------|
E|8-----------------------8--\---|3------------------------------|


  C7                              F7                          D7
e|3------ 3------ 3---3-- 3---3--|1------ 1------ 1---1-- 1------|
B|5-------5-------5---5---5---5--|4-------4-------4---4---4---3--|
G|3-------3-------3---3---3---3--|2-------2-------2---2---2---5--|
D|5-------5-------5---5---5---5--|1-------1-------1---1---1---4--|
A|3-------3-------3---3---3---3--|3-------3-------3---3---3---5--|
E|-------------------------------|1-------1-------1---1---1------|
                              Standing    on the  cast iron shore-
e|------- 8------ ------- ----/--|13----- ------- 13----- -------|
B|--------8-------------------/--|13--------------13---------10--|
G|--------9---9---------------/--|14--------------14---------11--|
D|-----------10------------------|---------------------------10--|
A|-----------10------------------|-------------------------------|
E|-------------------------------|-------------------------------|

e|------- ------- ------- -------|------- ------- ------- -------|
B|----------------------------6--|------------6---6---6---6---4--|
G|5---------------------------5--|------------5---5---5---5---5--|
D|5---------------------------7--|------------7---7---7---7---4--|
A|3---------------------------6--|------------6---6---6---6---5--|
E|-------------------------------|-------------------------------|


                              F7                              D7
e|------- ------- ------- ----1--|------- 1------ 1---1-- -------|
B|--------3-------3---3-------4--|--------4-------4---4-------3--|
G|--------5-------5---5-------2--|--------2-------2---2-------5--|
D|--------4-------4---4-------1--|--------1-------1---1-------4--|
A|--------5-------5---5-------3--|--------3-------3---3-------5--|
E|----------------------------1--|--------1-------1---1----------|
      yeah                   Lady Madonna trying to make ends meet
e|------- ------- ---14-- ---13--|------- ------- ---13-- ---11--|
B|-------------------13------13--|-------------------13------10--|
G|-------------------14------14--|-------------------14------11--|
D|-------------------13----------|---------------------------10--|
A|-------------------------------|-------------------------------|
E|-------------------------------|-------------------------------|

e|------- ------- ------- -------|------- ------- ------- -------|
B|----------------------------6--|----------------6---6-------4--|
G|----------------------------5--|----------------5---5-------5--|
D|----------------------------7--|----------------7---7-------4--|
A|----------------------------6--|----------------6---6-------5--|
E|-------------------------------|-------------------------------|


                              F7
e|------- ------- ------- ----1--|------- 1------ 1---1-- ----1--|
B|--------3---3---3---3-------4--|--------4-------4---4-------4--|
G|--------5---5---5---5-------2--|--------2-------2---2-------2--|
D|--------4---4---4---4-------1--|--------1-------1---1-------1--|
A|--------5---5---5---5-------3--|--------3-------3---3-------3--|
E|----------------------------1--|--------1-------1---1-------1--|
     -yeah                    Looking    through a glass onion.
e|------- ------- ------- ---13--|------- ------- ---13-- -------|
B|-------------------10------13--|-------------------13----------|
G|-------------------11------14--|-------------------14----------|
D|-------------------10----------|-------------------------------|
A|-------------------------------|-------------------------------|
E|-------------------------------|-------------------------------|

e|------- ------- ------- -------|------- ------- ------- -------|
B|----------------------------6--|-------------------------------|
G|----------------------------5--|-------------------------------|
D|----------------------------7--|-------------------------------|
A|----------------------------6--|-------------------------------|
E|-------------------------------|-------------------------------|


                  x x     xx
  G
e|3------ ------- ------- -------|
B|3------------------------------|
G|4------------------------------|
D|5------------------------------|
A|5------------------------------|
E|3------------------------------|

e10------ ------- ------- -------|
B12------------------------------|
G12------------------------------|
D|-------------------------------|
A|-------------------------------|
E|-------------------------------|

  Am
e|0------ 0---0-- 0---0-- 0---0--|0------ 0------ 0---0-- 0---0--|
B|1-------1---1---1---1---1---1--|1-------1-------1---1---1---1--|
G|2-------2---2---2---2---2---2--|2-------2-------2---2---2---2--|
D|2-------2---2---2---2---2---2--|2-------2-------2---2---2---2--|
A|0-------0---0---0---0---0---0--|0-------0-------0---0---0---0--|
E|-------------------------------|-------------------------------|
                                                      Oh,     yeah
e|------- 5------ ----5-- -------|------- 5------ ----5-- -------|
B|--------5-----------5----------|--------5-----------5----------|
G|--------5-----------5----------|--------5-----------5----------|
D|--------7-----------7----------|--------7-----------7----------|
A|-------------------------------|-------------------------------|
E|-------------------------------|-------------------------------|

e|------- ------- ------- -------|------- ------- ------- -------|
B|5------------------------------|-------------------------------|
G|5------------------------------|-------------------------------|
D|7------------------------------|-------------------------------|
A|-------------------------------|-------------------------------|
E|-------------------------------|-------------------------------|


  Fmaj7
e|0------ 0---0-- 0---0-- 0---0--|0------ 0------ 0---0-- 0---0--|
B|1-------1---1---1---1---1---1--|1-------1-------1---1---1---1--|
G|2-------2---2---2---2---2---2--|2-------2-------2---2---2---2--|
D|3-------3---3---3---3---3---3--|3-------3-------3---3---3---3--|
A|0-------0---0---0---0---0---0--|0-------0-------0---0---0---0--|
E|-------------------------------|-------------------------------|
                                                      Oh,
e|------- 8------ ----8-- -------|------- 5------ ----5-- -------|
B|-------10----------10----------|--------6-----------6----------|
G|-------10----------10----------|--------5-----------5----------|
D|-------------------------------|-------------------------------|
A|-------------------------------|-------------------------------|
E|-------------------------------|-------------------------------|

e|------- ------- ------- -------|------- ------- ------- -------|
B|6------------------------------|-------------------------------|
G|5------------------------------|-------------------------------|
D|7------------------------------|-------------------------------|
A|-------------------------------|-------------------------------|
E|-------------------------------|-------------------------------|


  Am6
e|0------ 0---0-- 0---0-- 0---0--|0------ 0------ 0---0-- 0---0--|
B|1-------1---1---1---1---1---1--|1-------1-------1---1---1---1--|
G|2-------2---2---2---2---2---2--|2-------2-------2---2---2---2--|
D|4-------4---4---4---4---4---4--|4-------4-------4---4---4---4--|
A|0-------0---0---0---0---0---0--|0-------0-------0---0---0---0--|
E|-------------------------------|-------------------------------|
      yeah                                            Oh,
e|------- 5------ ----5-- -------|------- 5------ ----5-- -------|
B|--------5-----------5----------|--------5-----------5----------|
G|--------5-----------5----------|--------5-----------5----------|
D|-------------------------------|-------------------------------|
A|-------------------------------|-------------------------------|
E|-------------------------------|-------------------------------|

e|------- ------- ------- -------|------- ------- ------- -------|
B|7------------------------------|-------------------------------|
G|5------------------------------|-------------------------------|
D|7------------------------------|-------------------------------|
A|-------------------------------|-------------------------------|
E|-------------------------------|-------------------------------|


  Am7
e|0------ 0---0-- 0---0-- 0---0--|0------ 0------ 0---0-- 0---0--|
B|1-------1---1---1---1---1---1--|1-------1-------1---1---1---1--|
G|0-------0---0---0---0---0---0--|0-------0-------0---0---0---0--|
D|2-------2---2---2---2---2---2--|2-------2-------2---2---2---2--|
A|0-------0---0---0---0---0---0--|0-------0-------0---0---0---0--|
E|-------------------------------|-------------------------------|
      yeah
e|------- 5------ ------- 5------|------- 5------ ------- 5------|
B|--------5---------------5------|--------5---------------5------|
G|--------5---------------5------|--------5---------------5------|
D|-------------------------------|-------------------------------|
A|-------------------------------|-------------------------------|
E|-------------------------------|-------------------------------|

e|------- ------- ------- -------|------- ------- ------- -------|
B|8---8---8---8---8---8---8---8--|8---8---8---8---8---8---8---8--|
G|5---5---5---5---5---5---5---5--|5---5---5---5---5---5---5---5--|
D|7---7---7---7---7---7---7---7--|7---7---7---7---7---7---7---7--|
A|-------------------------------|-------------------------------|
E|-------------------------------|-------------------------------|

                                                  x x     x x
  F7                              G
e|1------ 1------ 1------ 1------|3------ ------- ------- -------|
B|4-------4-------4-------4------|3------------------------------|
G|2-------2-------2-------2------|5------------------------------|
D|1-------1-------1-------1------|6------------------------------|
A|3-------3-------3-------3------|6------------------------------|
E|1-------1-------1-------1------|3------------------------------|
  Looking through a glass onion
e|8------ 8------ ----8-- ----8--10------ ------- ------- -------|
B|6-------6-----------6-------6--|8------------------------------|
G|-------------------------------|-------------------------------|
D|-------------------------------|-------------------------------|
A|-------------------------------|-------------------------------|
E|-------------------------------|-------------------------------|

e|5------ 5------ ----5-- ----5-/|7------ ------- ------- -------|
B|7-------7-----------7-------7-/|9------------------------------|
G|5-------5-----------5-------5-/|7------------------------------|
D|-------------------------------|-------------------------------|
A|-------------------------------|-------------------------------|
E|-------------------------------|-------------------------------|


  Am                              F7
e|0------ 0---0-- 0---0-- 0---0--|1---1-- 1---1-- ----1-- 1---1--|
B|1-------1---1---1---1---1---1--|4---4---4---4-------4---4---4--|
G|2-------2---2---2---2---2---2--|2---2---2---2-------2---2---2--|
D|2-------2---2---2---2---2---2--|1---1---1---1-------1---1---1--|
A|0-------0---0---0---0---0---0--|3---3---3---3-------3---3---3--|
E|-------------------------------|1---1---1---1-------1---1---1--|
              I  told you about the fool on the hill
e|------- 5------ ------- 5------|------- 8------ 8------ -------|
B|--------5---------------5------|--------6-----------6----------|
G|--------5---------------5------|-------------------------------|
D|-------------------------------|-------------------------------|
A|-------------------------------|-------------------------------|
E|-------------------------------|-------------------------------|


  Am                              F7
e|0------ 0---0-- 0---0-- 0------|1---1-- 1---1-- ----1-- 1---1--|
B|1-------1---1---1---1---1------|4---4---4---4-------4---4---4--|
G|2-------2---2---2---2---2------|2---2---2---2-------2---2---2--|
D|2-------2---2---2---2---2------|1---1---1---1-------1---1---1--|
A|0-------0---0---0---0---0------|3---3---3---3-------3---3---3--|
E|-------------------------------|1---1---1---1-------1---1---1--|
              I   tell you man he living there still
e|------- 5------ ------- 5------|------- 8------ 8------ -------|
B|--------5---------------5------|--------6-----------6----------|
G|--------5---------------5------|-------------------------------|
D|-------------------------------|-------------------------------|
A|-------------------------------|-------------------------------|
E|-------------------------------|-------------------------------|

e|------- ------- ------- -------|------- ------- ------- -------|
B|-------------------------------|----------------6---8--10--10--|
G|-------------------------------|-------------------------------|
D|-------------------------------|-------------------------------|
A|-------------------------------|-------------------------------|
E|-------------------------------|-------------------------------|


  Am                              Gm
e|0------ 0---0-- 0---0-- 0---0--|3------ 3---3-- ----3-- 3------|
B|1-------1---1---1---1---1---1--|3-------3---3-------3---3------|
G|2-------2---2---2---2---2---2--|3-------3---3-------3---3------|
D|2-------2---2---2---2---2---2--|5-------5---5-------5---5------|
A|0-------0---0---0---0---0---0--|5-------5---5-------5---5------|
E|-------------------------------|3-------3---3-------3---3------|
              Well here's another place you can be
e|------- 5------ ------- 5------|-------10------ ------- 10-----|
B|--------5---------------5------|-------11---------------11-----|
G|--------5---------------5------|-------12---------------12-----|
D|-------------------------------|-------------------------------|
A|-------------------------------|-------------------------------|
E|-------------------------------|-------------------------------|

e|------- ------- ------- -------|3------ ------- /--------------|
B|-------------------------------|3---------------/--------------|
G|-------------------------------|3---------------/--------------|
D|-------------------------------|5---------------/--------------|
A|-------------------------------|5---------------/--------------|
E|-------------------------------|3---------------/--------------|


  C7                              Gm
e|3------ 3------ 3---3-- 3---3--|3------ 3------ 3---3-- 3------|
B|5-------5-------5---5---5---5--|3-------3-------3---3---3------|
G|3-------3-------3---3---3---3--|3-------3-------3---3---3------|
D|5-------5-------5---5---5---5--|5-------5-------5---5---5------|
A|3-------3-------3---3---3---3--|5-------5-------5---5---5------|
E|-------------------------------|3-------3-------3---3---3------|
                                  Listen  to  me
e|------- 8------ ------- 8------|------- 15----- ------- 15-----|
B|-------10--------------10------|--------15--------------15-----|
G|--------9---------------9------|--------15--------------15-----|
D|-------------------------------|-------------------------------|
A|-------------------------------|-------------------------------|
E|-------------------------------|-------------------------------|

e|8------ ------- ------- 8--\---|------- ------- ------- -------|
B10----------------------10--\---|3------------------------------|
G|9-----------------------9--\---|3------------------------------|
D|8-----------------------8--\---|5------------------------------|
A10----------------------10--\---|5------------------------------|
E|8-----------------------8--\---|3------------------------------|


  C7                              F7                          D7
e|3------ 3------ 3---3-- 3---3--|1------ 1------ 1---1-- 1------|
B|5-------5-------5---5---5---5--|4-------4-------4---4---4---3--|
G|3-------3-------3---3---3---3--|2-------2-------2---2---2---5--|
D|5-------5-------5---5---5---5--|1-------1-------1---1---1---4--|
A|3-------3-------3---3---3---3--|3-------3-------3---3---3---5--|
E|-------------------------------|1-------1-------1---1---1------|
                              Fixing      a hole      in the  ocean
e|8------ 8------ ----8-- ----8--|------- ------- 8---8-- ---10--|
B|8-------8-----------8------10--|---------------10--10------13--|
G|9-------9-----------9-------8--|----------------8---8------11--|
D|---------------------------10--|---------------10--10------10--|
A|----------------------------8--|----------------8---8----------|
E|-------------------------------|---------------------------10--|

e|------- ------- ------- -------|------- ------- ------- -------|
B|----------------------------6--|------------6---6---6---6---4--|
G|5---------------------------5--|------------5---5---5---5---5--|
D|5---------------------------7--|------------7---7---7---7---4--|
A|3---------------------------6--|------------6---6---6---6---5--|
E|-------------------------------|-------------------------------|


                              F7                              D7
e|------- ------- ------- ----1--|------- 1------ 1---1-- -------|
B|--------3-------3---3-------4--|--------4-------4---4-------3--|
G|--------5-------5---5-------2--|--------2-------2---2-------5--|
D|--------4-------4---4-------1--|--------1-------1---1-------4--|
A|--------5-------5---5-------3--|--------3-------3---3-------5--|
E|----------------------------1--|--------1-------1---1----------|
                              Trying  to  make a  dove-tail joint-
e|------- ------- 10-10-- ---13--|------- ------- ---13-- ---11--|
B|----------------13-13------13--|-------------------13------10--|
G|----------------11-11---11-14--|-------------------14------11--|
D|----------------10-10----------|---------------------------10--|
A|-------------------------------|-------------------------------|
E|----------------10-------------|-------------------------------|

e|------- ------- ------- -------|------- ------- ------- -------|
B|----------------------------6--|----------------6---6-------4--|
G|----------------------------5--|----------------5---5-------5--|
D|----------------------------7--|----------------7---7-------4--|
A|----------------------------6--|----------------6---6-------5--|
E|-------------------------------|-------------------------------|


                              F7                                  G
e|------- ------- ------- ----1--|------- 1------ 1---1-- -------|3--|
B|--------3-------3---3-------4--|--------4-------4---4----------|3--|
G|--------5-------5---5-------2--|--------2-------2---2----------|4--|
D|--------4-------4---4-------1--|--------1-------1---1----------|5--|
A|--------5-------5---5-------3--|--------3-------3---3----------|5--|
E|----------------------------1--|--------1-------1---1----------|3--|
      yeah                   Looking    through a glass onion.
e|------- ------- ------- ---13--|------- ------- ---13-- ---15--|---|
B|----------------10-10------13--|-------------------13------15--|---|
G|----------------11-11------14--|-------------------14------16--|---|
D|----------------10-10----------|-------------------------------|---|
A|-------------------------------|-------------------------------|---|
E|-------------------------------|-------------------------------|---|

e|------- ------- ------- -------|------- ------- ------- -------|---|
B|----------------------------6--|-------------------------------|3--|
G|----------------------------5--|-------------------------------|4--|
D|----------------------------7--|-------------------------------|5--|
A|----------------------------6--|-------------------------------|---|
E|-------------------------------|-------------------------------|---|

e|------- ------- ------- -------|------- ------- ------- -------|
B|-------------------------------|-------------------------------|
G|-------------------------------|-------------------------------|
D|-------------------------------|-------------------------------|
A|--------3---------------3------|--------3---------------3------|
E|1---------------1--------------|1---------------1--------------|
  Adim                                    Abdim   Gdim    F#dim
e|5------ ------- ------- -------|5------ 4------ 3------ 2------|
B|4------------------------------|4-------3-------2-------1------|
G|5------------------------------|5-------4-------3-------2------|
D|4------------------------------|4-------3-------2-------1------|
A|-------------------------------|-------------------------------|
E|-------------------------------|-------------------------------|
                                  Ritardando.....................

e|------- ------- ------- -------|------- ------- ------- -------|
B|-------------------------------|-------------------------------|
G|--------2---------------2------|--------2---------------2------|
D|0---------------0--------------|0---------------0--------------|
A|-------------------------------|-------------------------------|
E|-------------------------------|-------------------------------|
                                          Gdim    Abdim   Adim
e|------- ------- ------- -------|2------ 3------ 4------ 5------|
B|-------------------------------|1-------2-------3-------4------|
G|-------------------------------|2-------3-------4-------5------|
D|-------------------------------|1-------2-------3-------4------|
A|-------------------------------|-------------------------------|
E|-------------------------------|-------------------------------|
  ...............................................................

e|------- ------- ------- -------|------- ------- ------- -------|
B|-------------------------------|-------------------------------|
G|-------------------------------|-------------------------------|
D|-------------------------------|-------------------------------|
A|--------3---------------3------|--------3---------------3------|
E|1---------------1--------------|1---------------1--------------|
                                          Abdim   Gdim    F#dim
e|------- ------- ------- -------|5------ 4------ 3------ 2------|
B|-------------------------------|4-------3-------2-------1------|
G|-------------------------------|5-------4-------3-------2------|
D|-------------------------------|4-------3-------2-------1------|
A|-------------------------------|-------------------------------|
E|-------------------------------|-------------------------------|
  ...............................................................

e|------- ------- ------- -------|------- ------- ------- -------|
B|-------------------------------|-------------------------------|
G|--------2---------------2------|--------2---------------2------|
D|0---------------0--------------|0---------------0--------------|
A|-------------------------------|-------------------------------|
E|-------------------------------|-------------------------------|
                                          Gdim    Abdim   Adim
e|------- ------- ------- -------|2------ 3------ 4------ 5------|
B|-------------------------------|1-------2-------3-------4------|
G|-------------------------------|2-------3-------4-------5------|
D|-------------------------------|1-------2-------3-------4------|
A|-------------------------------|-------------------------------|
E|-------------------------------|-------------------------------|
  ...............................................................

        B  Bend
        R  Release
        /  slide up
        \  slide down
        H  hammer-on
        P  pull-off
        ~  vibrato
        +  harmonic
        x  Mute note
        . - play note like a dot in standard notation
        ^ - ties two notes together
        (. Pause


    -----------------------------------------------------------

    BEATLES - OBLADI OBLADA (Lennon & McCartney) From the WHITE
              ALBUM. Released on 22nd November 1968.

    -----------------------------------------------------------

    Tabbed by:PJVillanueva

    Desmond has a barrow in the market place
    Molly is the singer in a band
    Desmond says to Molly Girl I like your face
    And Molly says this as she takes him by the hand.

                     Chorus
    Obladi oblada life goes on bra
    Lala how the life goes on
    Obladi Oblada life goes on bra
    Lala how the life goes on.

    Desmond takes a trolley to the jewellers store
    Buys a twenty carat golden ring
    Takes it back to Molly waiting at the door
    And as he gives it to her she begins to sing.

                     Chorus

    In a couple of years they have built
    A home sweet home
    With a couple of kids running in the yard
    Of Desmond and Molly Jones.

    Happy ever after in the market place
    Desmond lets the children lend a hand
    Molly stays at home and does her pretty face
    And in the evening she still
    sings in with the band.

                     Chorus

    In a couple of years they have built
    A home sweet home
    With a couple of kids running in the yard
    Of Desmond and Molly Jones.

    Happy ever after in the market place
    Molly lets the children lend a hand
    Desmond stays at home and does his pretty face
    And in the evening she's a singer with the band.

                     Chorus

    And if you want some fun ... take Obladiblada.

                     Use a capo on the first fret.


                                    E
  e|------- ------- ------- -------|7---7-7 7---7-7 7---7-- 7------|
  B|-------------------------------|9---9-9-9---9-9-9---9---9------|
  G|-------------------------------|9---9-9-9---9-9-9---8---9------|
  D|-------------------------------|----------------------------11-|
  A|-------------------------------|-------------------------------|
  E|-------------------------------|-------------------------------|


                                                X   x   x   x    x
        A
  e|----0-- ----0-- ----0-- ----0--|----0-- ----0-- ----0-- ----0--|
  B|----2-------2-------2-------2--|----2-------2-------2-------2--|
  G|----2-------2-------2-------2--|----2-------2-------2-------2--|
  D|-------------------------------|-------------------------------|
  A|-------------------------------|-------------------------------|
  E|-------------------------------|-------------------------------|


    x

  e|----0-- ----0-- ----0-- ----0--|----0-- ----0-- ----0-- ----0--|
  B|----2-------2-------2-------2--|----2-------2-------2-------2--|
  G|----2-------2-------2-------2--|----2-------2-------2-------2--|
  D|-------------------------------|-------------------------------|
  A|-------------------------------|-------------------------------|
  E|-------------------------------|-------------------------------|

    00:10
                                        E
  e|----0-- ----0-- ----0-- ----0--|----0-- ----0-- ----0-- ----0--|
  B|----2-------2-------2-------2--|----0-------0-------0-------0--|
  G|----2-------2-------2-------2--|----1-------1-------1-------1--|
  D|-------------------------------|-------------------------------|
  A|-------------------------------|-------------------------------|
  E|-------------------------------|-------------------------------|

  e|------- ------- ------- -------|------- ------- ------- -------|
  B|-------------------------------|-------------------------------|
  G|-------------------------------|-------------------------------|
  D|------------2---------------2--|-------------------------------|
  A|0-------2/4-----0-------2/4----|------------2---------------2--|
  E|-------------------------------|0-------2/4-----0-------2/4----|
    Desmond has a   barrow  in  the market      place           Molly

                                        A
  e|0---0-- ----0-- ----0-- ----0--|----0-- ----0-- ----0-- ----0--|
  B|0---0-------0-------0-------0--|----2-------2-------2-------2--|
  G|1---1-------1-------1-------1--|----2-------2-------2-------2--|
  D|-------------------------------|-------------------------------|
  A|-------------------------------|-------------------------------|
  E|-------------------------------|-------------------------------|

  e|------- ------- ------- -------|------- ------- ------- -------|
  B|-------------------------------|-------------------------------|
  G|-------------------------------|-------------------------------|
  D|-------------------------------|------------2---------------2--|
  A|------------2---------------2--|0-------2/4-----0-------2/4----|
  E|0-------2/4-------------2/4----|-------------------------------|
            is  the singer  in  a   band                        Desmond

                                D
  e|----0-- ----0-- ----0-- -------|------- ------- ------- -------|
  B|----2-------2-------2----------|--------------------3-------3--|
  G|----2-------2-------2-------2--|2---2-------2---2---2-------2--|
  D|----------------------------4--|4---4-------4---4---4-------4--|
  A|----------------------------5--|5---5-------5---5--------------|
  E|-------------------------------|-------------------------------|

  e|------- ------- ------- -------|------- ------- ------- -------|
  B|-------------------------------|-------------------------------|
  G|-------------------------------|------------2---------------2--|
  D|------------2---------------2--|0-------2/4-----0-------2/4----|
  A|0-------2/4-----0-------2/4----|-------------------------------|
  E|-------------------------------|-------------------------------|
            says    Molly   Girl    like        face    and Molly
                to              I       your


        A               E               A
  e|----0-- ----0-- ----0-- ----0--|----0-- 0---0-- ----0-- ----0--|
  B|----2-------2-------0-------0--|----2---2---2-------2-------2--|
  G|----2-------2-------1-------1--|----2---2---2-------2-------2--|
  D|-------------------------------|-------------------------------|
  A|-------------------------------|-------------------------------|
  E|-------------------------------|-------------------------------|

  e|------- ------- ------- -------|------- ------- ------- -------|
  B|-------------------------------|-------------------------------|
  G|-------------------------------|-------------------------------|
  D|------------2------------------|------------2---------------2--|
  A|0-------2/4-----------------2--|0-------2/4-----0-------2/4----|
  E|----------------0-------2/4----|-------------------------------|
    says    as  she takes   by  the                     Ob   La Di
        this            him       hand


    00:27
        A                           E           F#m7
  e|----0-- ----0-- ----0-- ----0--|0---0-- ----0-- ----0-- ----0--|
  B|----2-------2-------2-------2--|0---0-------2-------2-------2--|
  G|----2-------2-------2-------2--|1---1-------2-------2-------2--|
  D|-------------------------------|------------4-------4-------4--|
  A|-------------------------------|-------------------------------|
  E|-------------------------------|-------------------------------|

  e|------- ------- ------- -------|------- ------- ------- -------|
  B|-------------------------------|-------------------------------|
  G|-------------------------------|-------------------------------|
  D|------------2---------------2--|2-----------2---4--------------|
  A|0-------2/4-----0-------2/4----|-------/4--------------/4---2--|
  E|-------------------------------|-------------------------------|
        Ob  La  Da      Life    on              bra             La
                            goes


        A       E                       A
  e|0---0-- ----0-- 0---0-- ----0--|----0-- ----0-- ----0-- ----0--|
  B|2---2-------0---0---0-------0--|----2-------2-------2-------2--|
  G|2---2-------1---1---1-------1--|----2-------2-------2-------2--|
  D|-------------------------------|-------------------------------|
  A|-------------------------------|-------------------------------|
  E|-------------------------------|-------------------------------|

  e|------- ------- ------- -------|------- ------- ------- -------|
  B|-------------------------------|-------------------------------|
  G|-------------------------------|-------------------------------|
  D|------------2------------------|------------2---------------2--|
  A|0-------2/4-----------------2--|0-------2/4-----0-------2/4----|
  E|----------------0-------2/4----|-------------------------------|
        la  how the life        on                      Ob   La Di
                        goes

  e|----0-- ----0-- ----0-- ----0--|----0-- ----0-- ------- -------|
  B|----2-------2-------2-------2--|----0-------0---2---2-------2--|
  G|----2-------2-------2-------2--|----1-------1---2---2-------2--|
  D|-------------------------------|----------------4---4-------4--|
  A|-------------------------------|-------------------------------|
  E|-------------------------------|-------------------------------|

  e|------- ------- ------- -------|------- ------- ------- -------|
  B|-------------------------------|-------------------------------|
  G|-------------------------------|-------------------------------|
  D|------------2---------------2--|2-----------2---4--------------|
  A|0-------2/4-----0-------2/4----|-------/4--------------/4---2--|
  E|-------------------------------|-------------------------------|
        Ob  La  Da      Life    on              bra             La
                            goes

  e|----0-- ----0-- ----0-- ----0--|----0-- ----0-- ----0-- ----0--|
  B|----2-------2-------0-------0--|----2-------2-------2-------2--|
  G|----2-------2-------1-------1--|----2-------2-------2-------2--|
  D|-------------------------------|-------------------------------|
  A|-------------------------------|-------------------------------|
  E|-------------------------------|-------------------------------|

  e|------- ------- ------- -------|------- ------- ------- -------|
  B|-------------------------------|-------------------------------|
  G|-------------------------------|-------------------------------|
  D|------------2------------------|------------2---------------2--|
  A|0-------2/4-----------------2--|0-------2/4-----0-------2/4----|
  E|----------------0-------2/4----|-------------------------------|

  e|------- ------- ------- -------|------- ------- ------- -------|
  B|-------------------------------|-------------------------------|
  G|-------------------------------|-------------------------------|
  D|-------------------------------|----------------------------2H4|
  A|-------------------------------|------------------------2H4----|
  E|-------------------------------|-------------------------------|
        la  how the life        on
                        goes

    00:45
    Desmond takes a trolley to the jewellers store
    Buys a twenty carat golden ring
    Takes it back to Molly waiting at the door
    And as he


  e|----0-- ----0-- ----0-- ----0--|----0-- ----0-- ----0-- ----0--|
  B|----2-------2-------0-------0--|----2-------2-------2-------2--|
  G|----2-------2-------1-------1--|----2-------2-------2-------2--|
  D|-------------------------------|-------------------------------|
  A|-------------------------------|-------------------------------|
  E|-------------------------------|-------------------------------|

  e|------- ------- ------- -------|------- ------- ------- -------|
  B|-------------------------------|-------------------------------|
  G|-------------------------------|-------------------------------|
  D|------------2------------------|------------2---------------2--|
  A|0-------2/4-----------------2--|0-------2/4-----0-------2/4----|
  E|----------------0-------2/4----|-------------------------------|

  e|------- ------- ------- -------|------- ------- ------- -------|
  B|-------------------------------|-------------------------------|
  G|-------------------------------|----------------------2--------|
  D|-------------------------------|-------------2--2H4-----4---2--|
  A|-------------------------------|-------------------------------|
  E|-------------------------------|-------------------------------|
    gives   to her  she begins  to  sing.               Obladi
        it


    01:01

  e|----0-- ----0-- ----0-- ----0--|----0-- ----0-- ----0-- ----0--|
  B|----2-------2-------2-------2--|----0-------2-------2-------2--|
  G|----2-------2-------2-------2--|----1-------2-------2-------2--|
  D|-------------------------------|------------4-------4-------4--|
  A|-------------------------------|-------------------------------|
  E|-------------------------------|-------------------------------|

  e|------- ------- ------- -------|------- ------- ------- -------|
  B|-------------------------------|-------------------------------|
  G|-------------------------------|-------------------------------|
  D|------------2---------------2--|2-----------2---4--------------|
  A|0-------2/4-----0-------2/4----|-------/4--------------/4---2--|
  E|-------------------------------|-------------------------------|
        Ob  La  Da      Life    on              bra             La
                            goes
    La  la  la  la  la  la  la  la  la  la  la  laaaaaaaaaaaahh

  e|----0-- ----0-- ----0-- ----0--|----0-- ----0-- ----0-- ----0--|
  B|----2-------2-------0-------0--|----2-------2-------2-------2--|
  G|----2-------2-------1-------1--|----2-------2-------2-------2--|
  D|-------------------------------|-------------------------------|
  A|-------------------------------|-------------------------------|
  E|-------------------------------|-------------------------------|

  e|------- ------- ------- -------|------- ------- ------- -------|
  B|-------------------------------|-------------------------------|
  G|-------------------------------|-------------------------------|
  D|------------2------------------|------------2---------------2--|
  A|0-------2/4-----------------2--|0-------2/4-----0-------2/4----|
  E|----------------0-------2/4----|-------------------------------|
        la  how the life        on                      Ob   La Di
                        goes


  e|----0-- ----0-- ----0-- ----0--|----0-- ----0-- ----2-- ----2--|
  B|----2-------2-------2-------2--|----0-------0-------2-------2--|
  G|----2-------2-------2-------2--|----1-------1-------2-------2--|
  D|-------------------------------|--------------------4-------4--|
  A|-------------------------------|-------------------------------|
  E|-------------------------------|-------------------------------|

  e|------- ------- ------- -------|------- ------- ------- -------|
  B|-------------------------------|-------------------------------|
  G|-------------------------------|-------------------------------|
  D|------------2---------------2--|2-----------2---4--------------|
  A|0-------2/4-----0-------2/4----|-------/4--------------/4---2--|
  E|-------------------------------|-------------------------------|
        Ob  La  Da      Life    on              bra             La
                            goes
    La  la  la  la  la  la  la  la  la  la  la  laaaaaaaaaaaahh


                                                    X   X X X X X

  e|----0-- ----0-- ----0-- ----0--|----0-- ----0-- ----0-- ----0--|
  B|----2-------2-------0-------0--|----2-------2-------2-------2--|
  G|----2-------2-------1-------1--|----2-------2-------2-------2--|
  D|-------------------------------|-------------------------------|
  A|-------------------------------|-------------------------------|
  E|-------------------------------|-------------------------------|

  e|------- ------- ------- -------|------- ------- ------- -------|
  B|-------------------------------|-------------------------------|
  G|-------------------------------|-------------------------------|
  D|------------2------------------|------------2------------------|
  A|0-------2/4-----------------2--|0-------2/4-----0----2--3---4--|
  E|----------------0-------2/4----|-------------------------------|
        la  how the life        on              Yeah
                        goes

    01:18
    X
        D
  e|----2-- ----2-- ----2-- ----2--|----2-- ----2-- ----2-- ----2--|
  B|----3-------3-------3-------3--|----3-------3-------3-------3--|
  G|----2-------2-------2-------2--|----2-------2-------2-------2--|
  D|-------------------------------|-------------------------------|
  A|-------------------------------|-------------------------------|
  E|-------------------------------|-------------------------------|

  e|------- ------- ------- -------|------- ------- ------- -------|
  B|-------------------------------|-------------------------------|
  G|-------------------------------|-------------------------------|
  D|-------------------------------|-------------------------------|
  A|5-------5-------5-------5------|5------5--------5-------5---7--|
  E|----5-------5-------5-------5--|------------5-------5----------|
        In  couple  years   they    built   a   home    sweet   home
          a     of              have


        A
  e|----0-- ----0-- ----0-- ----0--|----0-- ----0-- ----0-- ----0--|
  B|----2-------2-------2-------2--|----2-------2-------2-------2--|
  G|----2-------2-------2-------2--|----2-------2-------2-------2--|
  D|-------------------------------|-------------------------------|
  A|-------------------------------|-------------------------------|
  E|-------------------------------|-------------------------------|

  e|------- ------- ------- -------|------- ------- ------- -------|
  B|-------------------------------|-------------------------------|
  G|-------------------------------|-------------------------------|
  D|-------------------------------|-------------------------------|
  A|-------------------------------|--------------------2---3---4--|
  E|5---0---5---0---5---0---5---0--|5---0---5---0---5--------------|

  e|9---9-- ------- 7---7-- -------|5---5-- ------- 3---3-- -------|
  B|-------------------------------|-------------------------------|
  G|9---9-------9---7---7-------7--|6---6-------6---4---4-------4--|
  D|-------------------------------|-------------------------------|
  A|-------------------------------|-------------------------------|
  E|-------------------------------|-------------------------------|


        D
  e|----2-- ----2-- ----2-- ----2--|----2-- ----2-- ----2-- ----2--|
  B|----3-------3-------3-------3--|----3-------3-------3-------3--|
  G|----2-------2-------2-------2--|----2-------2-------2-------2--|
  D|-------------------------------|-------------------------------|
  A|-------------------------------|-------------------------------|
  E|-------------------------------|-------------------------------|

  e|------- ------- ------- -------|------- ------- ------- -------|
  B|-------------------------------|-------------------------------|
  G|-------------------------------|-------------------------------|
  D|-------------------------------|-------------------------------|
  A|5-------5-------5-------5------|5------5--------5---x---6---7--|
  E|----5-------5---------------5--|------------5------------------|

  e|2------ ------- ------- -------|------- ------- ------- -------|
  B|-------------------------------|-------------------------------|
  G|2------------------------------|-------------------------------|
  D|-------------------------------|-------------------------------|
  A|-------------------------------|-------------------------------|
  E|-------------------------------|-------------------------------|
        With    of  kids    running in      the yard            of
          a couple


        A                               E
  e|----0-- ----0-- ----0-- ----0--|----0-- ----0-- ----0-- 0---0--|
  B|----2-------2-------2-------2--|----0-------0-------0---0---0--|
  G|----2-------2-------2-------2--|----1-------1-------1---1---1--|
  D|-------------------------------|-------------------------------|
  A|-------------------------------|-------------------------------|
  E|-------------------------------|-------------------------------|

  e|------- ------- ------- -------|------- ------- ------- -------|
  B|-------------------------------|-------------------------------|
  G|-------------------------------|-------------------------------|
  D|-------------------------------|-------------------------------|
  A|----7--------7------7-------7--|----7-------7-------5---4------|
  E|-------------------------------|----------------------------7--|
    Desmond and Molly           Jones
                                                    Ha  ha  ha  ha


    01:35
    Happy ever after in the market place
    Desmond lets the children lend a hand
    Molly stays at home and does her pretty face
    And in the ...


  e|----0-- ----0-- ----0-- ----0--|----0-- ----0-- ----0-- ----0--|
  B|----2-------2-------0-------0--|----2-------2-------2-------2--|
  G|----2-------2-------1-------1--|----2-------2-------2-------2--|
  D|-------------------------------|-------------------------------|
  A|-------------------------------|-------------------------------|
  E|-------------------------------|-------------------------------|

  e|------- ------- ------- -------|------- ------- ------- -------|
  B|-------------------------------|-------------------------------|
  G|-------------------------------|-------------------------------|
  D|------------2------------------|------------2---------------2--|
  A|0-------2/4-----------------2--|0-------2/4-----0-------2/4----|
  E|----------------0-------2/4----|-------------------------------|

  e|------- ------- ------- -------|------- ------- ------- ----5--|
  B|-------------------------------|----------------5---7----------|
  G|-------------------------------|--------6-------------------2--|
  D|-------------------------------|----7-----------2---4----------|
  A|-------------------------------|--------4----------------------|
  E|-------------------------------|----5--------------------------|
    evening she still   in  with  band.         Yes!    Ob  la  di
                    sings       the


    01:52

  e|----0-- ----0-- ----0-- ----0--|----0-- ----0-- ----0-- ----0--|
  B|----2-------2-------2-------2--|----0-------0-------2-------2--|
  G|----2-------2-------2-------2--|----1-------1-------2-------2--|
  D|-------------------------------|--------------------4-------4--|
  A|-------------------------------|-------------------------------|
  E|-------------------------------|-------------------------------|

  e|------- ------- ------- -------|------- ------- ------- -------|
  B|-------------------------------|-------------------------------|
  G|-------------------------------|-------------------------------|
  D|------------2---------------2--|2-----------2---4--------------|
  A|0-------2/4-----0-------2/4----|-------/4--------------/4---2--|
  E|-------------------------------|-------------------------------|

  e|----5-- 7------ 9---5-- ----7--|----5-- 4------ 5------ -------|
  B|-------------------------------|--------------------7----------|
  G|----2---4-------6---2-------4--|----2---1-------2--------------|
  D|-------------------------------|--------------------4--------7-|
  A|-------------------------------|-------------------------------|
  E|-------------------------------|-----------------------------5-|
        Ob  La  Da      Life    on              bra             La
                            goes

  e|----0-- ----0-- ----0-- ----0--|----0-- ----0-- ----0-- ----0--|
  B|----2-------2-------0-------0--|----2-------2-------2-------2--|
  G|----2-------2-------1-------1--|----2-------2-------2-------2--|
  D|-------------------------------|-------------------------------|
  A|-------------------------------|-------------------------------|
  E|-------------------------------|-------------------------------|

  e|------- ------- ------- -------|------- ------- ------- -------|
  B|-------------------------------|-------------------------------|
  G|-------------------------------|-------------------------------|
  D|------------2------------------|------------2---------------2--|
  A|0-------2/4-----------------2--|0-------2/4-----0-------2/4----|
  E|----------------0-------2/4----|-------------------------------|

  e|------- ------- ------- -------|------- ------- ------- ----5--|
  B|----------------5---5----------|----------------5---7----------|
  G|--------6----------------------|--------6-------------------2--|
  D|----7-----------2---2-------7--|----7-----------2---4----------|
  A|--------4----------------------|--------4----------------------|
  E|----5-----------------------5--|----5--------------------------|
        la  how the life        on              Yeah    Ob   La Di
                        goes
                                        He  he  he  he


  e|----0-- ----0-- ----0-- ----0--|----0-- ----0-- ------- -------|
  B|----2-------2-------2-------2--|----0-------0-------2-------2--|
  G|----2-------2-------2-------2--|----1-------1-------2-------2--|
  D|-------------------------------|--------------------4-------4--|
  A|-------------------------------|-------------------------------|
  E|-------------------------------|-------------------------------|

  e|------- ------- ------- -------|------- ------- ------- -------|
  B|-------------------------------|-------------------------------|
  G|-------------------------------|-------------------------------|
  D|------------2---------------2--|2-----------2---4--------------|
  A|0-------2/4-----0-------2/4----|-------/4--------------/4---2--|
  E|-------------------------------|-------------------------------|

  e|----5-- 7------ 9---5-- ----7--|----5-- 4------ 5------ -------|
  B|-------------------------------|--------------------7----------|
  G|----2---4-------6---2-------4--|----2---1-------2--------------|
  D|-------------------------------|--------------------4--------7-|
  A|-------------------------------|-------------------------------|
  E|-------------------------------|-----------------------------5-|
        Ob  La  Da      Life    on              bra             La
                            goes

  e|----0-- ----0-- 0---0-- ----0--|----0-- ----0-- ------- -------|
  B|----2-------2---0---0-------0--|----2-------2--------------------|
  G|----2-------2---1---1-------1--|----2-------2--------------------|(Backhand-gliss)
  D|-------------------------------|---------------------------------|
  A|-------------------------------|---------------------------------|
  E|-------------------------------|---------------------------------|

  e|------- ------- ------- -------|------- ------- ------- -------|
  B|-------------------------------|-------------------------------|
  G|-------------------------------|-------------------------------|
  D|------------2------------------|------------2------------------|
  A|0-------2/4-----------------2--|0-------2/4-----0---2---3---4--|
  E|----------------0-------2/4----|-------------------------------|

  e|------- ------- ------- -------|------- ------- ------- -------|
  B|----------------5---5----------|-------------------------------|
  G|--------6----------------------|-------------------------------|
  D|----7-----------2---2-------7--|-------------------------------|
  A|--------4----------------------|-------------------------------|
  E|----5-----------------------5--|-------------------------------|
        la  how the life        on
                        goes


    02:09
    In a couple of years they have built
    A home sweet home
    With a couple of kids running in the yard
    Of ...

  e|----0-- ----0-- ----0-- ----0--|----0-- ----0-- ----0-- 0---0--|
  B|----2-------2-------2-------2--|----0-------0-------0---0---0--|
  G|----2-------2-------2-------2--|----1-------1-------1---1---1--|
  D|-------------------------------|-------------------------------|
  A|-------------------------------|-------------------------------|
  E|-------------------------------|-------------------------------|

  e|------- ------- ------- -------|------- ------- ------- -------|
  B|-------------------------------|-------------------------------|
  G|-------------------------------|-------------------------------|
  D|-------------------------------|-------------------------------|
  A|----7--------7------7-------7--|----7-------7-------5---4------|
  E|-------------------------------|----------------------------7--|

  e|----7-- 5---4-- ------- -------|------- ------- ------- -------|
  B|----------------7---5----------|-------------------------------|
  G|------------------------7---6--|4------------------------------|
  D|-------------------------------|----7---6---4------------------|
  A|-------------------------------|----------------7---5---4------|
  E|-------------------------------|----------------------------7--|
    Desmond and Molly           Jones.
                                        Ha  ha  ha  ha  ha  ha  ha


    02:26                                                            ....

  e|----0-- ----0-- ----0-- ----0--|----0-- ----0-- ----0-- ----0--|
  B|----2-------2-------2-------2--|----0-------0-------0-------0--|
  G|----2-------2-------2-------2--|----1-------1-------1-------1--|
  D|-------------------------------|-------------------------------|
  A|-------------------------------|-------------------------------|
  E|-------------------------------|-------------------------------|

  e|------- ------- ------- -------|------- ------- ------- -------|
  B|-------------------------------|-------------------------------|
  G|-------------------------------|-------------------------------|
  D|------------2---------------2--|-------------------------------|
  A|0-------2/4-----0-------2/4----|------------2---------------2--|
  E|-------------------------------|0-------2/4-----0-------2/4----|
    Happy   ever    after   in  the market      place
    ha  ha  ha

  e|----0-- ----0-- ----0-- ----0--|----0-- ----0-- ----0-- ----0--|
  B|----0-------0-------0-------0--|----2-------2-------2-------2--|
  G|----1-------1-------1-------1--|----2-------2-------2-------2--|
  D|-------------------------------|-------------------------------|
  A|-------------------------------|-------------------------------|
  E|-------------------------------|-------------------------------|

  e|------- ------- ------- -------|------- ------- ------- -------|
  B|-------------------------------|-------------------------------|
  G|-------------------------------|-------------------------------|
  D|-------------------------------|------------2---------------2--|
  A|------------2---------------2--|0-------2/4-----0-------2/4----|
  E|0-------2/4-------------2/4----|-------------------------------|

  e|------- ------- ------- -------|------- ------- -----12 -------|
  B|-------------------------------|------5------------14-----14---|
  G|-------------------------------|----6-----6-----14----------14-|
  D|-------------------------------|7-----------7------------------|
  A|-------------------------------|-------------------------------|
  E|-------------------------------|-------------------------------|
    Molly   lets    children    a   hand
                the         lend

  e|----0-- ----0-- ----0-- ----0--|----2-- ----2-- ----2-- ----2--|
  B|----2-------2-------2-------2--|----3-------3-------3-------3--|
  G|----2-------2-------2-------2--|----2-------2-------2-------2--|
  D|-------------------------------|-------------------------------|
  A|-------------------------------|-------------------------------|
  E|-------------------------------|-------------------------------|

  e|------- ------- ------- -------|------- ------- ------- -------|
  B|-------------------------------|-------------------------------|
  G|-------------------------------|------------2---------------2--|
  D|------------2---------------2--|0-------2/4-----0-------2/4----|
  A|0-------2/4-----0-------2/4----|-------------------------------|
  E|-------------------------------|-------------------------------|

  e|------- ------- ------- -------|------- ------- ------5 -------|
  B|-------------------------------|--------------------7-----7----|
  G|-------------------------------|------2---------7-----------7--|
  D|-------------------------------|----4-----4--------------------|
  A|-------------------------------|5-----------5------------------|
  E|-------------------------------|-------------------------------|
    Desmond stays   home    does    pretty      face    and in  the
              at      and     his

  e|----0-- ----0-- ----0-- ----0--|----0-- ----0-- ----0-- ----0--|
  B|----2-------2-------0-------0--|----2-------2-------2-------2--|
  G|----2-------2-------1-------1--|----2-------2-------2-------2--|
  D|-------------------------------|-------------------------------|
  A|-------------------------------|-------------------------------|
  E|-------------------------------|-------------------------------|

  e|------- ------- ------- -------|------- ------- ------- -------|
  B|-------------------------------|-------------------------------|
  G|-------------------------------|-------------------------------|
  D|------------2------------------|------------2---------------2--|
  A|0-------2/4-----------------2--|0-------2/4-----0-------2/4----|
  E|----------------0-------2/4----|-------------------------------|

  e|------- ------- ------- -------|------- ------- ------- ----5--|
  B|-------------------------------|----------------5---7----------|
  G|-------------------------------|--------6-------------------2--|
  D|-------------------------------|----7-----------2---4----------|
  A|-------------------------------|--------4----------------------|
  E|-------------------------------|----5--------------------------| ...
    evening she's   singer  with  band                  Ob  la  di
                a               the


    02:43
         oblada life goes on bra
    Lala how the life goes on Yeah
    Obladi Oblada life goes on bra
    Lala how the life goes on.


    02:58

    F#m
  e|2---2-- ----2-- 2---2-- ----2--|2---2-- ----2-- ----2-- ----2--|
  B|2---2-------2---2---2-------2--|2---2-------2-------2-------2--|
  G|2---2-------2---2---2-------2--|2---2-------2-------2-------2--|
  D|4---4-------4---4---4-------4--|4---4-------4-------4-------4--|
  A|-------------------------------|-------------------------------|
  E|-------------------------------|-------------------------------|

  e|------- ------- ------- -------|------- ------- ------- -------|
  B|-------------------------------|-------------------------------|
  G|-------------------------------|-------------------------------|
  D|4---------------4--------------|4---------------4--------------|
  A|--------4---------------4------|--------4---------------4------|
  E|-------------------------------|-------------------------------|

                              And you   some                    take
                                If  want    fun
            Ha  ha  ha  ha  ha  ha          ha  ha  ha  ha  ha  ha


                           (.
    E               A
  e|0---0-- 0---0-- 0------ 9------|------- ------- ------- -------|
  B|0---0---0---0---2------10------|-------------------------------|
  G|1---1---1---1---2-------9------|-------------------------------|
  D|-------------------------------|-------------------------------|
  A|-------------------------------|-------------------------------|
  E|-------------------------------|-------------------------------|

  e|------- ------- ------- -------|------- ------- ------- -------|
  B|-------------------------------|-------------------------------|
  G|-------------------------------|-------------------------------|
  D|2---0--------------------------|-------------------------------|
  A|--------4---2---0--------------|-------------------------------|
  E|-------------------------------|-------------------------------|

                                        Thank you
    ha  ha  ha  ha

        B  Bend
        R  Release
        /  Slide up
        \  Slide down
        H  Hammer-on
        P  Pull-off
        ~  Vibrato
        +  Harmonic
        x  Mute note
        .  Play note like a dot in standard notation
        ^  Ties two notes together
        (. Pause

    ----------------------------------------------------------

    THE BEATLES - WILD HONEY PIE (Lennon & McCartney) From the
                  WHITE ALBUM. Released on 22nd November 1968.

    ----------------------------------------------------------

    Tabbed by:PJVillanueva

    Honey pie  honey pie
    Honey pie  honey pie
    Honey pie  honey pie
    Honey pie  honey pie

    I love you  honey pie


    4/4


  e|6------ ------- 6------ -------|4------ ------- 4------ -------|
  B|--------5---------------5------|--------3---------------3------|
  G|----6-------6-------6-------6--|----4-------4-------4-------4--|
  D|-------------------------------|-------------------------------|
  A|-------------------------------|-------------------------------|
  E|-------------------------------|-------------------------------|

  e|12----- ------- 12----- -------|10----- ------- 10----- -------|
  B|--------11--------------11-----|--------9---------------9------|
  G|----11------11------11------11-|----9-------9-------9-------9--|
  D|-------------------------------|-------------------------------|
  A|-------------------------------|-------------------------------|
  E|-------------------------------|-------------------------------|

  e|------- ------- ------- -------|------- ------- ------- -------|
  B|-------------------------------|-------------------------------|
  G|----11-~----11-~----11-~----11-~----9-~-----9-~-----9-~-----9-~|
  D|-------------------------------|-------------------------------|
  A|-------------------------------|-------------------------------|
  E|-------------------------------|-------------------------------|


                                    2/4

  e|3---3-- 3---3-- 2---2-- 2---2--|1---1-- 1---1--|
  B|2---2---2---2---1---1---1---1--|0---0---0---0--|
  G|3---3---3---3---2---2---2---2--|1---1---1---1--|
  D|-------------------------------|---------------|
  A|-------------------------------|---------------|
  E|-------------------------------|---------------|

  e|9---9-- 9---9-- 8---8-- 8---8--|7---7-- 7---7--|
  B|8---8---8---8---7---7---7---7--|6---6---6---6--|
  G|8---8---8---8---7---7---7---7--|6---6---6---6--|
  D|-------------------------------|---------------|
  A|-------------------------------|---------------|
  E|-------------------------------|---------------|

  e|------- ------- ------- -------|------- -------|
  B|-------------------------------|---------------|
  G|8---8---8---8---7---7---7---7--|6---6---6---6--|
  D|-------------------------------|---------------|
  A|-------------------------------|---------------|
  E|-------------------------------|---------------|


    4/4

  e|6---6-- 6---6-- 6------ -------|6---6-- 6---6-- 6------ -------|
  B|5---5---5---5---5---5----------|5---5---5---5---5---5----------|
  G|6---6---6---6---6--------------|6---6---6---6---6--------------|
  D|-------------------------------|-------------------------------|
  A|-------------------------------|-------------------------------|
  E|-------------------------------|-------------------------------|

  e|12--12- 12--12- 12--12- 12-----|12--12- 12----- 12----- -------|
  B|11--11--11--11--11--11--11-----|11--11--11------11-------------|
  G|11--11--11--11--11--11--11-----|11--11--11------11-------------|
  D|-------------------------------|-------------------------------|
  A|-------------------------------|-------------------------------|
  E|-------------------------------|-------------------------------|

  e|------- ------- ------- -------|------- ------- ------- -------|
  B|--------11---------------------|-------------------------------|
  G|----11------11------9---11-----|9---9---9---9---9--------------|
  D|-------------------------------|-------------------------------|
  A|-------------------------------|-------------------------------|
  E|-------------------------------|-------------------------------|
    Honey                           honey
        pie                             pie

    00:15

  e|6------ ------- 6------ -------|4------ ------- 4------ -------|
  B|--------5---------------5------|--------3---------------3------|
  G|----6-------6-------6-------6--|----4-------4-------4-------4--|
  D|-------------------------------|-------------------------------|
  A|-------------------------------|-------------------------------|
  E|-------------------------------|-------------------------------|

  e|12----- ------- 12----- -------|10----- ------- 10----- -------|
  B|11------11------11------11-----|-9------9--------9------9------|
  G|--------11--------------11-----|--------9---------------9------|
  D|-------------------------------|-------------------------------|
  A|-------------------------------|-------------------------------|
  E|-------------------------------|-------------------------------|

  e|------- ------- ------- -------|------- ------- ------- -------|
  B|-------------------------------|-------------------------------|
  G|-------------------------------|-------------------------------|
  D|-------------------------------|-------------------------------|
  A|-------------------------------|-------------------------------|
  E|-------------------------------|-------------------------------|


  e|3---3-- 3---3-- 2---2-- 2---2--|1---1-- 1---1--|
  B|2---2---2---2---1---1---1---1--|0---0---0---0--|
  G|3---3---3---3---2---2---2---2--|1---1---1---1--|
  D|-------------------------------|---------------|
  A|-------------------------------|---------------|
  E|-------------------------------|---------------|

  e|9---9-- 9---9-- 8---8-- 8---8--|7---7-- 7---7--|
  B|8---8---8---8---7---7---7---7--|6---6---6---6--|
  G|8---8---8---8---7---7---7---7--|6---6---6---6--|
  D|-------------------------------|---------------|
  A|-------------------------------|---------------|
  E|-------------------------------|---------------|

  e|------- ------- ------- -------|------- -------|
  B|-------------------------------|---------------|
  G|8---8---8---8---7---7---7---7--|6---6---6---6--|
  D|-------------------------------|---------------|
  A|-------------------------------|---------------|
  E|-------------------------------|---------------|


  e|6------ ------- 6------ -------|6------ ------- 6------ -------|
  B|5---------------5--------------|5---------------5--------------|
  G|6---------------6--------------|6---------------6--------------|
  D|-------------------------------|-------------------------------|
  A|-------------------------------|-------------------------------|
  E|-------------------------------|-------------------------------|

  e|12----- ------- 12----- -------|12----- ------- 12----- -------|
  B|11------11------11------11-----|11------11------11------11-----|
  G|--------11--------------11-----|--------11--------------11-----|
  D|-------------------------------|-------------------------------|
  A|-------------------------------|-------------------------------|
  E|-------------------------------|-------------------------------|

  e|------- ------- ------- -------|------- ------- ------- -------|
  B|--------11-~------------11-~---|--------11-~------------11-~---|
  G|----11-~----11-~----11-~----11-|----11-~----11-~----11-~----11-|
  D|-------------------------------|-------------------------------|
  A|-------------------------------|-------------------------------|
  E|-------------------------------|-------------------------------|
    Honey                           honey
        pie                             pie

    00:29

  e|6------ ------- 6------ -------|4------ ------- 4------ -------|
  B|--------5---------------5------|--------3---------------3------|
  G|----6-------6-------6-------6--|----4-------4-------4-------4--|
  D|-------------------------------|-------------------------------|
  A|-------------------------------|-------------------------------|
  E|-------------------------------|-------------------------------|

  e|12--12- 12----- 12---12 -------|----10- ------- 10----- ----10-|
  B|-------------------------------|9-----------9---------9--------|
  G|-------------------------------|-------------------------------|
  D|-------------------------------|-------------------------------|
  A|-------------------------------|-------------------------------|
  E|-------------------------------|-------------------------------|

  e|------- ------- ------- -------|------- ------- ------- -------|
  B|-------------------------------|----------9-~---------9-~------|
  G|----11-~----11-~----11-~----/15|9-~-----9-~---------9-~-----9-~|
  D|-------------------------------|-------------------------------|
  A|-------------------------------|-------------------------------|
  E|-------------------------------|-------------------------------|


  e|3---3-- 3---3-- 2---2-- 2---2--|1---1-- 1---1--|
  B|2---2---2---2---1---1---1---1--|0---0---0---0--|
  G|3---3---3---3---2---2---2---2--|1---1---1---1--|
  D|-------------------------------|---------------|
  A|-------------------------------|---------------|
  E|-------------------------------|---------------|

  e|9---9-- 9------ 8---8-- 8------|7---7-- 7------|
  B|8---8---8-------7---7---7------|6---6---6------|
  G|8---8---8-------7---7---7------|6---6---6------|
  D|------------8---------------7--|------------6--|
  A|-------------------------------|---------------|
  E|-------------------------------|---------------|

  e|------- ------- ------- -------|------- -------|
  B|-------------------------------|---------------|
  G|8---8---8-~-----7---7---7-~----|6---6---6-~----|
  D|-------------------------------|---------------|
  A|-------------------------------|---------------|
  E|-------------------------------|---------------|

    00:39

  e|6---6-- 6---6-- 6---6-- 6---6--|4---4-- 4-4-4-- 4---4-- 4---4--|
  B|5---5---5---5---5---5---5---5--|3---3---3-3-3---3---3---3---3--|
  G|6---6---6---6---6---6---6---6--|4---4---4-4-4---4---4---4---4--|
  D|-------------------------------|-------------------------------|
  A|-------------------------------|-------------------------------|
  E|-------------------------------|-------------------------------|

  e|12--12- 12--12- 12----- 12--12-|10--10- 10--10- 10----- 10--19-|
  B|11--11--11--11--11------11--11-|-9---9---9---9---9-------9---9-|
  G|11--11--11--11--11--11--11--11-|-9---9---9---9---9---9---9---9-|
  D|-------------------------------|-------------------------------|
  A|-------------------------------|-------------------------------|
  E|-------------------------------|-------------------------------|
    Honey                           honey
        pie                             pie


  e|6---6-- 6---6-- 6------ 6---6--|4---4-- 4------ ------- -------|
  B|5---5---5---5---5---5---5---5--|3---3---3---3---3---3---3---3--|
  G|6---6---6---6---6---6---6---6--|4---4---4---4---4---4---4---4--|
  D|-------------------------------|-------------------------------|
  A|-------------------------------|-------------------------------|
  E|-------------------------------|-------------------------------|

  e|12--12- 12----- 12--12- 12--12-|10--10- 10----- 10----- 10-----|
  B|11--11--11------11--11--11--11-|-9---9---9-------9-------9-----|
  G|11--11--11--11--11--11--11--11-|-9---9---9---9---9---9---9-----|
  D|-------------------------------|-------------------------------|
  A|-------------------------------|-------------------------------|
  E|-------------------------------|-------------------------------|
    Honey                           honey                       I
        pie                             pie


  e|6------ ------- ------- -------|------- ------- ------- -------|
  B|7------------------------------|-------------------------------|
  G|6------------------------------|-------------------------------|
  D|-------------------------------|-------------------------------|
  A|-------------------------------|-------------------------------|
  E|-------------------------------|-------------------------------|

  e|------- ------- ------- -------|------- ------- ------- -------|
  B|11-----------------------------|-------------------------------|
  G|11-----------------------------|-------------------------------|
  D|-------------------------------|-------------------------------|
  A|-------------------------------|-------------------------------|
  E|-------------------------------|-------------------------------|
    love                honey
        you                 pie
    Wooooooooooooooooooooohhhh  Wooooohh!


        B  Bend
        R  Release
        /  Slide up
        \  Slide down
        H  Hammer-on
        P  Pull-off
        ~  Vibrato
        +  Harmonic
        x  Mute note
        .  Play note like a dot in standard notation
        ^  Ties two notes together
        (. Pause

    ------------------------------------------------------------

    THE BEATLES - THE CONTINUING STORY OF BUNGALLOW BILL (lennon
                  & McCartney) Fron the WHITE ALBUM. Released on
                  22nd November 1968.

    ------------------------------------------------------------

    Tabbed by:PJVillanueva


    Some people said that the flamenco guitar intro  was a guitar
    clip from a record, but it was actually played on a mellotron
    Mark2. The mandolin and the bassoon appearing on the song too
    were also played on Mellotron Mark2 by Beatles assistant Chris
    Thomas.
    The mellotron was a keyboard in which you played some sampled
    instruments contained in tapes. The Mark 2 model had two side
    by side keyboards. On the right keyboard there were 18 "lead
    instrument" sounds arranged in six banks and the left keyboard
    played 7 seconds prerecorded musical rhythms and fills tracks
    in various styles, among which was the flamenco intro used in
    this song. That model's sounds were as follows:


        Organ      - Hammond, church and percussive organ with
                     leslie

        Strings    - Solo violins, solo celli, Mandolin, and
                     combinations and string sections.

        Brass      - Trumpet, trombone and sax.
                         Larger sections and combinations.

        Winds      - Flute, clarinet and basson

        Choirs     - Male, female, augmented choirs and octave.

        Percussion - Vibraphone, bass drum, snare drum.

        Plus the mentioned left keyboard effect loops: Foxtrot Sax
        Phrases, Dixie Land Trombone, Cha Cha Flutes, Bungalow Bill
        Guitar intro, Moving Bass Cello and Violin Chords, Bossa
        Nova Cello and Violins Moving Chords.


    For many years I'd have sweared that it was a flamenco pastiche
    intro by John. It sounded deliberate, maybe satirical, just like
    in a caricature. We all know that he had been in Almeria, Spain,
    two years before, where he was filming Richard Lester's "How I
    Won The War" and qhere he wrote STRAWBERRY FIELDS FOREVER, as we
    all know, and most probably John might have learnt to play a few
    chords and a couple of scales from someone. I had the feeling
    that it was him who had played that intro and that impression was
    reinforced by the fact that the scale structure is not what we
    could call orthodox and the guy who recorded the sample stumbled
    twice and also missed a low G note. It doesn't sound at all like
    a professional flamenco player, but it was precisely that which
    sounded when you pressed that low key on the Mark2.

    Hey Bungalow Bill
    What did you kill
    Bungalow Bill?

    He went out tiger hunting with his elephant and gun
    In case of accidents he always took his mom
    He's the all American bullet-headed saxon mother's son
    All the children sing

    Hey Bungalow Bill
    What did you kill
    Bungalow Bill?

    Deep in the jungle where the mighty tiger lies
    Bill and his elephants were taken by surprise
    So Captain Marvel zapped him right between the eyes
    All the children sing

    Hey Bungalow Bill
    What did you kill
    Bungalow Bill?

    The children asked him if to kill was not a sin
    But when he looked so fierce, his mummy butted in
    If looks could kill it would have been us instead of him
    All the children sing

    Hey Bungalow Bill
    What did you kill
    Bungalow Bill?


              FREE TIME MELLOTRON INTRO

                      (.

            e|---------0----------------------------------|
            B|--------0------4--5-6-5-3-----3-------------|
            G|-------0------------------5-4---5-4-2-------|
            D|------4-------------------------------5-3-2-|
            A|----2---------------------------------------|
            E|0-------------------------------------------|


                                                       (.

            e|------------------------------------------0-|
            B|-----------------------------------------0--|
            G|----------------------------------------0---|
            D|--2-3-2-0-3-2-0-----------------------4-----|
            A|5---------------3-2-0-3-2-0---------2-------|
            E|---------------------------(3)1-0-----------|


    4/4
    00:08

  e|0------ 0------ 3------ 3------|0---0-- 0---0-- 1---1-- 1------|
  B|1-------1-------0-------0------|1---1---1---1---1---1---1------|
  G|0-------0-------0-------0------|0---0---0---0---1---1---1------|
  D|2-------2-------0-------0------|2---2---2---2---3---3---3------|
  A|3-------3-------2-------2------|3---3---3---3---3---3---3------|
  E|----------------3-------3------|----------------1---1---1------|
    Hey             Bungalow    Bill                What    you kill
                                                        did

                                    2/4

  e|0---0-- 0---0-- 1------ 1---1--|3---3-- 3------|
  B|1---1---1---1---1-------1---1--|0---0---0---0--|
  G|0---0---0---0---1-------1---1--|0---0---0---0--|
  D|2---2---2---2---3-------3---3--|0---0---0---0--|
  A|3---3---3---3---3-------3---3--|2---2---2------|
  E|----------------1-------1---1--|3---3---3------|
                    Bungalow    Bill


  e|0------ 0---0-- 0---0-- 0------|0---0-- 0------ 1---1-- 1------|
  B|2-------2---2---0---0---0------|2---2---2---0---3---3---3---0--|
  G|2-------2---2---1---1---1------|2---2---2---0---2---2---2---0--|
  D|2-------2---2---2---2---2------|2---2---2---0---0---0---0---0--|
  A|0-------0---0---2---2---2------|0---0---0----------------------|
  E|----------------0---0---0------|-------------------------------|
    Hey             Bungalow    Bill                What    you kill
                                                        did

  e|0---0-- 0------ 1------ 1---0--|----0-- 0---0-- 0---0-- 0---0--|
  B|2---2---2---0---3-------3---0--|----0---0---0---0---0---0---0--|
  G|2---2---2---0---2-------2---1--|----1---1---1---1---1---1---1--|
  D|2---2---2---0---0-------0---2--|----2---2---2---2---2---2---2--|
  A|0---0---0-------------------2--|----2---2---2---2---2---2---2--|
  E|----------------------------0--|----0---0---0---0---0---0---0--|
                    Bungalow    Bill                            He

    00:24

  e|0---0-- 0---0-- 0---0-- 0---0--|1---1-- 1---1-- 1-1-1-- 3-3-3--|
  B|1---1---1---1---1---1---1---1--|1---1---1---1---1-1-1---3-3-3--|
  G|2---2---2---2---2---2---2---2--|2---2---2---2---2-2-2---4-4-4--|
  D|2---2---2---2---2---2---2---2--|3---3---3---3---3-3-3---5-5-5--|
  A|0---0---0---0---0---0---0---0--|3---3---3---3---3-3-3---5-5-5--|
  E|-------------------------------|1---1---1---1---1-1-1---3-3-3--|
      (This quick mandolin picking has at least 6 notes per beat)
  e|------- ------- ------- -------|------- ------- ------- -------|
  B|-------------------------------|---------------------------------|
  G|-------------------------------|------------------------12121212-|
  D|777777........./10101010................................---------|
  A|-------------------------------|---------------------------------|
  E|-------------------------------|---------------------------------|
    went    tiger   hunting with    elephant    and gun
        out                     his

  e|0------ 0------ 0------ 0------|1---1-- 1------ 1-1-1-- 3---3--|
  B|1-------1-------1-------1------|1---1---1-------1-1-1---3---3--|
  G|2-------2-------2-------2------|2---2---2-------2-2-2---4---4--|
  D|2-------2-------2-------2------|3---3---3-------3-3-3---5---5--|
  A|0-------0-------0-------0------|3---3---3-------3-3-3---5---5--|
  E|-------------------------------|1---1---1-------1-1-1---3---3--|


  e|------- ------- ------- -------|13131313............... 5151515|
  B|10101010........13131313.......|-------------------------------|
  G|-------------------------------|-------------------------------|
  D|-------------------------------|-------------------------------|
  A|-------------------------------|-------------------------------|
  E|-------------------------------|-------------------------------|
        In case of  accidents   he  always  took    mom         He's
                                                his               the

  e|0---0-- 0---0-- 3---3-- 3---3--|0---0-- 0------|
  B|0---0---0---0---3---3---3---3--|1---1---1------|
  G|1---1---1---1---0---0---0---0--|2---2---2------|
  D|2---2---2---2---0---0---0---0--|2---2---2---2--|
  A|2---2---2---2---2---2---2---2--|0---0---0---0--|
  E|0---0---0---0---3---3---3---3--|------------0--|

  e|1212123.........11151515.......|17171717.......|
  B|-------------------------------|---------------|
  G|-------------------------------|---------------|
  D|-------------------------------|---------------|
  A|-------------------------------|---------------|
  E|-------------------------------|---------------|
    all American    bullet          saxon   mother's
                        headed                      son

                                    3/4
   (.                               X       X       X

  e|1------ ------- ------- -------|------- ------- -------|
  B|1------------------------------|-----------------------|
  G|1------------------------------|-----------------------|
  D|3------------------------------|-----------------------|
  A|3------------------------------|-----------------------|
  E|1------------------------------|-----------------------|

  e|20202020.......................|------- ------- -------|
  B|-------------------------------|-----------------------|
  G|-------------------------------|-----------------------|
  D|-------------------------------|-----------------------|
  A|-------------------------------|-----------------------|
  E|-------------------------------|-----------------------|

  e|8-8-8-8 ------- ------- -------|------- ------- -------|
  B|9-9-9-9........................|-----------------------|
  G10101010------------------------|-----------------------|
  D|-------------------------------|-----------------------|
  A|-------------------------------|-----------------------|
  E|-------------------------------|-----------------------|
                                All  children
                                   the      sing


    00:46

  e|0------ 0---0-- 3------ 3------|0---0-- 0------ 1---1-- 1------|
  B|1-------1---1---0-------0------|1---1---1-------1---1---1------|
  G|0-------0---0---0-------0------|0---0---0-------1---1---1------|
  D|2-------2---2---0-------0------|2---2---2-------3---3---3------|
  A|3-------3---3---2-------2------|3---3---3-------3---3---3------|
  E|----------------3-------3------|----------------1---1---1------|
    Hey             Bungalow    Bill                What    you kill
                                                        did

  e|0---0-- 0------ 1------ 1------|1---1-- 1---1--|
  B|1---1---1---0---1-------1------|0---0---0---0--|
  G|0---0---0---0---1-------1------|0---0---0---0--|
  D|2---2---2---0---3-------3------|0---0---0---0--|
  A|3---3---3-------3-------3------|2---2---2---2--|
  E|----------------1-------1------|3---3---3---3--|
                    Bungalow    Bill


  e|0------ 0---0-- 0---0-- 0------|0---0-- 0------ 1---1-- 1------|
  B|2-------2---2---0---0---0------|2---2---2---0---3---3---3---0--|
  G|2-------2---2---1---1---1------|2---2---2---0---2---2---2---0--|
  D|2-------2---2---2---2---2------|2---2---2---0---0---0---0---0--|
  A|0-------0---0---2---2---2------|0---0---0----------------------|
  E|----------------0---0---0------|-------------------------------|
    Hey             Bungalow    Bill                What    you kill
                                                        did

  e|0---0-- 0------ 1------ 1---0--|----0-- 0---0-- 0---0-- 0---0--|
  B|2---2---2---0---3-------3---0--|----0---0---0---0---0---0---0--|
  G|2---2---2---0---2-------2---1--|----1---1---1---1---1---1---1--|
  D|2---2---2---0---0-------0---2--|----2---2---2---2---2---2---2--|
  A|0---0---0-------------------2--|----2---2---2---2---2---2---2--|
  E|----------------------------0--|----0---0---0---0---0---0---0--|
                    Bungalow    Bill

    01:01

  e|0------ 0---0-- 0------ 0---0--|1------ 1---1-- 1-1-1-- 3-3-3--|
  B|1-------1---1---1-------1---1--|1-------1---1---1-1-1---3-3-3--|
  G|2-------2---2---2-------0---2--|2-------2---2---2-2-2---4-4-4--|
  D|2-------2---2---2-------2---2--|3-------3---3---3-3-3---5-5-5--|
  A|0-------0---0---0-------0---0--|3-------3---3---3-3-3---5-5-5--|
  E|-------------------------------|1-------1---1---1-1-1---3-3-3--|

  e|------- ------- ------- -------|------- ------- ------- -------|
  B|-------------------------------|---------------------------------|
  G|-------------------------------|------------------------12121212-|
  D|777777........./10101010................................---------|
  A|-------------------------------|---------------------------------|
  E|-------------------------------|---------------------------------|
        Deep    the         where   mighty  tiger   lies
            in    jungle        the

  e|0------ 0---0-- 0---0-- 0------|1---1-- 1------ 1-1-1-- 3-3-3--|
  B|1-------1---1---1---1---1------|1---1---1-------1-1-1---3-3-3-0|
  G|2-------2---2---2---2---2------|2---2---2-------2-2-2---4-4-4-0|
  D|2-------2---2---2---2---2------|3---3---3-------3-3-3---5-5-5-0|
  A|0-------0---0---0---0---0------|3---3---3-------3-3-3---5-5-5--|
  E|-------------------------------|1---1---1-------1-1-1---3-3-3--|

  e|------- ------- ------- -------|13131313............... 5151515|
  B|10101010........13131313.......|-------------------------------|
  G|-------------------------------|-------------------------------|
  D|-------------------------------|-------------------------------|
  A|-------------------------------|-------------------------------|
  E|-------------------------------|-------------------------------|
        Bill    his elephants   were        by  surprise
            and                     taken

  e|0------ 0------ 3---3-- 3------|0---0-- 0---0--|
  B|0-------0-------3---3---3------|1---1---1---1--|
  G|1-------1-------0---0---0------|2---2---2---2--|
  D|2-------2-------0---0---0------|2---2---2---2--|
  A|2-------2-------2---2---2------|0---0---0---0--|
  E|0-------0---0---3---3---3------|------------0--|

  e|1212123.........11151515.......|17171717.......|
  B|-------------------------------|---------------|
  G|-------------------------------|---------------|
  D|-------------------------------|---------------|
  A|-------------------------------|---------------|
  E|-------------------------------|---------------|
        So  Captain Marvel  zapped  right       the
                                him    between    eyes


   (.                               X       X       X

  e|1------ ------- ------- -------|------- ------- -------|
  B|1------------------------------|-----------------------|
  G|1------------------------------|-----------------------|
  D|3------------------------------|-----------------------|
  A|3------------------------------|-----------------------|
  E|1------------------------------|-----------------------|

  e|20202020.......................|------- ------- -------|
  B|-------------------------------|-----------------------|
  G|-------------------------------|-----------------------|
  D|-------------------------------|-----------------------|
  A|-------------------------------|-----------------------|
  E|-------------------------------|-----------------------|

  e|8-8-8-8 ------- ------- -------|------- ------- -------|
  B|9-9-9-9........................|-----------------------|
  G10101010------------------------|-----------------------|
  D|-------------------------------|-----------------------|
  A|-------------------------------|-----------------------|
  E|-------------------------------|-----------------------|
                               All children
                                  the      sing


    01:24

  e|0------ 0------ 3------ 3------|0---0-- 0---0-- 1---1-- 1------|
  B|1-------1-------0-------0------|1---1---1---1---1---1---1------|
  G|0-------0-------0-------0------|0---0---0---0---1---1---1------|
  D|2-------2-------0-------0------|2---2---2---2---3---3---3------|
  A|3-------3-------2-------2------|3---3---3---3---3---3---3------|
  E|----------------3-------3------|----------------1---1---1------|
    Hey             Bungalow    Bill                What    you kill
                                                        did

  e|0------ 0------ 1------ 1------|3---3-- 3------|
  B|1-------1---0---1-------1------|0---0---0---0--|
  G|0-------0---0---1-------1------|0---0---0---0--|
  D|2-------2---0---3-------3------|0---0---0---0--|
  A|3-------3-------3-------3------|2---2---2------|
  E|----------------1-------1------|3---3---3------|
                    Bungalow    Bill


  e|0------ 0---0-- 0---0-- 0------|0---0-- 0------ 1---1-- 1------|
  B|2-------2---2---0---0---0------|2---2---2---0---3---3---3---0--|
  G|2-------2---2---1---1---1------|2---2---2---0---2---2---2---0--|
  D|2-------2---2---2---2---2------|2---2---2---0---0---0---0---0--|
  A|0-------0---0---2---2---2------|0---0---0----------------------|
  E|----------------0---0---0------|-------------------------------|
    Hey             Bungalow    Bill                What    you kill
                                                        did

  e|0---0-- 0------ 1---1-- 1---0--|----0-- 0------ 0---0-- 0------|
  B|2---2---2---0---3---3---3---0--|----0---0-------0---0---0------|
  G|2---2---2---0---2---2---2---1--|----1---1-------1---1---1------|
  D|2---2---2---0---0---0---0---2--|----2---2-------2---2---2------|
  A|0---0---0-------------------2--|----2---2-------2---2---2------|
  E|----------------------------0--|----0---0-------0---0---0------|
                    Bungalow    Bill

    01:39

  e|0---0-- ----0-- 0------ 0---0--|1---1-- 1---1-- 1-1-1-1 3-3-3-3|
  B|1---1-------1---1-------1---1--|1---1---1---1---1-1-1-1-3-3-3-3|
  G|2---2-------2---2-------0---2--|2---2---2---2---2-2-2-2-4-4-4-4|
  D|2---2-------2---2-------2---2--|3---3---3---3---3-3-3-3-5-5-5-5|
  A|0---0-------0---0-------0---0--|3---3---3---3---3-3-3-3-5-5-5-5|
  E|-------------------------------|1---1---1---1---1-1-1-1-3-3-3-3|

  e|------- ------- ------- -------|------- ------- ------- -------|
  B|-------------------------------|---------------------------------|
  G|-------------------------------|------------------------12121212-|
  D|777777........./10101010................................---------|
  A|-------------------------------|---------------------------------|
  E|-------------------------------|---------------------------------|
        The children    him if  to  kill    not   sin
                asked                   was    a

  e|0------ 0---0-- 0------ 0------|1------ 1-----1 1-1-1-- 3---3--|
  B|1-------1---1---1-------1------|1-------1-----1-1-1-1---3---3--|
  G|2-------2---2---2-------2------|2-------2-----2-2-2-2---4---4--|
  D|2-------2---2---2-------2------|3-------3-----3-3-3-3---5---5--|
  A|0-------0---0---0-------0------|3-------3-----3-3-3-3---5---5--|
  E|-------------------------------|1-------1-----1-1-1-1---3---3--|


  e|------- ------- ------- -------|13131313............... 5151515|
  B|10101010........13131313.......|-------------------------------|
  G|-------------------------------|-------------------------------|
  D|-------------------------------|-------------------------------|
  A|-------------------------------|-------------------------------|
  E|-------------------------------|-------------------------------|
        But when    looked  fierce  mummy   butted
                 he     so      his               in


  e|0---0-- 0------ 3------ 3------|0------ 0------|
  B|0---0---0-------3-------3------|1-------1------|
  G|1---1---1-------0-------0------|2-------2------|
  D|2---2---2-------0-------0------|2-------2------|
  A|2---2---2-------2-------2------|0---0---0------|
  E|0---0---0-------3-------3------|---------------|

  e|1212123.........11151515.......|17171717.......|
  B|-------------------------------|---------------|
  G|-------------------------------|---------------|
  D|-------------------------------|---------------|
  A|-------------------------------|---------------|
  E|-------------------------------|---------------|
        If  looks   kill    would been  instead of
                could    it    have us


   (.                               X       X       X

  e|1------ ------- ------- -------|------- ------- -------|
  B|1------------------------------|-----------------------|
  G|1------------------------------|-----------------------|
  D|3------------------------------|-----------------------|
  A|3------------------------------|-----------------------|
  E|1------------------------------|-----------------------|

  e|20202020.......................|------- ------- -------|
  B|-------------------------------|-----------------------|
  G|-------------------------------|-----------------------|
  D|-------------------------------|-----------------------|
  A|-------------------------------|-----------------------|
  E|-------------------------------|-----------------------|

  e|8-8-8-8 ------- ------- -------|------- ------- -------|
  B|9-9-9-9........................|-----------------------|
  G10101010------------------------|-----------------------|
  D|-------------------------------|-----------------------|
  A|-------------------------------|-----------------------|
  E|-------------------------------|-----------------------|
    him                        All children
                                  the      sing

    02:01

  e|0------ 0------ 3------ 3------|0---0-- 0---0-- 1---1-- 1------|
  B|1-------1-------0-------0------|1---1---1---1---1---1---1------|
  G|0-------0-------0-------0------|0---0---0---0---1---1---1------|
  D|2-------2-------0-------0------|2---2---2---2---3---3---3------|
  A|3-------3-------2-------2------|3---3---3---3---3---3---3------|
  E|----------------3-------3------|----------------1---1---1------|
    Hey             Bungalow    Bill                What    you kill
                                                        did

  e|0---0-- 0------ 1---1-- 1---3--|----3-- 3------|
  B|1---1---1---0---1---1---1---0--|----0---0---0--|
  G|0---0---0---0---1---1---1---0--|----0---0---0--|
  D|2---2---2---0---3---3---3---0--|----0---0---0--|
  A|3---3---3-------3---3---3---2--|----2---2------|
  E|----------------1---1---1---3--|----3---3------|
                    Bungalow    Bill


  e|0---0-- 0------ 0------ 0------|0---0-- 0------ 1---1-- 1------|
  B|2---2---2-------0-------0------|2---2---2---0---3---3---3---0--|
  G|2---2---2-------1-------1------|2---2---2---0---2---2---2---0--|
  D|2---2---2-------2-------2------|2---2---2---0---0---0---0---0--|
  A|0---0---0-------2-------2------|0---0---0----------------------|
  E|----------------0-------0------|-------------------------------|
    Hey             Bungalow    Bill                What    you kill
                                                        did

  e|0---0-- 0------ 1---1-- 1---0--|----0-- 0---0--|
  B|2---2---2---0---3---3---3---0--|----0---0---0--|
  G|2---2---2---0---2---2---2---1--|----1---1---1--|
  D|2---2---2---0---0---0---0---2--|----2---2---2--|
  A|0---0---0-------------------2--|----2---2---2--|
  E|----------------------------0--|----0---0---0--|
                    Bungalow    Bill

    02:16

  e|0------ 0------ 3------ 3---3--|0---0-- 0---0-- 1---1-- 1---0--|
  B|1-------1-------0-------0---0--|1---1---1---1---1---1---1---1--|
  G|0-------0-------0-------0---0--|0---0---0---0---1---1---1---0--|
  D|2-------2-------0-------0---0--|2---2---2---2---3---3---3---2--|
  A|3-------3-------2-------2---2--|3---3---3---3---3---3---3---3--|
  E|----------------3-------3---3--|----------------1---1---1------|

  e|------- ------- ------- -------|------- ------- ------- -------|
  B|-------------------------------|-------------------------------|
  G|5---------------4---5---7---5--|-------------------------------|
  D|-------------------------------|----------------6---3-------5--|
  A|-------------------------------|------------------------5------|
  E|-------------------------------|-------------------------------|
    Hey             Bungalow    Bill                What    you kill
                                                        did

  e|----0-- 0---0-- 1---1-- 1---3--|----3-- 3------|
  B|----1---1---1---1---1---1---0--|----0---0------|
  G|----0---0---0---1---1---1---0--|----0---0------|
  D|----2---2---2---3---3---0---0--|----0---0------|
  A|----3---3---3---3---3---3---2--|----2---2------|
  E|----------------1---1---1---3--|----3---3------|

  e|------- ------- ------- -------|------- -------|
  B|-------------------------------|---------------|
  G|-------------------------------|---------------|
  D|----------------3---5---6---5--|---------------|
  A|-------------------------------|---------------|
  E|-------------------------------|---------------|
                    Bungalow    Bill


  e|0---0-- 0---0-- 0------ 0------|0---0-- 0---0-- 1------ 0------|
  B|2---2---2---2---0---0---0------|2---2---2---2---3-------2------|
  G|2---2---2---2---1---1---1------|2---2---2---2---2-------2------|
  D|2---2---2---2---2---2---2------|2---2---2---2---0-------2------|
  A|0---0---0---0---2---2---2------|0---0---0---0-----------0------|
  E|----------------0---0---0------|-------------------------------|

  e|------- ------- ------- -------|------- ------- ------- -------|
  B|-------------------------------|-------------------------------|
  G|-------------------------------|-------------------------------|
  D|7---------------6---7---9---7--|-------------------------------|
  A|-------------------------------|----------------8---5-------7--|
  E|-------------------------------|------------------------7------|
    Hey             Bungalow    Bill                What    you kill
                                                        did

  e|0---0-- 0---0-- 1------ 1---0--|----0-- 0------|
  B|2---2---2---2---3-------3---0--|----0---0----x-|
  G|2---2---2---2---2-------2---1--|----1---1----x-|
  D|2---2---2---2---0-------0---2--|----2---2----x-|
  A|0---0---0---0---------------2--|----2---2------|
  E|----------------------------0--|----0---0------|

  e|------- ------- ------- -------|------- -------|
  B|-------------------------------|---------------|
  G|-------------------------------|---------------|
  D|-------------------------------|---------------|
  A|----------------5---7---8---7--|---------------|
  E|-------------------------------|---------------|
                    Bungalow    Bill

    02:30

  e|0------ 0---0-- 3---3-- ----3--|0---0-- 0---0-- 1---1-- 1------|
  B|1-------1---1---0---0-------0--|1---1---1---1---1---1---1------|
  G|0-------0---0---0---0-------0--|0---0---0---0---1---1---1------|
  D|2-------2---2---0---0-------0--|2---2---2---2---3---3---3------|
  A|3-------3---3---2---2-------2--|3---3---3---3---3---3---3------|
  E|----------------3---3-------3--|----------------1---1---1------|

  e|------- ------- ------- -------|------- ------- ------- -------|
  B|-------------------------------|-------------------------------|
  G|5---------------4---5---7---5--|-------------------------------|
  D|-------------------------------|----------------6---3-------5--|
  A|-------------------------------|------------------------5------|
  E|-------------------------------|-------------------------------|
    Hey             Bungalow    Bill                What    you kill
                                                        did

  e|0------ 0------ 1---1-- 1------|1---1-- 1---1--|
  B|1-------1---1---1---1---1------|0---0---0---0--|
  G|0-------0---0---1---1---1------|0---0---0---0--|
  D|2-------2---2---3---3---3------|0---0---0---0--|
  A|3-------3---3---3---3---3------|2---2---2---2--|
  E|----------------1---1---1------|3---3---3---3--|

  e|------- ------- ------- -------|------- -------|
  B|-------------------------------|---------------|
  G|-------------------------------|---------------|
  D|----------------3---5---6---5--|---------------|
  A|-------------------------------|---------------|
  E|-------------------------------|---------------|
                    Bungalow    Bill


  e|0------ 0---0-- 0---0-- 0------|0---0-0 0---0-- 1---1-- 1---0-0|
  B|2-------2---2---0---0---0------|2---2-2-2---2---3---3---3---2-2|
  G|2-------2---2---1---1---1------|2---2-2-2---2---2---2---2---2-2|
  D|2-------2---2---2---2---2------|2---2-2-2---0---0---0---0---2-2|
  A|0-------0---0---2---2---2------|0---0-0-0---0---------------0-0|
  E|----------------0---0---0------|-------------------------------|

  e|------- ------- ------- -------|------- ------- ------- -------|
  B|-------------------------------|-------------------------------|
  G|-------------------------------|-------------------------------|
  D|7---------------6---7---9---7--|-------------------------------|
  A|-------------------------------|----------------8---5-------7--|
  E|-------------------------------|------------------------7------|
    Hey             Bungalow    Bill                What    you kill
                                                        did

  e|0---0-- 0---0-- 1---1-- 1---0--|----0-- 0---0--|
  B|2---2---2---2---3---3---3---0--|----0---0---0--|
  G|2---2---2---2---2---2---2---1--|----1---1---1--|
  D|2---2---2---2---0---0---0---2--|----2---2---2--|
  A|0---0---0---0---------------2--|----2---2---2--|
  E|----------------------------0--|----0---0---0--|

  e|------- ------- ------- -------|------- -------|
  B|-------------------------------|---------------|
  G|-------------------------------|---------------|
  D|-------------------------------|---------------|
  A|----------------5---7---8---7--|---------------|
  E|-------------------------------|---------------|
                    Bungalow    Bill

    02:45

  e|0---0-- ----3-- ----3-- ----0--|----0-- ----0-- ----1-- 1---0--|
  B|1---1-------0-------0-------1--|----1-------1-------1---1---1--|
  G|0---0-------0-------0-------0--|----0-------0-------1---1---0--|
  D|2---2-------0-------0-------2--|----2-------2-------3---3---2--|
  A|3---3-------2-------2-------3--|----3-------3-------3---3---3--|
  E|------------3-------3----------|--------------------1---1------|

  e|------- ------- ------- -------|------- ------- ------- -------|
  B|-------------------------------|-------------------------------|
  G|5---------------4---5---7---5--|-------------------------------|
  D|-------------------------------|----------------6---3-------5--|
  A|-------------------------------|------------------------5------|
  E|-------------------------------|-------------------------------|
    Hey             Bungalow    Bill                What    you kill
                                                        did

  e|----0-- ----0-- ----1-- ----1--|----1-- ----1--|
  B|----1-------1-------1-------1--|----0-------0--|
  G|----0-------0-------1-------1--|----0-------0--|
  D|----2-------2-------3-------3--|----0-------0--|
  A|----3-------3-------3-------3--|----2-------2--|
  E|--------------------1-------1--|----3-------3--|

  e|------- ------- ------- -------|------- -------|
  B|-------------------------------|---------------|
  G|-------------------------------|---------------|
  D|----------------3---5---6---5--|---------------|
  A|-------------------------------|---------------|
  E|-------------------------------|---------------|
                    Bungalow    Bill


  e|----0-- 0---0-- ----0-- ----0--|----0-- ----0-- ----1-- ----0--|
  B|----2---2---2-------0-------2--|----2-------2-------3-------2--|
  G|----2---2---2-------1-------2--|----2-------2-------2-------2--|
  D|----2---2---2-------2-------2--|----2-------0-------0-------2--|
  A|----0---0---0-------2-------0--|----0-------0---------------0--|
  E|--------------------0----------|-------------------------------|

  e|------- ------- ------- -------|------- ------- ------- -------|
  B|-------------------------------|-------------------------------|
  G|-------------------------------|-------------------------------|
  D|7---------------6---7---9---7--|-------------------------------|
  A|-------------------------------|----------------8---5-------7--|
  E|-------------------------------|------------------------7------|
    Hey             Bungalow    Bill                What    you kill
                                                        did

  e|----0-- ----1-- ----1-- -------|------- -------|
  B|----2-------3-------3----------|---------------|
  G|----2-------2-------2----------|---------------|
  D|----2-------0-------0----------|---------------|
  A|----0--------------------------|---------------|
  E|-------------------------------|---------------|

  e|------- ------- ------- -------|------- -------|
  B|-------------------------------|---------------|
  G|-------------------------------|---------------|
  D|-------------------------------|---------------|
  A|----------------5---7---8---7--|---------------|
  E|-------------------------------|---------------|
                    Bungalow    Bill

    GENERAL CLAPPING AND MELLOTRON ENDING
    03:00

  e|------- ------- ------- -------|------- ------- ------- -------|
  B|-------------------------------|-------------------------------|
  G|5---------------4---5---7---5--|-------------------------------|
  D|-------------------------------|----------------6---3-------5--|
  A|-------------------------------|------------------------5------|
  E|-------------------------------|-------------------------------|


  e|------- ------- ------- -------|------- ------- ------- -------|
  B|-------------------------------|-------------------------------|
  G|-------------------------------|-------------------------------|
  D|----------------3---5---6---5--|-------------------------------|
  A|-------------------------------|-------------------------------|
  E|-------------------------------|-------------------------------|

  e|------- ------- ------- -------|------- ------- ------- -------|
  B|-------------------------------|----------------1--------------|
  G|-------------------------------|------------2------------------|
  D|-------------------------------|----3--------------------------|
  A|-------------------------------|-------------------------------|
  E|-------------------------------|-------------------------------|


  e|------- ------- ------- -------|------- ------- ------- -------|
  B|-------------------------------|-------------------------------|
  G|-------------------------------|-------------------------------|
  D|7---------------6---7---9---7--|-------------------------------|
  A|-------------------------------|----------------8---5-------7--|
  E|-------------------------------|------------------------7------|

  e|------- ------- ----1-- -------|------- 0------ ------- -------|
  B|3------------------------------|----------------1--------------|
  G|-------------------------------|------------------------0------|
  D|-------------------------------|-------------------------------|
  A|-------------------------------|-------------------------------|
  E|-------------------------------|-------------------------------|


  e|------- ------- ------- -------|------- ------- ------- -------|
  B|-------------------------------|-------------------------------|
  G|-------------------------------|-------------------------------|
  D|-------------------------------|-------------------------------|
  A|----------------5---6---7---8--|-------------------------------|
  E|-------------------------------|-------------------------------|

  e|------- ------- ------- -------|------- ------- ------- -------|
  B|-------------------------------|-------------------------------|
  G|-------------------------------|-------------------------------|
  D|-------------------------------|-------------------------------|
  A|-------------------------------|-------------------------------|
  E|-------------------------------|-------------------------------|
                                Eh  up!


        B  Bend
        R  Release
        /  Slide up
        \  Slide down
        H  Hammer-on
        P  Pull-off
        ~  Vibrato
        +  Harmonic
        x  Mute note
        .  Play note like a dot in standard notation
        ^  Ties two notes together
        (. Pause

    ------------------------------------------------------------

    THE BEATLES - THE CONTINUING STORY OF BUNGALLOW BILL (lennon
                  & McCartney) Fron the WHITE ALBUM. Released on
                  22nd November 1968.

    ------------------------------------------------------------

    Tabbed by:PJVillanueva


    Some people said that the flamenco guitar intro  was a guitar
    clip from a record, but it was actually played on a mellotron
    Mark2. The mandolin and the bassoon appearing on the song too
    were also played on Mellotron Mark2 by Beatles assistant Chris
    Thomas.
    The mellotron was a keyboard in which you played some sampled
    instruments contained in tapes. The Mark 2 model had two side
    by side keyboards. On the right keyboard there were 18 "lead
    instrument" sounds arranged in six banks and the left keyboard
    played 7 seconds prerecorded musical rhythms and fills tracks
    in various styles, among which was the flamenco intro used in
    this song. That model's sounds were as follows:


        Organ      - Hammond, church and percussive organ with
                     leslie

        Strings    - Solo violins, solo celli, Mandolin, and
                     combinations and string sections.

        Brass      - Trumpet, trombone and sax.
                         Larger sections and combinations.

        Winds      - Flute, clarinet and basson

        Choirs     - Male, female, augmented choirs and octave.

        Percussion - Vibraphone, bass drum, snare drum.

        Plus the mentioned left keyboard effect loops: Foxtrot Sax
        Phrases, Dixie Land Trombone, Cha Cha Flutes, Bungalow Bill
        Guitar intro, Moving Bass Cello and Violin Chords, Bossa
        Nova Cello and Violins Moving Chords.


    For many years I'd have sweared that it was a flamenco pastiche
    intro by John. It sounded deliberate, maybe satirical, just like
    in a caricature. We all know that he had been in Almeria, Spain,
    two years before, where he was filming Richard Lester's "How I
    Won The War" and qhere he wrote STRAWBERRY FIELDS FOREVER, as we
    all know, and most probably John might have learnt to play a few
    chords and a couple of scales from someone. I had the feeling
    that it was him who had played that intro and that impression was
    reinforced by the fact that the scale structure is not what we
    could call orthodox and the guy who recorded the sample stumbled
    twice and also missed a low G note. It doesn't sound at all like
    a professional flamenco player, but it was precisely that which
    sounded when you pressed that low key on the Mark2.

    Hey Bungalow Bill
    What did you kill
    Bungalow Bill?

    He went out tiger hunting with his elephant and gun
    In case of accidents he always took his mom
    He's the all American bullet-headed saxon mother's son
    All the children sing

    Hey Bungalow Bill
    What did you kill
    Bungalow Bill?

    Deep in the jungle where the mighty tiger lies
    Bill and his elephants were taken by surprise
    So Captain Marvel zapped him right between the eyes
    All the children sing

    Hey Bungalow Bill
    What did you kill
    Bungalow Bill?

    The children asked him if to kill was not a sin
    But when he looked so fierce, his mummy butted in
    If looks could kill it would have been us instead of him
    All the children sing

    Hey Bungalow Bill
    What did you kill
    Bungalow Bill?


              FREE TIME MELLOTRON INTRO

                      (.

            e|---------0----------------------------------|
            B|--------0------4--5-6-5-3-----3-------------|
            G|-------0------------------5-4---5-4-2-------|
            D|------4-------------------------------5-3-2-|
            A|----2---------------------------------------|
            E|0-------------------------------------------|


                                                       (.

            e|------------------------------------------0-|
            B|-----------------------------------------0--|
            G|----------------------------------------0---|
            D|--2-3-2-0-3-2-0-----------------------4-----|
            A|5---------------3-2-0-3-2-0---------2-------|
            E|---------------------------(3)1-0-----------|


    4/4
    00:08

  e|0------ 0------ 3------ 3------|0---0-- 0---0-- 1---1-- 1------|
  B|1-------1-------0-------0------|1---1---1---1---1---1---1------|
  G|0-------0-------0-------0------|0---0---0---0---1---1---1------|
  D|2-------2-------0-------0------|2---2---2---2---3---3---3------|
  A|3-------3-------2-------2------|3---3---3---3---3---3---3------|
  E|----------------3-------3------|----------------1---1---1------|
    Hey             Bungalow    Bill                What    you kill
                                                        did

                                    2/4

  e|0---0-- 0---0-- 1------ 1---1--|3---3-- 3------|
  B|1---1---1---1---1-------1---1--|0---0---0---0--|
  G|0---0---0---0---1-------1---1--|0---0---0---0--|
  D|2---2---2---2---3-------3---3--|0---0---0---0--|
  A|3---3---3---3---3-------3---3--|2---2---2------|
  E|----------------1-------1---1--|3---3---3------|
                    Bungalow    Bill


  e|0------ 0---0-- 0---0-- 0------|0---0-- 0------ 1---1-- 1------|
  B|2-------2---2---0---0---0------|2---2---2---0---3---3---3---0--|
  G|2-------2---2---1---1---1------|2---2---2---0---2---2---2---0--|
  D|2-------2---2---2---2---2------|2---2---2---0---0---0---0---0--|
  A|0-------0---0---2---2---2------|0---0---0----------------------|
  E|----------------0---0---0------|-------------------------------|
    Hey             Bungalow    Bill                What    you kill
                                                        did

  e|0---0-- 0------ 1------ 1---0--|----0-- 0---0-- 0---0-- 0---0--|
  B|2---2---2---0---3-------3---0--|----0---0---0---0---0---0---0--|
  G|2---2---2---0---2-------2---1--|----1---1---1---1---1---1---1--|
  D|2---2---2---0---0-------0---2--|----2---2---2---2---2---2---2--|
  A|0---0---0-------------------2--|----2---2---2---2---2---2---2--|
  E|----------------------------0--|----0---0---0---0---0---0---0--|
                    Bungalow    Bill                            He

    00:24

  e|0---0-- 0---0-- 0---0-- 0---0--|1---1-- 1---1-- 1-1-1-- 3-3-3--|
  B|1---1---1---1---1---1---1---1--|1---1---1---1---1-1-1---3-3-3--|
  G|2---2---2---2---2---2---2---2--|2---2---2---2---2-2-2---4-4-4--|
  D|2---2---2---2---2---2---2---2--|3---3---3---3---3-3-3---5-5-5--|
  A|0---0---0---0---0---0---0---0--|3---3---3---3---3-3-3---5-5-5--|
  E|-------------------------------|1---1---1---1---1-1-1---3-3-3--|
      (This quick mandolin picking has at least 6 notes per beat)
  e|------- ------- ------- -------|------- ------- ------- -------|
  B|-------------------------------|---------------------------------|
  G|-------------------------------|------------------------12121212-|
  D|777777........./10101010................................---------|
  A|-------------------------------|---------------------------------|
  E|-------------------------------|---------------------------------|
    went    tiger   hunting with    elephant    and gun
        out                     his

  e|0------ 0------ 0------ 0------|1---1-- 1------ 1-1-1-- 3---3--|
  B|1-------1-------1-------1------|1---1---1-------1-1-1---3---3--|
  G|2-------2-------2-------2------|2---2---2-------2-2-2---4---4--|
  D|2-------2-------2-------2------|3---3---3-------3-3-3---5---5--|
  A|0-------0-------0-------0------|3---3---3-------3-3-3---5---5--|
  E|-------------------------------|1---1---1-------1-1-1---3---3--|


  e|------- ------- ------- -------|13131313............... 5151515|
  B|10101010........13131313.......|-------------------------------|
  G|-------------------------------|-------------------------------|
  D|-------------------------------|-------------------------------|
  A|-------------------------------|-------------------------------|
  E|-------------------------------|-------------------------------|
        In case of  accidents   he  always  took    mom         He's
                                                his               the

  e|0---0-- 0---0-- 3---3-- 3---3--|0---0-- 0------|
  B|0---0---0---0---3---3---3---3--|1---1---1------|
  G|1---1---1---1---0---0---0---0--|2---2---2------|
  D|2---2---2---2---0---0---0---0--|2---2---2---2--|
  A|2---2---2---2---2---2---2---2--|0---0---0---0--|
  E|0---0---0---0---3---3---3---3--|------------0--|

  e|1212123.........11151515.......|17171717.......|
  B|-------------------------------|---------------|
  G|-------------------------------|---------------|
  D|-------------------------------|---------------|
  A|-------------------------------|---------------|
  E|-------------------------------|---------------|
    all American    bullet          saxon   mother's
                        headed                      son

                                    3/4
   (.                               X       X       X

  e|1------ ------- ------- -------|------- ------- -------|
  B|1------------------------------|-----------------------|
  G|1------------------------------|-----------------------|
  D|3------------------------------|-----------------------|
  A|3------------------------------|-----------------------|
  E|1------------------------------|-----------------------|

  e|20202020.......................|------- ------- -------|
  B|-------------------------------|-----------------------|
  G|-------------------------------|-----------------------|
  D|-------------------------------|-----------------------|
  A|-------------------------------|-----------------------|
  E|-------------------------------|-----------------------|

  e|8-8-8-8 ------- ------- -------|------- ------- -------|
  B|9-9-9-9........................|-----------------------|
  G10101010------------------------|-----------------------|
  D|-------------------------------|-----------------------|
  A|-------------------------------|-----------------------|
  E|-------------------------------|-----------------------|
                                All  children
                                   the      sing


    00:46

  e|0------ 0---0-- 3------ 3------|0---0-- 0------ 1---1-- 1------|
  B|1-------1---1---0-------0------|1---1---1-------1---1---1------|
  G|0-------0---0---0-------0------|0---0---0-------1---1---1------|
  D|2-------2---2---0-------0------|2---2---2-------3---3---3------|
  A|3-------3---3---2-------2------|3---3---3-------3---3---3------|
  E|----------------3-------3------|----------------1---1---1------|
    Hey             Bungalow    Bill                What    you kill
                                                        did

  e|0---0-- 0------ 1------ 1------|1---1-- 1---1--|
  B|1---1---1---0---1-------1------|0---0---0---0--|
  G|0---0---0---0---1-------1------|0---0---0---0--|
  D|2---2---2---0---3-------3------|0---0---0---0--|
  A|3---3---3-------3-------3------|2---2---2---2--|
  E|----------------1-------1------|3---3---3---3--|
                    Bungalow    Bill


  e|0------ 0---0-- 0---0-- 0------|0---0-- 0------ 1---1-- 1------|
  B|2-------2---2---0---0---0------|2---2---2---0---3---3---3---0--|
  G|2-------2---2---1---1---1------|2---2---2---0---2---2---2---0--|
  D|2-------2---2---2---2---2------|2---2---2---0---0---0---0---0--|
  A|0-------0---0---2---2---2------|0---0---0----------------------|
  E|----------------0---0---0------|-------------------------------|
    Hey             Bungalow    Bill                What    you kill
                                                        did

  e|0---0-- 0------ 1------ 1---0--|----0-- 0---0-- 0---0-- 0---0--|
  B|2---2---2---0---3-------3---0--|----0---0---0---0---0---0---0--|
  G|2---2---2---0---2-------2---1--|----1---1---1---1---1---1---1--|
  D|2---2---2---0---0-------0---2--|----2---2---2---2---2---2---2--|
  A|0---0---0-------------------2--|----2---2---2---2---2---2---2--|
  E|----------------------------0--|----0---0---0---0---0---0---0--|
                    Bungalow    Bill

    01:01

  e|0------ 0---0-- 0------ 0---0--|1------ 1---1-- 1-1-1-- 3-3-3--|
  B|1-------1---1---1-------1---1--|1-------1---1---1-1-1---3-3-3--|
  G|2-------2---2---2-------0---2--|2-------2---2---2-2-2---4-4-4--|
  D|2-------2---2---2-------2---2--|3-------3---3---3-3-3---5-5-5--|
  A|0-------0---0---0-------0---0--|3-------3---3---3-3-3---5-5-5--|
  E|-------------------------------|1-------1---1---1-1-1---3-3-3--|

  e|------- ------- ------- -------|------- ------- ------- -------|
  B|-------------------------------|---------------------------------|
  G|-------------------------------|------------------------12121212-|
  D|777777........./10101010................................---------|
  A|-------------------------------|---------------------------------|
  E|-------------------------------|---------------------------------|
        Deep    the         where   mighty  tiger   lies
            in    jungle        the

  e|0------ 0---0-- 0---0-- 0------|1---1-- 1------ 1-1-1-- 3-3-3--|
  B|1-------1---1---1---1---1------|1---1---1-------1-1-1---3-3-3-0|
  G|2-------2---2---2---2---2------|2---2---2-------2-2-2---4-4-4-0|
  D|2-------2---2---2---2---2------|3---3---3-------3-3-3---5-5-5-0|
  A|0-------0---0---0---0---0------|3---3---3-------3-3-3---5-5-5--|
  E|-------------------------------|1---1---1-------1-1-1---3-3-3--|

  e|------- ------- ------- -------|13131313............... 5151515|
  B|10101010........13131313.......|-------------------------------|
  G|-------------------------------|-------------------------------|
  D|-------------------------------|-------------------------------|
  A|-------------------------------|-------------------------------|
  E|-------------------------------|-------------------------------|
        Bill    his elephants   were        by  surprise
            and                     taken

  e|0------ 0------ 3---3-- 3------|0---0-- 0---0--|
  B|0-------0-------3---3---3------|1---1---1---1--|
  G|1-------1-------0---0---0------|2---2---2---2--|
  D|2-------2-------0---0---0------|2---2---2---2--|
  A|2-------2-------2---2---2------|0---0---0---0--|
  E|0-------0---0---3---3---3------|------------0--|

  e|1212123.........11151515.......|17171717.......|
  B|-------------------------------|---------------|
  G|-------------------------------|---------------|
  D|-------------------------------|---------------|
  A|-------------------------------|---------------|
  E|-------------------------------|---------------|
        So  Captain Marvel  zapped  right       the
                                him    between    eyes


   (.                               X       X       X

  e|1------ ------- ------- -------|------- ------- -------|
  B|1------------------------------|-----------------------|
  G|1------------------------------|-----------------------|
  D|3------------------------------|-----------------------|
  A|3------------------------------|-----------------------|
  E|1------------------------------|-----------------------|

  e|20202020.......................|------- ------- -------|
  B|-------------------------------|-----------------------|
  G|-------------------------------|-----------------------|
  D|-------------------------------|-----------------------|
  A|-------------------------------|-----------------------|
  E|-------------------------------|-----------------------|

  e|8-8-8-8 ------- ------- -------|------- ------- -------|
  B|9-9-9-9........................|-----------------------|
  G10101010------------------------|-----------------------|
  D|-------------------------------|-----------------------|
  A|-------------------------------|-----------------------|
  E|-------------------------------|-----------------------|
                               All children
                                  the      sing


    01:24

  e|0------ 0------ 3------ 3------|0---0-- 0---0-- 1---1-- 1------|
  B|1-------1-------0-------0------|1---1---1---1---1---1---1------|
  G|0-------0-------0-------0------|0---0---0---0---1---1---1------|
  D|2-------2-------0-------0------|2---2---2---2---3---3---3------|
  A|3-------3-------2-------2------|3---3---3---3---3---3---3------|
  E|----------------3-------3------|----------------1---1---1------|
    Hey             Bungalow    Bill                What    you kill
                                                        did

  e|0------ 0------ 1------ 1------|3---3-- 3------|
  B|1-------1---0---1-------1------|0---0---0---0--|
  G|0-------0---0---1-------1------|0---0---0---0--|
  D|2-------2---0---3-------3------|0---0---0---0--|
  A|3-------3-------3-------3------|2---2---2------|
  E|----------------1-------1------|3---3---3------|
                    Bungalow    Bill


  e|0------ 0---0-- 0---0-- 0------|0---0-- 0------ 1---1-- 1------|
  B|2-------2---2---0---0---0------|2---2---2---0---3---3---3---0--|
  G|2-------2---2---1---1---1------|2---2---2---0---2---2---2---0--|
  D|2-------2---2---2---2---2------|2---2---2---0---0---0---0---0--|
  A|0-------0---0---2---2---2------|0---0---0----------------------|
  E|----------------0---0---0------|-------------------------------|
    Hey             Bungalow    Bill                What    you kill
                                                        did

  e|0---0-- 0------ 1---1-- 1---0--|----0-- 0------ 0---0-- 0------|
  B|2---2---2---0---3---3---3---0--|----0---0-------0---0---0------|
  G|2---2---2---0---2---2---2---1--|----1---1-------1---1---1------|
  D|2---2---2---0---0---0---0---2--|----2---2-------2---2---2------|
  A|0---0---0-------------------2--|----2---2-------2---2---2------|
  E|----------------------------0--|----0---0-------0---0---0------|
                    Bungalow    Bill

    01:39

  e|0---0-- ----0-- 0------ 0---0--|1---1-- 1---1-- 1-1-1-1 3-3-3-3|
  B|1---1-------1---1-------1---1--|1---1---1---1---1-1-1-1-3-3-3-3|
  G|2---2-------2---2-------0---2--|2---2---2---2---2-2-2-2-4-4-4-4|
  D|2---2-------2---2-------2---2--|3---3---3---3---3-3-3-3-5-5-5-5|
  A|0---0-------0---0-------0---0--|3---3---3---3---3-3-3-3-5-5-5-5|
  E|-------------------------------|1---1---1---1---1-1-1-1-3-3-3-3|

  e|------- ------- ------- -------|------- ------- ------- -------|
  B|-------------------------------|---------------------------------|
  G|-------------------------------|------------------------12121212-|
  D|777777........./10101010................................---------|
  A|-------------------------------|---------------------------------|
  E|-------------------------------|---------------------------------|
        The children    him if  to  kill    not   sin
                asked                   was    a

  e|0------ 0---0-- 0------ 0------|1------ 1-----1 1-1-1-- 3---3--|
  B|1-------1---1---1-------1------|1-------1-----1-1-1-1---3---3--|
  G|2-------2---2---2-------2------|2-------2-----2-2-2-2---4---4--|
  D|2-------2---2---2-------2------|3-------3-----3-3-3-3---5---5--|
  A|0-------0---0---0-------0------|3-------3-----3-3-3-3---5---5--|
  E|-------------------------------|1-------1-----1-1-1-1---3---3--|


  e|------- ------- ------- -------|13131313............... 5151515|
  B|10101010........13131313.......|-------------------------------|
  G|-------------------------------|-------------------------------|
  D|-------------------------------|-------------------------------|
  A|-------------------------------|-------------------------------|
  E|-------------------------------|-------------------------------|
        But when    looked  fierce  mummy   butted
                 he     so      his               in


  e|0---0-- 0------ 3------ 3------|0------ 0------|
  B|0---0---0-------3-------3------|1-------1------|
  G|1---1---1-------0-------0------|2-------2------|
  D|2---2---2-------0-------0------|2-------2------|
  A|2---2---2-------2-------2------|0---0---0------|
  E|0---0---0-------3-------3------|---------------|

  e|1212123.........11151515.......|17171717.......|
  B|-------------------------------|---------------|
  G|-------------------------------|---------------|
  D|-------------------------------|---------------|
  A|-------------------------------|---------------|
  E|-------------------------------|---------------|
        If  looks   kill    would been  instead of
                could    it    have us


   (.                               X       X       X

  e|1------ ------- ------- -------|------- ------- -------|
  B|1------------------------------|-----------------------|
  G|1------------------------------|-----------------------|
  D|3------------------------------|-----------------------|
  A|3------------------------------|-----------------------|
  E|1------------------------------|-----------------------|

  e|20202020.......................|------- ------- -------|
  B|-------------------------------|-----------------------|
  G|-------------------------------|-----------------------|
  D|-------------------------------|-----------------------|
  A|-------------------------------|-----------------------|
  E|-------------------------------|-----------------------|

  e|8-8-8-8 ------- ------- -------|------- ------- -------|
  B|9-9-9-9........................|-----------------------|
  G10101010------------------------|-----------------------|
  D|-------------------------------|-----------------------|
  A|-------------------------------|-----------------------|
  E|-------------------------------|-----------------------|
    him                        All children
                                  the      sing

    02:01

  e|0------ 0------ 3------ 3------|0---0-- 0---0-- 1---1-- 1------|
  B|1-------1-------0-------0------|1---1---1---1---1---1---1------|
  G|0-------0-------0-------0------|0---0---0---0---1---1---1------|
  D|2-------2-------0-------0------|2---2---2---2---3---3---3------|
  A|3-------3-------2-------2------|3---3---3---3---3---3---3------|
  E|----------------3-------3------|----------------1---1---1------|
    Hey             Bungalow    Bill                What    you kill
                                                        did

  e|0---0-- 0------ 1---1-- 1---3--|----3-- 3------|
  B|1---1---1---0---1---1---1---0--|----0---0---0--|
  G|0---0---0---0---1---1---1---0--|----0---0---0--|
  D|2---2---2---0---3---3---3---0--|----0---0---0--|
  A|3---3---3-------3---3---3---2--|----2---2------|
  E|----------------1---1---1---3--|----3---3------|
                    Bungalow    Bill


  e|0---0-- 0------ 0------ 0------|0---0-- 0------ 1---1-- 1------|
  B|2---2---2-------0-------0------|2---2---2---0---3---3---3---0--|
  G|2---2---2-------1-------1------|2---2---2---0---2---2---2---0--|
  D|2---2---2-------2-------2------|2---2---2---0---0---0---0---0--|
  A|0---0---0-------2-------2------|0---0---0----------------------|
  E|----------------0-------0------|-------------------------------|
    Hey             Bungalow    Bill                What    you kill
                                                        did

  e|0---0-- 0------ 1---1-- 1---0--|----0-- 0---0--|
  B|2---2---2---0---3---3---3---0--|----0---0---0--|
  G|2---2---2---0---2---2---2---1--|----1---1---1--|
  D|2---2---2---0---0---0---0---2--|----2---2---2--|
  A|0---0---0-------------------2--|----2---2---2--|
  E|----------------------------0--|----0---0---0--|
                    Bungalow    Bill

    02:16

  e|0------ 0------ 3------ 3---3--|0---0-- 0---0-- 1---1-- 1---0--|
  B|1-------1-------0-------0---0--|1---1---1---1---1---1---1---1--|
  G|0-------0-------0-------0---0--|0---0---0---0---1---1---1---0--|
  D|2-------2-------0-------0---0--|2---2---2---2---3---3---3---2--|
  A|3-------3-------2-------2---2--|3---3---3---3---3---3---3---3--|
  E|----------------3-------3---3--|----------------1---1---1------|

  e|------- ------- ------- -------|------- ------- ------- -------|
  B|-------------------------------|-------------------------------|
  G|5---------------4---5---7---5--|-------------------------------|
  D|-------------------------------|----------------6---3-------5--|
  A|-------------------------------|------------------------5------|
  E|-------------------------------|-------------------------------|
    Hey             Bungalow    Bill                What    you kill
                                                        did

  e|----0-- 0---0-- 1---1-- 1---3--|----3-- 3------|
  B|----1---1---1---1---1---1---0--|----0---0------|
  G|----0---0---0---1---1---1---0--|----0---0------|
  D|----2---2---2---3---3---0---0--|----0---0------|
  A|----3---3---3---3---3---3---2--|----2---2------|
  E|----------------1---1---1---3--|----3---3------|

  e|------- ------- ------- -------|------- -------|
  B|-------------------------------|---------------|
  G|-------------------------------|---------------|
  D|----------------3---5---6---5--|---------------|
  A|-------------------------------|---------------|
  E|-------------------------------|---------------|
                    Bungalow    Bill


  e|0---0-- 0---0-- 0------ 0------|0---0-- 0---0-- 1------ 0------|
  B|2---2---2---2---0---0---0------|2---2---2---2---3-------2------|
  G|2---2---2---2---1---1---1------|2---2---2---2---2-------2------|
  D|2---2---2---2---2---2---2------|2---2---2---2---0-------2------|
  A|0---0---0---0---2---2---2------|0---0---0---0-----------0------|
  E|----------------0---0---0------|-------------------------------|

  e|------- ------- ------- -------|------- ------- ------- -------|
  B|-------------------------------|-------------------------------|
  G|-------------------------------|-------------------------------|
  D|7---------------6---7---9---7--|-------------------------------|
  A|-------------------------------|----------------8---5-------7--|
  E|-------------------------------|------------------------7------|
    Hey             Bungalow    Bill                What    you kill
                                                        did

  e|0---0-- 0---0-- 1------ 1---0--|----0-- 0------|
  B|2---2---2---2---3-------3---0--|----0---0----x-|
  G|2---2---2---2---2-------2---1--|----1---1----x-|
  D|2---2---2---2---0-------0---2--|----2---2----x-|
  A|0---0---0---0---------------2--|----2---2------|
  E|----------------------------0--|----0---0------|

  e|------- ------- ------- -------|------- -------|
  B|-------------------------------|---------------|
  G|-------------------------------|---------------|
  D|-------------------------------|---------------|
  A|----------------5---7---8---7--|---------------|
  E|-------------------------------|---------------|
                    Bungalow    Bill

    02:30

  e|0------ 0---0-- 3---3-- ----3--|0---0-- 0---0-- 1---1-- 1------|
  B|1-------1---1---0---0-------0--|1---1---1---1---1---1---1------|
  G|0-------0---0---0---0-------0--|0---0---0---0---1---1---1------|
  D|2-------2---2---0---0-------0--|2---2---2---2---3---3---3------|
  A|3-------3---3---2---2-------2--|3---3---3---3---3---3---3------|
  E|----------------3---3-------3--|----------------1---1---1------|

  e|------- ------- ------- -------|------- ------- ------- -------|
  B|-------------------------------|-------------------------------|
  G|5---------------4---5---7---5--|-------------------------------|
  D|-------------------------------|----------------6---3-------5--|
  A|-------------------------------|------------------------5------|
  E|-------------------------------|-------------------------------|
    Hey             Bungalow    Bill                What    you kill
                                                        did

  e|0------ 0------ 1---1-- 1------|1---1-- 1---1--|
  B|1-------1---1---1---1---1------|0---0---0---0--|
  G|0-------0---0---1---1---1------|0---0---0---0--|
  D|2-------2---2---3---3---3------|0---0---0---0--|
  A|3-------3---3---3---3---3------|2---2---2---2--|
  E|----------------1---1---1------|3---3---3---3--|

  e|------- ------- ------- -------|------- -------|
  B|-------------------------------|---------------|
  G|-------------------------------|---------------|
  D|----------------3---5---6---5--|---------------|
  A|-------------------------------|---------------|
  E|-------------------------------|---------------|
                    Bungalow    Bill


  e|0------ 0---0-- 0---0-- 0------|0---0-0 0---0-- 1---1-- 1---0-0|
  B|2-------2---2---0---0---0------|2---2-2-2---2---3---3---3---2-2|
  G|2-------2---2---1---1---1------|2---2-2-2---2---2---2---2---2-2|
  D|2-------2---2---2---2---2------|2---2-2-2---0---0---0---0---2-2|
  A|0-------0---0---2---2---2------|0---0-0-0---0---------------0-0|
  E|----------------0---0---0------|-------------------------------|

  e|------- ------- ------- -------|------- ------- ------- -------|
  B|-------------------------------|-------------------------------|
  G|-------------------------------|-------------------------------|
  D|7---------------6---7---9---7--|-------------------------------|
  A|-------------------------------|----------------8---5-------7--|
  E|-------------------------------|------------------------7------|
    Hey             Bungalow    Bill                What    you kill
                                                        did

  e|0---0-- 0---0-- 1---1-- 1---0--|----0-- 0---0--|
  B|2---2---2---2---3---3---3---0--|----0---0---0--|
  G|2---2---2---2---2---2---2---1--|----1---1---1--|
  D|2---2---2---2---0---0---0---2--|----2---2---2--|
  A|0---0---0---0---------------2--|----2---2---2--|
  E|----------------------------0--|----0---0---0--|

  e|------- ------- ------- -------|------- -------|
  B|-------------------------------|---------------|
  G|-------------------------------|---------------|
  D|-------------------------------|---------------|
  A|----------------5---7---8---7--|---------------|
  E|-------------------------------|---------------|
                    Bungalow    Bill

    02:45

  e|0---0-- ----3-- ----3-- ----0--|----0-- ----0-- ----1-- 1---0--|
  B|1---1-------0-------0-------1--|----1-------1-------1---1---1--|
  G|0---0-------0-------0-------0--|----0-------0-------1---1---0--|
  D|2---2-------0-------0-------2--|----2-------2-------3---3---2--|
  A|3---3-------2-------2-------3--|----3-------3-------3---3---3--|
  E|------------3-------3----------|--------------------1---1------|

  e|------- ------- ------- -------|------- ------- ------- -------|
  B|-------------------------------|-------------------------------|
  G|5---------------4---5---7---5--|-------------------------------|
  D|-------------------------------|----------------6---3-------5--|
  A|-------------------------------|------------------------5------|
  E|-------------------------------|-------------------------------|
    Hey             Bungalow    Bill                What    you kill
                                                        did

  e|----0-- ----0-- ----1-- ----1--|----1-- ----1--|
  B|----1-------1-------1-------1--|----0-------0--|
  G|----0-------0-------1-------1--|----0-------0--|
  D|----2-------2-------3-------3--|----0-------0--|
  A|----3-------3-------3-------3--|----2-------2--|
  E|--------------------1-------1--|----3-------3--|

  e|------- ------- ------- -------|------- -------|
  B|-------------------------------|---------------|
  G|-------------------------------|---------------|
  D|----------------3---5---6---5--|---------------|
  A|-------------------------------|---------------|
  E|-------------------------------|---------------|
                    Bungalow    Bill


  e|----0-- 0---0-- ----0-- ----0--|----0-- ----0-- ----1-- ----0--|
  B|----2---2---2-------0-------2--|----2-------2-------3-------2--|
  G|----2---2---2-------1-------2--|----2-------2-------2-------2--|
  D|----2---2---2-------2-------2--|----2-------0-------0-------2--|
  A|----0---0---0-------2-------0--|----0-------0---------------0--|
  E|--------------------0----------|-------------------------------|

  e|------- ------- ------- -------|------- ------- ------- -------|
  B|-------------------------------|-------------------------------|
  G|-------------------------------|-------------------------------|
  D|7---------------6---7---9---7--|-------------------------------|
  A|-------------------------------|----------------8---5-------7--|
  E|-------------------------------|------------------------7------|
    Hey             Bungalow    Bill                What    you kill
                                                        did

  e|----0-- ----1-- ----1-- -------|------- -------|
  B|----2-------3-------3----------|---------------|
  G|----2-------2-------2----------|---------------|
  D|----2-------0-------0----------|---------------|
  A|----0--------------------------|---------------|
  E|-------------------------------|---------------|

  e|------- ------- ------- -------|------- -------|
  B|-------------------------------|---------------|
  G|-------------------------------|---------------|
  D|-------------------------------|---------------|
  A|----------------5---7---8---7--|---------------|
  E|-------------------------------|---------------|
                    Bungalow    Bill

    GENERAL CLAPPING AND MELLOTRON ENDING
    03:00

  e|------- ------- ------- -------|------- ------- ------- -------|
  B|-------------------------------|-------------------------------|
  G|5---------------4---5---7---5--|-------------------------------|
  D|-------------------------------|----------------6---3-------5--|
  A|-------------------------------|------------------------5------|
  E|-------------------------------|-------------------------------|


  e|------- ------- ------- -------|------- ------- ------- -------|
  B|-------------------------------|-------------------------------|
  G|-------------------------------|-------------------------------|
  D|----------------3---5---6---5--|-------------------------------|
  A|-------------------------------|-------------------------------|
  E|-------------------------------|-------------------------------|

  e|------- ------- ------- -------|------- ------- ------- -------|
  B|-------------------------------|----------------1--------------|
  G|-------------------------------|------------2------------------|
  D|-------------------------------|----3--------------------------|
  A|-------------------------------|-------------------------------|
  E|-------------------------------|-------------------------------|


  e|------- ------- ------- -------|------- ------- ------- -------|
  B|-------------------------------|-------------------------------|
  G|-------------------------------|-------------------------------|
  D|7---------------6---7---9---7--|-------------------------------|
  A|-------------------------------|----------------8---5-------7--|
  E|-------------------------------|------------------------7------|

  e|------- ------- ----1-- -------|------- 0------ ------- -------|
  B|3------------------------------|----------------1--------------|
  G|-------------------------------|------------------------0------|
  D|-------------------------------|-------------------------------|
  A|-------------------------------|-------------------------------|
  E|-------------------------------|-------------------------------|


  e|------- ------- ------- -------|------- ------- ------- -------|
  B|-------------------------------|-------------------------------|
  G|-------------------------------|-------------------------------|
  D|-------------------------------|-------------------------------|
  A|----------------5---6---7---8--|-------------------------------|
  E|-------------------------------|-------------------------------|

  e|------- ------- ------- -------|------- ------- ------- -------|
  B|-------------------------------|-------------------------------|
  G|-------------------------------|-------------------------------|
  D|-------------------------------|-------------------------------|
  A|-------------------------------|-------------------------------|
  E|-------------------------------|-------------------------------|
                                Eh  up!


        B  Bend
        R  Release
        /  Slide up
        \  Slide down
        H  Hammer-on
        P  Pull-off
        ~  Vibrato
        +  Harmonic
        x  Mute note
        .  Play note like a dot in standard notation
        ^  Ties two notes together
        (. Pause

    ------------------------------------------------------------

    THE BEATLES - THE CONTINUING STORY OF BUNGALLOW BILL (lennon
                  & McCartney) Fron the WHITE ALBUM. Released on
                  22nd November 1968.

    ------------------------------------------------------------

    Tabbed by:PJVillanueva


    Some people said that the flamenco guitar intro  was a guitar
    clip from a record, but it was actually played on a mellotron
    Mark2. The mandolin and the bassoon appearing on the song too
    were also played on Mellotron Mark2 by Beatles assistant Chris
    Thomas.
    The mellotron was a keyboard in which you played some sampled
    instruments contained in tapes. The Mark 2 model had two side
    by side keyboards. On the right keyboard there were 18 "lead
    instrument" sounds arranged in six banks and the left keyboard
    played 7 seconds prerecorded musical rhythms and fills tracks
    in various styles, among which was the flamenco intro used in
    this song. That model's sounds were as follows:


        Organ      - Hammond, church and percussive organ with
                     leslie

        Strings    - Solo violins, solo celli, Mandolin, and
                     combinations and string sections.

        Brass      - Trumpet, trombone and sax.
                         Larger sections and combinations.

        Winds      - Flute, clarinet and basson

        Choirs     - Male, female, augmented choirs and octave.

        Percussion - Vibraphone, bass drum, snare drum.

        Plus the mentioned left keyboard effect loops: Foxtrot Sax
        Phrases, Dixie Land Trombone, Cha Cha Flutes, Bungalow Bill
        Guitar intro, Moving Bass Cello and Violin Chords, Bossa
        Nova Cello and Violins Moving Chords.


    For many years I'd have sweared that it was a flamenco pastiche
    intro by John. It sounded deliberate, maybe satirical, just like
    in a caricature. We all know that he had been in Almeria, Spain,
    two years before, where he was filming Richard Lester's "How I
    Won The War" and qhere he wrote STRAWBERRY FIELDS FOREVER, as we
    all know, and most probably John might have learnt to play a few
    chords and a couple of scales from someone. I had the feeling
    that it was him who had played that intro and that impression was
    reinforced by the fact that the scale structure is not what we
    could call orthodox and the guy who recorded the sample stumbled
    twice and also missed a low G note. It doesn't sound at all like
    a professional flamenco player, but it was precisely that which
    sounded when you pressed that low key on the Mark2.

    Hey Bungalow Bill
    What did you kill
    Bungalow Bill?

    He went out tiger hunting with his elephant and gun
    In case of accidents he always took his mom
    He's the all American bullet-headed saxon mother's son
    All the children sing

    Hey Bungalow Bill
    What did you kill
    Bungalow Bill?

    Deep in the jungle where the mighty tiger lies
    Bill and his elephants were taken by surprise
    So Captain Marvel zapped him right between the eyes
    All the children sing

    Hey Bungalow Bill
    What did you kill
    Bungalow Bill?

    The children asked him if to kill was not a sin
    But when he looked so fierce, his mummy butted in
    If looks could kill it would have been us instead of him
    All the children sing

    Hey Bungalow Bill
    What did you kill
    Bungalow Bill?


              FREE TIME MELLOTRON INTRO

                      (.

            e|---------0----------------------------------|
            B|--------0------4--5-6-5-3-----3-------------|
            G|-------0------------------5-4---5-4-2-------|
            D|------4-------------------------------5-3-2-|
            A|----2---------------------------------------|
            E|0-------------------------------------------|


                                                       (.

            e|------------------------------------------0-|
            B|-----------------------------------------0--|
            G|----------------------------------------0---|
            D|--2-3-2-0-3-2-0-----------------------4-----|
            A|5---------------3-2-0-3-2-0---------2-------|
            E|---------------------------(3)1-0-----------|


    4/4
    00:08

  e|0------ 0------ 3------ 3------|0---0-- 0---0-- 1---1-- 1------|
  B|1-------1-------0-------0------|1---1---1---1---1---1---1------|
  G|0-------0-------0-------0------|0---0---0---0---1---1---1------|
  D|2-------2-------0-------0------|2---2---2---2---3---3---3------|
  A|3-------3-------2-------2------|3---3---3---3---3---3---3------|
  E|----------------3-------3------|----------------1---1---1------|
    Hey             Bungalow    Bill                What    you kill
                                                        did

                                    2/4

  e|0---0-- 0---0-- 1------ 1---1--|3---3-- 3------|
  B|1---1---1---1---1-------1---1--|0---0---0---0--|
  G|0---0---0---0---1-------1---1--|0---0---0---0--|
  D|2---2---2---2---3-------3---3--|0---0---0---0--|
  A|3---3---3---3---3-------3---3--|2---2---2------|
  E|----------------1-------1---1--|3---3---3------|
                    Bungalow    Bill


  e|0------ 0---0-- 0---0-- 0------|0---0-- 0------ 1---1-- 1------|
  B|2-------2---2---0---0---0------|2---2---2---0---3---3---3---0--|
  G|2-------2---2---1---1---1------|2---2---2---0---2---2---2---0--|
  D|2-------2---2---2---2---2------|2---2---2---0---0---0---0---0--|
  A|0-------0---0---2---2---2------|0---0---0----------------------|
  E|----------------0---0---0------|-------------------------------|
    Hey             Bungalow    Bill                What    you kill
                                                        did

  e|0---0-- 0------ 1------ 1---0--|----0-- 0---0-- 0---0-- 0---0--|
  B|2---2---2---0---3-------3---0--|----0---0---0---0---0---0---0--|
  G|2---2---2---0---2-------2---1--|----1---1---1---1---1---1---1--|
  D|2---2---2---0---0-------0---2--|----2---2---2---2---2---2---2--|
  A|0---0---0-------------------2--|----2---2---2---2---2---2---2--|
  E|----------------------------0--|----0---0---0---0---0---0---0--|
                    Bungalow    Bill                            He

    00:24

  e|0---0-- 0---0-- 0---0-- 0---0--|1---1-- 1---1-- 1-1-1-- 3-3-3--|
  B|1---1---1---1---1---1---1---1--|1---1---1---1---1-1-1---3-3-3--|
  G|2---2---2---2---2---2---2---2--|2---2---2---2---2-2-2---4-4-4--|
  D|2---2---2---2---2---2---2---2--|3---3---3---3---3-3-3---5-5-5--|
  A|0---0---0---0---0---0---0---0--|3---3---3---3---3-3-3---5-5-5--|
  E|-------------------------------|1---1---1---1---1-1-1---3-3-3--|
      (This quick mandolin picking has at least 6 notes per beat)
  e|------- ------- ------- -------|------- ------- ------- -------|
  B|-------------------------------|---------------------------------|
  G|-------------------------------|------------------------12121212-|
  D|777777........./10101010................................---------|
  A|-------------------------------|---------------------------------|
  E|-------------------------------|---------------------------------|
    went    tiger   hunting with    elephant    and gun
        out                     his

  e|0------ 0------ 0------ 0------|1---1-- 1------ 1-1-1-- 3---3--|
  B|1-------1-------1-------1------|1---1---1-------1-1-1---3---3--|
  G|2-------2-------2-------2------|2---2---2-------2-2-2---4---4--|
  D|2-------2-------2-------2------|3---3---3-------3-3-3---5---5--|
  A|0-------0-------0-------0------|3---3---3-------3-3-3---5---5--|
  E|-------------------------------|1---1---1-------1-1-1---3---3--|


  e|------- ------- ------- -------|13131313............... 5151515|
  B|10101010........13131313.......|-------------------------------|
  G|-------------------------------|-------------------------------|
  D|-------------------------------|-------------------------------|
  A|-------------------------------|-------------------------------|
  E|-------------------------------|-------------------------------|
        In case of  accidents   he  always  took    mom         He's
                                                his               the

  e|0---0-- 0---0-- 3---3-- 3---3--|0---0-- 0------|
  B|0---0---0---0---3---3---3---3--|1---1---1------|
  G|1---1---1---1---0---0---0---0--|2---2---2------|
  D|2---2---2---2---0---0---0---0--|2---2---2---2--|
  A|2---2---2---2---2---2---2---2--|0---0---0---0--|
  E|0---0---0---0---3---3---3---3--|------------0--|

  e|1212123.........11151515.......|17171717.......|
  B|-------------------------------|---------------|
  G|-------------------------------|---------------|
  D|-------------------------------|---------------|
  A|-------------------------------|---------------|
  E|-------------------------------|---------------|
    all American    bullet          saxon   mother's
                        headed                      son

                                    3/4
   (.                               X       X       X

  e|1------ ------- ------- -------|------- ------- -------|
  B|1------------------------------|-----------------------|
  G|1------------------------------|-----------------------|
  D|3------------------------------|-----------------------|
  A|3------------------------------|-----------------------|
  E|1------------------------------|-----------------------|

  e|20202020.......................|------- ------- -------|
  B|-------------------------------|-----------------------|
  G|-------------------------------|-----------------------|
  D|-------------------------------|-----------------------|
  A|-------------------------------|-----------------------|
  E|-------------------------------|-----------------------|

  e|8-8-8-8 ------- ------- -------|------- ------- -------|
  B|9-9-9-9........................|-----------------------|
  G10101010------------------------|-----------------------|
  D|-------------------------------|-----------------------|
  A|-------------------------------|-----------------------|
  E|-------------------------------|-----------------------|
                                All  children
                                   the      sing


    00:46

  e|0------ 0---0-- 3------ 3------|0---0-- 0------ 1---1-- 1------|
  B|1-------1---1---0-------0------|1---1---1-------1---1---1------|
  G|0-------0---0---0-------0------|0---0---0-------1---1---1------|
  D|2-------2---2---0-------0------|2---2---2-------3---3---3------|
  A|3-------3---3---2-------2------|3---3---3-------3---3---3------|
  E|----------------3-------3------|----------------1---1---1------|
    Hey             Bungalow    Bill                What    you kill
                                                        did

  e|0---0-- 0------ 1------ 1------|1---1-- 1---1--|
  B|1---1---1---0---1-------1------|0---0---0---0--|
  G|0---0---0---0---1-------1------|0---0---0---0--|
  D|2---2---2---0---3-------3------|0---0---0---0--|
  A|3---3---3-------3-------3------|2---2---2---2--|
  E|----------------1-------1------|3---3---3---3--|
                    Bungalow    Bill


  e|0------ 0---0-- 0---0-- 0------|0---0-- 0------ 1---1-- 1------|
  B|2-------2---2---0---0---0------|2---2---2---0---3---3---3---0--|
  G|2-------2---2---1---1---1------|2---2---2---0---2---2---2---0--|
  D|2-------2---2---2---2---2------|2---2---2---0---0---0---0---0--|
  A|0-------0---0---2---2---2------|0---0---0----------------------|
  E|----------------0---0---0------|-------------------------------|
    Hey             Bungalow    Bill                What    you kill
                                                        did

  e|0---0-- 0------ 1------ 1---0--|----0-- 0---0-- 0---0-- 0---0--|
  B|2---2---2---0---3-------3---0--|----0---0---0---0---0---0---0--|
  G|2---2---2---0---2-------2---1--|----1---1---1---1---1---1---1--|
  D|2---2---2---0---0-------0---2--|----2---2---2---2---2---2---2--|
  A|0---0---0-------------------2--|----2---2---2---2---2---2---2--|
  E|----------------------------0--|----0---0---0---0---0---0---0--|
                    Bungalow    Bill

    01:01

  e|0------ 0---0-- 0------ 0---0--|1------ 1---1-- 1-1-1-- 3-3-3--|
  B|1-------1---1---1-------1---1--|1-------1---1---1-1-1---3-3-3--|
  G|2-------2---2---2-------0---2--|2-------2---2---2-2-2---4-4-4--|
  D|2-------2---2---2-------2---2--|3-------3---3---3-3-3---5-5-5--|
  A|0-------0---0---0-------0---0--|3-------3---3---3-3-3---5-5-5--|
  E|-------------------------------|1-------1---1---1-1-1---3-3-3--|

  e|------- ------- ------- -------|------- ------- ------- -------|
  B|-------------------------------|---------------------------------|
  G|-------------------------------|------------------------12121212-|
  D|777777........./10101010................................---------|
  A|-------------------------------|---------------------------------|
  E|-------------------------------|---------------------------------|
        Deep    the         where   mighty  tiger   lies
            in    jungle        the

  e|0------ 0---0-- 0---0-- 0------|1---1-- 1------ 1-1-1-- 3-3-3--|
  B|1-------1---1---1---1---1------|1---1---1-------1-1-1---3-3-3-0|
  G|2-------2---2---2---2---2------|2---2---2-------2-2-2---4-4-4-0|
  D|2-------2---2---2---2---2------|3---3---3-------3-3-3---5-5-5-0|
  A|0-------0---0---0---0---0------|3---3---3-------3-3-3---5-5-5--|
  E|-------------------------------|1---1---1-------1-1-1---3-3-3--|

  e|------- ------- ------- -------|13131313............... 5151515|
  B|10101010........13131313.......|-------------------------------|
  G|-------------------------------|-------------------------------|
  D|-------------------------------|-------------------------------|
  A|-------------------------------|-------------------------------|
  E|-------------------------------|-------------------------------|
        Bill    his elephants   were        by  surprise
            and                     taken

  e|0------ 0------ 3---3-- 3------|0---0-- 0---0--|
  B|0-------0-------3---3---3------|1---1---1---1--|
  G|1-------1-------0---0---0------|2---2---2---2--|
  D|2-------2-------0---0---0------|2---2---2---2--|
  A|2-------2-------2---2---2------|0---0---0---0--|
  E|0-------0---0---3---3---3------|------------0--|

  e|1212123.........11151515.......|17171717.......|
  B|-------------------------------|---------------|
  G|-------------------------------|---------------|
  D|-------------------------------|---------------|
  A|-------------------------------|---------------|
  E|-------------------------------|---------------|
        So  Captain Marvel  zapped  right       the
                                him    between    eyes


   (.                               X       X       X

  e|1------ ------- ------- -------|------- ------- -------|
  B|1------------------------------|-----------------------|
  G|1------------------------------|-----------------------|
  D|3------------------------------|-----------------------|
  A|3------------------------------|-----------------------|
  E|1------------------------------|-----------------------|

  e|20202020.......................|------- ------- -------|
  B|-------------------------------|-----------------------|
  G|-------------------------------|-----------------------|
  D|-------------------------------|-----------------------|
  A|-------------------------------|-----------------------|
  E|-------------------------------|-----------------------|

  e|8-8-8-8 ------- ------- -------|------- ------- -------|
  B|9-9-9-9........................|-----------------------|
  G10101010------------------------|-----------------------|
  D|-------------------------------|-----------------------|
  A|-------------------------------|-----------------------|
  E|-------------------------------|-----------------------|
                               All children
                                  the      sing


    01:24

  e|0------ 0------ 3------ 3------|0---0-- 0---0-- 1---1-- 1------|
  B|1-------1-------0-------0------|1---1---1---1---1---1---1------|
  G|0-------0-------0-------0------|0---0---0---0---1---1---1------|
  D|2-------2-------0-------0------|2---2---2---2---3---3---3------|
  A|3-------3-------2-------2------|3---3---3---3---3---3---3------|
  E|----------------3-------3------|----------------1---1---1------|
    Hey             Bungalow    Bill                What    you kill
                                                        did

  e|0------ 0------ 1------ 1------|3---3-- 3------|
  B|1-------1---0---1-------1------|0---0---0---0--|
  G|0-------0---0---1-------1------|0---0---0---0--|
  D|2-------2---0---3-------3------|0---0---0---0--|
  A|3-------3-------3-------3------|2---2---2------|
  E|----------------1-------1------|3---3---3------|
                    Bungalow    Bill


  e|0------ 0---0-- 0---0-- 0------|0---0-- 0------ 1---1-- 1------|
  B|2-------2---2---0---0---0------|2---2---2---0---3---3---3---0--|
  G|2-------2---2---1---1---1------|2---2---2---0---2---2---2---0--|
  D|2-------2---2---2---2---2------|2---2---2---0---0---0---0---0--|
  A|0-------0---0---2---2---2------|0---0---0----------------------|
  E|----------------0---0---0------|-------------------------------|
    Hey             Bungalow    Bill                What    you kill
                                                        did

  e|0---0-- 0------ 1---1-- 1---0--|----0-- 0------ 0---0-- 0------|
  B|2---2---2---0---3---3---3---0--|----0---0-------0---0---0------|
  G|2---2---2---0---2---2---2---1--|----1---1-------1---1---1------|
  D|2---2---2---0---0---0---0---2--|----2---2-------2---2---2------|
  A|0---0---0-------------------2--|----2---2-------2---2---2------|
  E|----------------------------0--|----0---0-------0---0---0------|
                    Bungalow    Bill

    01:39

  e|0---0-- ----0-- 0------ 0---0--|1---1-- 1---1-- 1-1-1-1 3-3-3-3|
  B|1---1-------1---1-------1---1--|1---1---1---1---1-1-1-1-3-3-3-3|
  G|2---2-------2---2-------0---2--|2---2---2---2---2-2-2-2-4-4-4-4|
  D|2---2-------2---2-------2---2--|3---3---3---3---3-3-3-3-5-5-5-5|
  A|0---0-------0---0-------0---0--|3---3---3---3---3-3-3-3-5-5-5-5|
  E|-------------------------------|1---1---1---1---1-1-1-1-3-3-3-3|

  e|------- ------- ------- -------|------- ------- ------- -------|
  B|-------------------------------|---------------------------------|
  G|-------------------------------|------------------------12121212-|
  D|777777........./10101010................................---------|
  A|-------------------------------|---------------------------------|
  E|-------------------------------|---------------------------------|
        The children    him if  to  kill    not   sin
                asked                   was    a

  e|0------ 0---0-- 0------ 0------|1------ 1-----1 1-1-1-- 3---3--|
  B|1-------1---1---1-------1------|1-------1-----1-1-1-1---3---3--|
  G|2-------2---2---2-------2------|2-------2-----2-2-2-2---4---4--|
  D|2-------2---2---2-------2------|3-------3-----3-3-3-3---5---5--|
  A|0-------0---0---0-------0------|3-------3-----3-3-3-3---5---5--|
  E|-------------------------------|1-------1-----1-1-1-1---3---3--|


  e|------- ------- ------- -------|13131313............... 5151515|
  B|10101010........13131313.......|-------------------------------|
  G|-------------------------------|-------------------------------|
  D|-------------------------------|-------------------------------|
  A|-------------------------------|-------------------------------|
  E|-------------------------------|-------------------------------|
        But when    looked  fierce  mummy   butted
                 he     so      his               in


  e|0---0-- 0------ 3------ 3------|0------ 0------|
  B|0---0---0-------3-------3------|1-------1------|
  G|1---1---1-------0-------0------|2-------2------|
  D|2---2---2-------0-------0------|2-------2------|
  A|2---2---2-------2-------2------|0---0---0------|
  E|0---0---0-------3-------3------|---------------|

  e|1212123.........11151515.......|17171717.......|
  B|-------------------------------|---------------|
  G|-------------------------------|---------------|
  D|-------------------------------|---------------|
  A|-------------------------------|---------------|
  E|-------------------------------|---------------|
        If  looks   kill    would been  instead of
                could    it    have us


   (.                               X       X       X

  e|1------ ------- ------- -------|------- ------- -------|
  B|1------------------------------|-----------------------|
  G|1------------------------------|-----------------------|
  D|3------------------------------|-----------------------|
  A|3------------------------------|-----------------------|
  E|1------------------------------|-----------------------|

  e|20202020.......................|------- ------- -------|
  B|-------------------------------|-----------------------|
  G|-------------------------------|-----------------------|
  D|-------------------------------|-----------------------|
  A|-------------------------------|-----------------------|
  E|-------------------------------|-----------------------|

  e|8-8-8-8 ------- ------- -------|------- ------- -------|
  B|9-9-9-9........................|-----------------------|
  G10101010------------------------|-----------------------|
  D|-------------------------------|-----------------------|
  A|-------------------------------|-----------------------|
  E|-------------------------------|-----------------------|
    him                        All children
                                  the      sing

    02:01

  e|0------ 0------ 3------ 3------|0---0-- 0---0-- 1---1-- 1------|
  B|1-------1-------0-------0------|1---1---1---1---1---1---1------|
  G|0-------0-------0-------0------|0---0---0---0---1---1---1------|
  D|2-------2-------0-------0------|2---2---2---2---3---3---3------|
  A|3-------3-------2-------2------|3---3---3---3---3---3---3------|
  E|----------------3-------3------|----------------1---1---1------|
    Hey             Bungalow    Bill                What    you kill
                                                        did

  e|0---0-- 0------ 1---1-- 1---3--|----3-- 3------|
  B|1---1---1---0---1---1---1---0--|----0---0---0--|
  G|0---0---0---0---1---1---1---0--|----0---0---0--|
  D|2---2---2---0---3---3---3---0--|----0---0---0--|
  A|3---3---3-------3---3---3---2--|----2---2------|
  E|----------------1---1---1---3--|----3---3------|
                    Bungalow    Bill


  e|0---0-- 0------ 0------ 0------|0---0-- 0------ 1---1-- 1------|
  B|2---2---2-------0-------0------|2---2---2---0---3---3---3---0--|
  G|2---2---2-------1-------1------|2---2---2---0---2---2---2---0--|
  D|2---2---2-------2-------2------|2---2---2---0---0---0---0---0--|
  A|0---0---0-------2-------2------|0---0---0----------------------|
  E|----------------0-------0------|-------------------------------|
    Hey             Bungalow    Bill                What    you kill
                                                        did

  e|0---0-- 0------ 1---1-- 1---0--|----0-- 0---0--|
  B|2---2---2---0---3---3---3---0--|----0---0---0--|
  G|2---2---2---0---2---2---2---1--|----1---1---1--|
  D|2---2---2---0---0---0---0---2--|----2---2---2--|
  A|0---0---0-------------------2--|----2---2---2--|
  E|----------------------------0--|----0---0---0--|
                    Bungalow    Bill

    02:16

  e|0------ 0------ 3------ 3---3--|0---0-- 0---0-- 1---1-- 1---0--|
  B|1-------1-------0-------0---0--|1---1---1---1---1---1---1---1--|
  G|0-------0-------0-------0---0--|0---0---0---0---1---1---1---0--|
  D|2-------2-------0-------0---0--|2---2---2---2---3---3---3---2--|
  A|3-------3-------2-------2---2--|3---3---3---3---3---3---3---3--|
  E|----------------3-------3---3--|----------------1---1---1------|

  e|------- ------- ------- -------|------- ------- ------- -------|
  B|-------------------------------|-------------------------------|
  G|5---------------4---5---7---5--|-------------------------------|
  D|-------------------------------|----------------6---3-------5--|
  A|-------------------------------|------------------------5------|
  E|-------------------------------|-------------------------------|
    Hey             Bungalow    Bill                What    you kill
                                                        did

  e|----0-- 0---0-- 1---1-- 1---3--|----3-- 3------|
  B|----1---1---1---1---1---1---0--|----0---0------|
  G|----0---0---0---1---1---1---0--|----0---0------|
  D|----2---2---2---3---3---0---0--|----0---0------|
  A|----3---3---3---3---3---3---2--|----2---2------|
  E|----------------1---1---1---3--|----3---3------|

  e|------- ------- ------- -------|------- -------|
  B|-------------------------------|---------------|
  G|-------------------------------|---------------|
  D|----------------3---5---6---5--|---------------|
  A|-------------------------------|---------------|
  E|-------------------------------|---------------|
                    Bungalow    Bill


  e|0---0-- 0---0-- 0------ 0------|0---0-- 0---0-- 1------ 0------|
  B|2---2---2---2---0---0---0------|2---2---2---2---3-------2------|
  G|2---2---2---2---1---1---1------|2---2---2---2---2-------2------|
  D|2---2---2---2---2---2---2------|2---2---2---2---0-------2------|
  A|0---0---0---0---2---2---2------|0---0---0---0-----------0------|
  E|----------------0---0---0------|-------------------------------|

  e|------- ------- ------- -------|------- ------- ------- -------|
  B|-------------------------------|-------------------------------|
  G|-------------------------------|-------------------------------|
  D|7---------------6---7---9---7--|-------------------------------|
  A|-------------------------------|----------------8---5-------7--|
  E|-------------------------------|------------------------7------|
    Hey             Bungalow    Bill                What    you kill
                                                        did

  e|0---0-- 0---0-- 1------ 1---0--|----0-- 0------|
  B|2---2---2---2---3-------3---0--|----0---0----x-|
  G|2---2---2---2---2-------2---1--|----1---1----x-|
  D|2---2---2---2---0-------0---2--|----2---2----x-|
  A|0---0---0---0---------------2--|----2---2------|
  E|----------------------------0--|----0---0------|

  e|------- ------- ------- -------|------- -------|
  B|-------------------------------|---------------|
  G|-------------------------------|---------------|
  D|-------------------------------|---------------|
  A|----------------5---7---8---7--|---------------|
  E|-------------------------------|---------------|
                    Bungalow    Bill

    02:30

  e|0------ 0---0-- 3---3-- ----3--|0---0-- 0---0-- 1---1-- 1------|
  B|1-------1---1---0---0-------0--|1---1---1---1---1---1---1------|
  G|0-------0---0---0---0-------0--|0---0---0---0---1---1---1------|
  D|2-------2---2---0---0-------0--|2---2---2---2---3---3---3------|
  A|3-------3---3---2---2-------2--|3---3---3---3---3---3---3------|
  E|----------------3---3-------3--|----------------1---1---1------|

  e|------- ------- ------- -------|------- ------- ------- -------|
  B|-------------------------------|-------------------------------|
  G|5---------------4---5---7---5--|-------------------------------|
  D|-------------------------------|----------------6---3-------5--|
  A|-------------------------------|------------------------5------|
  E|-------------------------------|-------------------------------|
    Hey             Bungalow    Bill                What    you kill
                                                        did

  e|0------ 0------ 1---1-- 1------|1---1-- 1---1--|
  B|1-------1---1---1---1---1------|0---0---0---0--|
  G|0-------0---0---1---1---1------|0---0---0---0--|
  D|2-------2---2---3---3---3------|0---0---0---0--|
  A|3-------3---3---3---3---3------|2---2---2---2--|
  E|----------------1---1---1------|3---3---3---3--|

  e|------- ------- ------- -------|------- -------|
  B|-------------------------------|---------------|
  G|-------------------------------|---------------|
  D|----------------3---5---6---5--|---------------|
  A|-------------------------------|---------------|
  E|-------------------------------|---------------|
                    Bungalow    Bill


  e|0------ 0---0-- 0---0-- 0------|0---0-0 0---0-- 1---1-- 1---0-0|
  B|2-------2---2---0---0---0------|2---2-2-2---2---3---3---3---2-2|
  G|2-------2---2---1---1---1------|2---2-2-2---2---2---2---2---2-2|
  D|2-------2---2---2---2---2------|2---2-2-2---0---0---0---0---2-2|
  A|0-------0---0---2---2---2------|0---0-0-0---0---------------0-0|
  E|----------------0---0---0------|-------------------------------|

  e|------- ------- ------- -------|------- ------- ------- -------|
  B|-------------------------------|-------------------------------|
  G|-------------------------------|-------------------------------|
  D|7---------------6---7---9---7--|-------------------------------|
  A|-------------------------------|----------------8---5-------7--|
  E|-------------------------------|------------------------7------|
    Hey             Bungalow    Bill                What    you kill
                                                        did

  e|0---0-- 0---0-- 1---1-- 1---0--|----0-- 0---0--|
  B|2---2---2---2---3---3---3---0--|----0---0---0--|
  G|2---2---2---2---2---2---2---1--|----1---1---1--|
  D|2---2---2---2---0---0---0---2--|----2---2---2--|
  A|0---0---0---0---------------2--|----2---2---2--|
  E|----------------------------0--|----0---0---0--|

  e|------- ------- ------- -------|------- -------|
  B|-------------------------------|---------------|
  G|-------------------------------|---------------|
  D|-------------------------------|---------------|
  A|----------------5---7---8---7--|---------------|
  E|-------------------------------|---------------|
                    Bungalow    Bill

    02:45

  e|0---0-- ----3-- ----3-- ----0--|----0-- ----0-- ----1-- 1---0--|
  B|1---1-------0-------0-------1--|----1-------1-------1---1---1--|
  G|0---0-------0-------0-------0--|----0-------0-------1---1---0--|
  D|2---2-------0-------0-------2--|----2-------2-------3---3---2--|
  A|3---3-------2-------2-------3--|----3-------3-------3---3---3--|
  E|------------3-------3----------|--------------------1---1------|

  e|------- ------- ------- -------|------- ------- ------- -------|
  B|-------------------------------|-------------------------------|
  G|5---------------4---5---7---5--|-------------------------------|
  D|-------------------------------|----------------6---3-------5--|
  A|-------------------------------|------------------------5------|
  E|-------------------------------|-------------------------------|
    Hey             Bungalow    Bill                What    you kill
                                                        did

  e|----0-- ----0-- ----1-- ----1--|----1-- ----1--|
  B|----1-------1-------1-------1--|----0-------0--|
  G|----0-------0-------1-------1--|----0-------0--|
  D|----2-------2-------3-------3--|----0-------0--|
  A|----3-------3-------3-------3--|----2-------2--|
  E|--------------------1-------1--|----3-------3--|

  e|------- ------- ------- -------|------- -------|
  B|-------------------------------|---------------|
  G|-------------------------------|---------------|
  D|----------------3---5---6---5--|---------------|
  A|-------------------------------|---------------|
  E|-------------------------------|---------------|
                    Bungalow    Bill


  e|----0-- 0---0-- ----0-- ----0--|----0-- ----0-- ----1-- ----0--|
  B|----2---2---2-------0-------2--|----2-------2-------3-------2--|
  G|----2---2---2-------1-------2--|----2-------2-------2-------2--|
  D|----2---2---2-------2-------2--|----2-------0-------0-------2--|
  A|----0---0---0-------2-------0--|----0-------0---------------0--|
  E|--------------------0----------|-------------------------------|

  e|------- ------- ------- -------|------- ------- ------- -------|
  B|-------------------------------|-------------------------------|
  G|-------------------------------|-------------------------------|
  D|7---------------6---7---9---7--|-------------------------------|
  A|-------------------------------|----------------8---5-------7--|
  E|-------------------------------|------------------------7------|
    Hey             Bungalow    Bill                What    you kill
                                                        did

  e|----0-- ----1-- ----1-- -------|------- -------|
  B|----2-------3-------3----------|---------------|
  G|----2-------2-------2----------|---------------|
  D|----2-------0-------0----------|---------------|
  A|----0--------------------------|---------------|
  E|-------------------------------|---------------|

  e|------- ------- ------- -------|------- -------|
  B|-------------------------------|---------------|
  G|-------------------------------|---------------|
  D|-------------------------------|---------------|
  A|----------------5---7---8---7--|---------------|
  E|-------------------------------|---------------|
                    Bungalow    Bill

    GENERAL CLAPPING AND MELLOTRON ENDING
    03:00

  e|------- ------- ------- -------|------- ------- ------- -------|
  B|-------------------------------|-------------------------------|
  G|5---------------4---5---7---5--|-------------------------------|
  D|-------------------------------|----------------6---3-------5--|
  A|-------------------------------|------------------------5------|
  E|-------------------------------|-------------------------------|


  e|------- ------- ------- -------|------- ------- ------- -------|
  B|-------------------------------|-------------------------------|
  G|-------------------------------|-------------------------------|
  D|----------------3---5---6---5--|-------------------------------|
  A|-------------------------------|-------------------------------|
  E|-------------------------------|-------------------------------|

  e|------- ------- ------- -------|------- ------- ------- -------|
  B|-------------------------------|----------------1--------------|
  G|-------------------------------|------------2------------------|
  D|-------------------------------|----3--------------------------|
  A|-------------------------------|-------------------------------|
  E|-------------------------------|-------------------------------|


  e|------- ------- ------- -------|------- ------- ------- -------|
  B|-------------------------------|-------------------------------|
  G|-------------------------------|-------------------------------|
  D|7---------------6---7---9---7--|-------------------------------|
  A|-------------------------------|----------------8---5-------7--|
  E|-------------------------------|------------------------7------|

  e|------- ------- ----1-- -------|------- 0------ ------- -------|
  B|3------------------------------|----------------1--------------|
  G|-------------------------------|------------------------0------|
  D|-------------------------------|-------------------------------|
  A|-------------------------------|-------------------------------|
  E|-------------------------------|-------------------------------|


  e|------- ------- ------- -------|------- ------- ------- -------|
  B|-------------------------------|-------------------------------|
  G|-------------------------------|-------------------------------|
  D|-------------------------------|-------------------------------|
  A|----------------5---6---7---8--|-------------------------------|
  E|-------------------------------|-------------------------------|

  e|------- ------- ------- -------|------- ------- ------- -------|
  B|-------------------------------|-------------------------------|
  G|-------------------------------|-------------------------------|
  D|-------------------------------|-------------------------------|
  A|-------------------------------|-------------------------------|
  E|-------------------------------|-------------------------------|
                                Eh  up!


        B  Bend
        R  Release
        /  Slide up
        \  Slide down
        H  Hammer-on
        P  Pull-off
        ~  Vibrato
        +  Harmonic
        x  Mute note
        .  Play note like a dot in standard notation
        ^  Ties two notes together
        (. Pause

  --------------------------------------------------------------------

  THE BEATLES - WHILE MY GUITAR GENTLY WEEPS (Harrison) From THE WHITE
                ALBUM. Released on 22nd November 1968.

  --------------------------------------------------------------------

  Tabbed by:PJVillanueva


  I look at you all see the love there that's sleeping
  While my guitar gently weeps
  I look at the floor and I see it needs sweeping
  Still my guitar gently weeps

  I don't know why nobody told you
  How to unfold your love
  I don't know how someone controlled you
  They bought and sold you

  I look at the world and I notice it's turning
  While my guitar gently weeps
  With every mistake we must surely be learning
  Still my guitar gently weeps

  I don't know how you were diverted
  You were perverted too
  I don't know how you were inverted
  No one alerted you

  I look at you all see the love there that's sleeping
  While my guitar gently weeps
  I look at you all
  Still my guitar gently weeps


e|5-----5 5-----5 5-----5 5-----5|5-----5 5-----5 5-5-5-- --5-5--|
B|-------------------------------|-------------------------------|
G|-------------------------------|-------------------------------|
D|-------------------------------|-------------------------------|
A|-------------------------------|-------------------------------|
E|-------------------------------|-------------------------------|
  Am                              Am7
e|0------ 0------ 0---0-- 0---0--|0------ 0------ 0---0-- 0------|
B|1-------1-------1---1---1---1--|1-------1-------1---1---1------|
G|2-------2-------2---2---2---2--|2-------2-------2---2---2------|
D|2-------2-------2---2---2---2--|2-------2-------2---2---2------|
A|0-------0-------0---0---0---0--|-------------------------------|
E|-------------------------------|3-------3-------3---3---3------|


e|5-----5 5-----5 5---7-- --8----|10----- ------- ------- 8--10--|
B|-------------------------------|-------------------------------|
G|-------------------------------|-------------------------------|
D|-------------------------------|-------------------------------|
A|-------------------------------|-------------------------------|
E|-------------------------------|-------------------------------|
  D9                              F
e|0------ 0------ 0------ 0---0--|1------ 1------ 1---1-- 1---1--|
B|1-------1-------1-------1---1--|1-------1-------1---1---1---1--|
G|2-------2-------2-------2---2--|2-------2-------2---2---2---2--|
D|0-------0-------0-------0---0--|3-------3-------3---3---3---3--|
A|0-------0-------0-------0---0--|3-------3-------3---3---3---3--|
E|2-------2-------2-------2---2--|1-------1-------1---1---1---1--|


e|12----- ------- ------- -------|10----- ------- ------- -------|
B|------------13-----------------|------------12-----------------|
G|------------------------14-----|------------------------12-----|
D|-------------------------------|-------------------------------|
A|-------------------------------|-------------------------------|
E|-------------------------------|-------------------------------|
  Am                              G
e|0------ 0------ 0---0-- 0---0--|3------ 3------ 3---3-- 3---3--|
B|1-------1-------1---1---1---1--|3-------3-------3---3---3---3--|
G|2-------2-------2---2---2---2--|0-------0-------0---0---0---0--|
D|2-------2-------2---2---2---2--|0-------0-------0---0---0---0--|
A|0-------0-------0---0---0---0--|2-------2-------2---2---2---2--|
E|-------------------------------|3-------3-------3---3---3---3--|


e|10----- ------- ------- -------|------- ------- ------- -------|
B|------------10-----------------|-------------------------------|
G|------------------------11-----|-------------------------------|
D|-------------------------------|-------------------------------|
A|-------------------------------|-------------------------------|
E|-------------------------------|-------------------------------|
  D                               E
e|2------ 2------ 2---2-- 2---2--|0------ 0------ 0---0-- 0------|
B|3-------3-------3---3---3---3--|0-------0-------0---0---0------|
G|2-------2-------2---2---2---2--|1-------1-------1---1---1------|
D|0-------0-------0---0---0---0--|2-------2-------2---2---2------|
A|-------------------------------|2-------2-------2---2---2------|
E|-------------------------------|0-------0-------0---0---0------|
                                                          I   look
e|------- ------- ------- -------|----0-- ------- ------- 4------|
B|-------------------------------|-------------------------------|
G|-------------------------------|------------2----/----4--------|
D|-------------------------------|-------------------------------|
A|-------------------------------|-------------------------------|
E|-------------------------------|0------------------------------|

  00:16
  Am                              Am7
e|0------ 0------ 0------ 0------|0------ 0------ 0---0-- 0------|
B|1-------1-------1-------1------|1-------1-------1---1---1------|
G|2-------2-------2-------2------|2-------2-------2---2---2------|
D|2-------2-------2-------2------|2-------2-------2---2---2------|
A|0-------0-------0-------0------|-------------------------------|
E|-------------------------------|3-------3-------3---3---3------|
              at      you     all                 see the     love
e|------- ------- ------- -------|------- ------- ------- -------|
B|-------------------------------|-------------------------------|
G|-------------------------------|------------9------------------|
D|7---------------7-------7------|-------------------------------|
A|-------------------------------|-------------------------------|
E|-------------------------------|-------------------------------|

  D9                              F
e|0------ 0------ 0------ 0------|1------ 1------ 1---1-- 1---1--|
B|1-------1-------1-------1------|1-------1-------1---1---1---1--|
G|2-------2-------2-------2------|2-------2-------2---2---2---2--|
D|0-------0-------0-------0------|3-------3-------3---3---3---3--|
A|0-------0-------0-------0------|3-------3-------3---3---3---3--|
E|2-------2-------2-------2------|1-------1-------1---1---1---1--|
              there   that's  sleeping
e|------- ------- ------- -------|------- ------- ------- -------|
B|-------------------------------|-------------------------------|
G|-------------------------------|-------------------------------|
D|-------------------------------|-------------------------------|
A|-------------------------------|------------7-------7----------|
E|-------------------------------|-------------------------------|

  Am                              G
e|0------ 0------ 0------ 0------|3------ 3------ 3------ 3------|
B|1-------1-------1-------1------|3-------3-------3-------3------|
G|2-------2-------2-------2------|0-------0-------0-------0------|
D|2-------2-------2-------2------|0-------0-------0-------0------|
A|0-------0-------0-------0------|2-------2-------2-------2------|
E|-------------------------------|3-------3-------3-------3------|
          While   my      guitar              gently          weeps
e|------- ------- ------- -------|------- ------- ------- -------|
B|-------------------------------|-------------------------------|
G|-------------------------------|-------------------------------|
D|7------------------------------|------------5------------------|
A|-------------------------------|-------------------------------|
E|-------------------------------|-------------------------------|

  D                               E
e|2------ 2------ 2------ 2---2--|0------ 0---0-- ----0-- 0------|
B|3-------3-------3-------3---3--|0-------0---0-------0---0------|
G|2-------2-------2-------2---2--|1-------1---1-------1---1------|
D|0-------0-------0-------0---0--|2-------2---2-------2---2------|
A|-------------------------------|2-------2---2-------2---2------|
E|-------------------------------|0-------0---0-------0---0------|
                                                          I   look
e|------- ------- ------- -------|------- ------- ------- -------|
B|----------------13--13--13R10--|9---9---10-\9------------------|
G|-------------------------------|----------------9-------9------|
D|-------------------------------|-------------------------------|
A|5------------------------------|-------------------------------|
E|-------------------------------|-------------------------------|

  00:33
  Am                              Am7
e|0------ 0------ 0------ 0---0--|0------ 0------ 0------ 0------|
B|1-------1-------1-------1---1--|1-------1-------1-------1------|
G|2-------2-------2-------2---2--|2-------2-------2-------2------|
D|2-------2-------2-------2---2--|2-------2-------2-------2------|
A|0-------0-------0-------0---0--|-------------------------------|
E|-------------------------------|3-------3-------3-------3------|
              at      the     floor               and I       see
e|------- ------- ------- -------|------- ------- ------- -------|
B|-------------------------------|-------------------------------|
G|-------------------------------|-------------------------------|
D|7---------------7--------------|--------7---------------5------|
A|-------------------------------|-------------------------------|
E|-------------------------------|-------------------------------|

  D9                              F
e|0------ 0------ ------- 0------|1------ 1---1-- 1---1-- 1---1--|
B|1-------1---------------1------|1-------1---1---1---1---1---1--|
G|2-------2---------------2------|2-------2---2---2---2---2---2--|
D|0-------0---------------0------|3-------3---3---3---3---3---3--|
A|0-------0---------------0------|3-------3---3---3---3---3---3--|
E|2-------2---------------2------|1-------1---1---1---1---1---1--|
              it      needs   sweeping
e|------- 0------ ------- -------|------- ------- ------- -------|
B|-------------------------------|-------------------------------|
G|-------------------------------|-------------------------------|
D|7---------------7--------------|----------------7-------7------|
A|-------------------------------|-------------------------------|
E|-------------------------------|-------------------------------|

  Am                              G
e|0------ 0------ ------- 0------|3------ 3------ 3------ 3------|
B|1-------1---------------1------|3-------3-------3-------3------|
G|2-------2---------------2------|0-------0-------0-------0------|
D|2-------2---------------2------|0-------0-------0-------0------|
A|0-------0---------------0------|2-------2-------2-------2------|
E|-------------------------------|3-------3-------3-------3------|
          Still   my      guitar              gently          weeps
e|------- ------- ------- -------|------- ------- ------- -------|
B|-------------------------------|-------------------------------|
G|-------------------------------|-------------------------------|
D|7-------------------7----------|5------------------------------|
A|-------------------------------|-------------------------------|
E|-------------------------------|-------------------------------|

  C                               E
e|0------ 0------ 0---0-- 0---0--|0------ 0------ 0------ 0------|
B|1-------1-------1---1---1---1--|0-------0-------0-------0------|
G|0-------0-------0---0---0---0--|1-------1-------1-------1------|
D|2-------2-------2---2---2---2--|2-------2-------2-------2------|
A|3-------3-------3---3---3---3--|2-------2-------2-------2------|
E|3-------3-------3---3---3---3--|0-------0-------0-------0------|

e|------- ------- ------- -------|------- ----5-- ------- -------|
B|-------------------------------|--------------------8----------|
G|--------7B9-----------------R--|7-B-9-------------------7B9R7--|
D|-------------------------------|-------------------------------|
A|-------------------------------|-------------------------------|
E|-------------------------------|-------------------------------|

  00:50
  A                               Dbm
e|0------ 0------ 0------ 0------|4------ ----4-- 4---4-- 4------|
B|2-------2-------2-------2------|5-----------5---5---5---5------|
G|2-------2-------2-------2------|6-----------6---6---6---6------|
D|2-------2-------2-------2------|6-----------6---6---6---6------|
A|0-------0-------0-------0------|4-----------4---4---4---4------|
E|-------------------------------|-------------------------------|
              I   don't   know    why
e|12----- ------- ------- -------|12----- ------- ------- -------|
B|14-----------------------------|14-----------------------------|
G|14-----------------------------|13-----------------------------|
D|-------------------------------|-------------------------------|
A|-------------------------------|-------------------------------|
E|-------------------------------|-------------------------------|

e|------- ------- ------- -------|------- ------- ------- -------|
B|-------------------------------|-------------------------------|
G|5--B--6------------------------|-------------------------------|
D|-------------------------------|-------------------------------|
A|-------------------------------|-------------------------------|
E|-------------------------------|-------------------------------|

  F#m                             Dbm
e|2------ 2------ 2------ 2------|4------ 4---4-- ----4-- 4------|
B|2-------2-------2-------2------|5-------5---5-------5---5------|
G|2-------2-------2-------2------|6-------6---6-------6---6------|
D|4-------4-------4-------4------|6-------6---6-------6---6------|
A|4-------4-------4-------4------|4-------4---4-------4---4------|
E|2-------2-------2-------2------|-------------------------------|
              nobody          told    you
e|-9----- ------- ------- -------|12----- ------- ------- -------|
B|10-----------------------------|14-----------------------------|
G|11-----------------------------|13-----------------------------|
D|-------------------------------|-------------------------------|
A|-------------------------------|-------------------------------|
E|-------------------------------|-------------------------------|

e|------- ------- ------- -------|------- ------- ------- -------|
B|-------------------------------|-------------------------------|
G|-------------------------------|------------------------4------|
D|----------------7--------------|----6-----------6--------------|
A|-------------------------------|-------------------------------|
E|-------------------------------|-------------------------------|

  Bm
e|2------ 2---2-- ------- 2------|2---2-- ----2-- 2---2-- ----2--|
B|3-------3---3-----------3------|3---3-------3---3---3-------3--|
G|4-------4---4-----------4------|4---4-------4---4---4-------4--|
D|4-------4---4-----------4------|4---4-------4---4---4-------4--|
A|2-------2---2-----------2------|2---2-------2---2---2-------2--|
E|-------------------------------|-------------------------------|
              how     to  unfold                      your
e|10----- ------- ------- -------|------- ------- ------- -------|
B|12-----------------------------|-------------------------------|
G|11-----------------------------|-------------------------------|
D|-------------------------------|-------------------------------|
A|-------------------------------|-------------------------------|
E|-------------------------------|-------------------------------|

e|------- ------- 2------ -------|------- 2------ ------- -------|
B|--------3----------------------|----------------3--------------|
G|4------------------------------|4-----------------------4------|
D|------------------------4------|-------------------------------|
A|-------------------------------|-------------------------------|
E|-------------------------------|-------------------------------|

  E
e|0------ 0------ 0------ 0------|0------ 0------ 0---0-- 0---0--|
B|0-------0-------0-------0------|0-------0-------0---0---0---0--|
G|1-------1-------1-------1------|1-------1-------1---1---1---1--|
D|2-------2-------2-------2------|2-------2-------2---2---2---2--|
A|2-------2-------2-------2------|2-------2-------2---2---2---2--|
E|0-------0-------0-------0------|0-------0-------0---0---0---0--|
  love
e|12----- ------- ------- -------|------- ------- ------- -------|
B|12-----------------------------|-------------------------------|
G|13-----------------------------|-------------------------------|
D|-------------------------------|-------------------------------|
A|-------------------------------|-------------------------------|
E|-------------------------------|-------------------------------|

e|------- ------- ------- 7------|4------ 2------ 0------ 2------|
B|-------------------------------|-------------------------------|
G|----------7/9-------7-------4--|----2-------1-------2----------|
D|-------------------------------|-------------------------------|
A|-------------------------------|-------------------------------|
E|-------------------------------|-------------------------------|

  01:07
  A                               Dbm
e|0------ 0------ 0------ 0------|4------ ----4-- 4---4-- 4------|
B|2-------2-------2-------2------|5-----------5---5---5---5------|
G|2-------2-------2-------2------|6-----------6---6---6---6------|
D|2-------2-------2-------2------|6-----------6---6---6---6------|
A|0-------0-------0-------0------|4-----------4---4---4---4------|
E|-------------------------------|-------------------------------|
              I   don't       how
                      know
e|12----- ------- ------- -------|12----- ------- ------- -------|
B|14-----------------------------|14-----------------------------|
G|14-----------------------------|13-----------------------------|
D|-------------------------------|-------------------------------|
A|-------------------------------|-------------------------------|
E|-------------------------------|-------------------------------|

e|------- ------- ------- -------|------- ------- ------- 7---4--|
B|------------------------5------|-------------------------------|
G|-------------------------------|----6--------------------------|
D|--------7----------------------|------------6------------------|
A|-------------------------------|-------------------------------|
E|-------------------------------|-------------------------------|

  F#m                             Dbm
e|2------ 2------ 2------ 2------|4------ 4---4-- ----4-- 4------|
B|2-------2-------2-------2------|5-------5---5-------5---5------|
G|2-------2-------2-------2------|6-------6---6-------6---6------|
D|4-------4-------4-------4------|6-------6---6-------6---6------|
A|4-------4-------4-------4------|4-------4---4-------4---4------|
E|2-------2-------2-------2------|-------------------------------|
              someone         controlled  you
e|-9----- ------- ------- -------|12----- ------- ------- -------|
B|10-----------------------------|14-----------------------------|
G|11-----------------------------|13-----------------------------|
D|-------------------------------|-------------------------------|
A|-------------------------------|-------------------------------|
E|-------------------------------|-------------------------------|

e|5------ ------- ------- -------|------- ------- ------- -------|
B|----7--------------------------|--------5-----------5----------|
G|-------------------------------|------------6------------------|
D|------------------------7------|6---------------6--------------|
A|-------------------------------|-------------------------------|
E|-------------------------------|-------------------------------|

  Bm
e|2------ 2------ 2------ 2------|2------ ------- 2------ -------|
B|3-------3-------3-------3------|3---------------3--------------|
G|4-------4-------4-------4------|4---------------4--------------|
D|4-------4-------4-------4------|4---------------4--------------|
A|2-------2-------2-------2------|2---------------2--------------|
E|-------------------------------|-------------------------------|
              They    bought  and sold
e|10----- ------- ------- -------|------- ------- ------- -------|
B|12-----------------------------|-------------------------------|
G|11-----------------------------|-------------------------------|
D|-------------------------------|-------------------------------|
A|-------------------------------|-------------------------------|
E|-------------------------------|-------------------------------|

e|------- ------- ------- -------|------- ------- ------- -------|
B|--------3---------------3------|--------3----------------------|
G|4---------------4--------------|----4-----------4-------4------|
D|-------------------------------|-------------------------------|
A|-------------------------------|-------------------------------|
E|-------------------------------|-------------------------------|

  E
e|0------ 0------ 0---0-- 0---0--|------- 0------ 0---0-- 0------|
B|0-------0-------0---0---0---0--|--------0-------0---0---0------|
G|1-------1-------1---1---1---1--|--------1-------1---1---1------|
D|2-------2-------2---2---2---2--|--------2-------2---2---2------|
A|2-------2-------2---2---2---2--|--------2-------2---2---2------|
E|0-------0-------0---0---0---0--|--------0-------0---0---0------|
  you                                                     I   look
e|12----- ------- ------- -------|------- ------- ------- -------|
B|12-----------------------------|-------------------------------|
G|13-----------------------------|-------------------------------|
D|-------------------------------|-------------------------------|
A|-------------------------------|-------------------------------|
E|-------------------------------|-------------------------------|

e|------- ------- ------- -------|------- 12----- ------- -------|
B|----------------14------12-----|-----------12------------------|
G|----------------13-------------|----13-------13\11--9----------|
D|-------------------------------|------------------------11\9---|
A|-------------------------------|-------------------------------|
E|-------------------------------|-------------------------------|

  01:24
  Am                              Am7
e|0------ 0------ 0---0-- 0------|0------ 0------ ------- 0------|
B|1-------1-------1---1---1------|1-------1---------------1------|
G|2-------2-------2---2---2------|2-------2---------------2------|
D|2-------2-------2---2---2------|2-------2---------------2------|
A|0-------0-------0---0---0------|-------------------------------|
E|-------------------------------|3-------3---------------3------|
              at      the     world               and I   notice
e|------- 5------ 5------ 5------|------- ------- ------- -------|
B|--------5-------5-------5------|-------------------------------|
G|--------5-------5-------5------|-------------------------------|
D|7------------------------------|5------------------------------|
A|-------------------------------|-------------------------------|
E|-------------------------------|-------------------------------|

  D9                              F
e|0------ 0------ ------- 0------|1------ 1------ 1------ 1------|
B|1-------1---------------1------|1-------1-------1-------1------|
G|2-------2---------------2------|2-------2-------2-------2------|
D|0-------0---------------0------|3-------3-------3-------3------|
A|0-------0---------------0------|3-------3-------3-------3------|
E|2-------2---------------2------|1-------1-------1-------1------|
                      it's    turning
e|------- ------- 0------ 0------|------- ------- ------- -------|
B|----------------1-------1------|-------------------------------|
G|----------------2-------2------|----------------------------0--|
D|4---------------3-------3------|------------------------3------|
A|-------------------------------|-------------------------------|
E|-------------------------------|-------------------------------|

  Am                              G
e|0------ 0------ 0------ 0------|3------ 3------ 3---3-- 3------|
B|1-------1-------1-------1------|3-------3-------3---3---3------|
G|2-------2-------2-------2------|0-------0-------0---0---0------|
D|2-------2-------2-------2------|0-------0-------0---0---0------|
A|0-------0-------0-------0------|2-------2-------2---2---2------|
E|-------------------------------|3-------3-------3---3---3------|
          While   my      guitar              gently          weeps
e|------- ------- ------- -------|------- ------- ------- -------|
B|-------------------------------|-------------------------------|
G|2-----------2-------2----------|0-----------0-------0----------|
D|-------------------------------|-------------------------------|
A|-------------------------------|-------------------------------|
E|-------------------------------|-------------------------------|

  D                           E
e|2------ 2------ 2---2-- 2---0--|------- 0------ 0---0-- -------|
B|3-------3-------3---3---3---0--|--------0-------0---0----------|
G|2-------2-------2---2---2---1--|--------1-------1---1----------|
D|0-------0-------0---0---0---2--|--------2-------2---2----------|
A|----------------------------2--|--------2-------2---2----------|
E|----------------------------0--|--------0-------0---0----------|
                                                          With every
e|------- ------- ------- ----5--|------- ------- 8------ -------|
B|------------------------5------|----8/10-----------------------|
G|----------------7B9------------|-------------------------------|
D|-------------------------------|-------------------------------|
A|-------------------------------|-------------------------------|
E|-------------------------------|-------------------------------|

  01:40
  Am                              Am7
e|0------ 0------ 0------ 0------|0------ 0------ ------- 0------|
B|1-------1-------1-------1------|1-------1---------------1------|
G|2-------2-------2-------2------|2-------2---------------2------|
D|2-------2-------2-------2------|2-------2---------------2------|
A|0-------0-------0-------0------|-------------------------------|
E|-------------------------------|3-------3---------------3------|
                      mistake                     we  must    surely
e|5------ ------- ------- ----\--|------- ------- ------- -------|
B|-------------------------------|-------------------------------|
G|-------------------------------|0------------------------------|
D|-------------------------------|-------------------------------|
A|-------------------------------|-------------------------------|
E|-------------------------------|-------------------------------|

  D9                              F
e|0------ 0------ 0------ 0------|1------ 1------ 1---1-- 1---1--|
B|1-------1-------1-------1------|1-------1-------1---1---1---1--|
G|2-------2-------2-------2------|2-------2-------2---2---2---2--|
D|0-------0-------0-------0------|3-------3-------3---3---3---3--|
A|0-------0-------0-------0------|3-------3-------3---3---3---3--|
E|2-------2-------2-------2------|1-------1-------1---1---1---1--|
                      be      learning
e|------- ------- ------- -------|------- ------- ------- -------|
B|--------------------1----------|------------------------0------|
G|-------------------------------|--------------------3----------|
D|----------------2--------------|-------------------------------|
A|-------------------------------|-------------------------------|
E|-------------------------------|-------------------------------|

  Am                              G
e|0------ 0------ ------- 0------|3------ 3------ 3------ 3------|
B|1-------1---------------1------|3-------3-------3-------3------|
G|2-------2---------------2------|0-------0-------0-------0------|
D|2-------2---------------2------|0-------0-------0-------0------|
A|0-------0---------------0------|2-------2-------2-------2------|
E|-------------------------------|3-------3-------3-------3------|
          still   my      guitar              gently          weeps
e|------- ------- ------- -------|------- ------- ------- -------|
B|-------------------------------|----------------0--------------|
G|2-----------2------------------|0-------0---------------0------|
D|-------------------------------|-------------------------------|
A|-------------------------------|-------------------------------|
E|-------------------------------|-------------------------------|

  C                               E
e|0------ 0------ 0---0-- 0------|0------ 0------ 0------ 0------|
B|1-------1-------1---1---1------|0-------0-------0-------0------|
G|0-------0-------0---0---0------|1-------1-------1-------1------|
D|2-------2-------2---2---2------|2-------2-------2-------2------|
A|3-------3-------3---3---3------|2-------2-------2-------2------|
E|3-------3-------3---3---3------|0-------0-------0-------0------|

e|------- ------- ------- -------|------- ------- ------- -------|
B|-------------------------------|----------------13B14---15B17--|
G|------------------------17R14--|----12--14-B-16----------------|
D|-------------------------------|-------------------------------|
A|-------------------------------|-------------------------------|
E|-------------------------------|-------------------------------|


  SOLO
  01:57
  Am                              Am7
e|0------ 0------ 0---0-- 0---0--|----0-- 0------ 0---0-- 0------|
B|1-------1-------1---1---1---1--|----1---1-------1---1---1------|
G|2-------2-------2---2---2---2--|----2---2-------2---2---2------|
D|2-------2-------2---2---2---2--|----2---2-------2---2---2------|
A|0-------0-------0---0---0------|-------------------------------|
E|----------------------------3--|----3---3-------3---3---3------|

e|------- ------- ------- -------|------- ------- ------- -------|
B|13-B---------------------------|-------------------------------|
G|--------14-~-------------------|12H14-B-17---14B17-~-----------|
D|-------------------------------|-------------------------------|
A|-------------------------------|-------------------------------|
E|-------------------------------|-------------------------------|

  D9                              F
e|0------ 0------ 0---0-- 0---0--|1------ 1------ 1------ 1------|
B|1-------1-------1---1---1---1--|1-------1-------1-------1------|
G|2-------2-------2---2---2---2--|2-------2-------2-------2------|
D|0-------0-------0---0---0---0--|3-------3-------3-------3------|
A|0-------0-------0---0---0---0--|3-------3-------3-------3------|
E|2-------2-------2---2---2---2--|1-------1-------1-------1------|

e|------- ------- ------- -------|------- ------- ------- -------|
B|-------------------------------|-------------------------------|
G|-------------------------------|12H14-B-17---14B17-~-----------|
D|-------------------------------|-------------------------------|
A|-------------------------------|-------------------------------|
E|-------------------------------|-------------------------------|


  Am                              G
e|0------ 0------ 0---0-- 0---0--|3------ 3------ 3---3-- 3------|
B|1-------1-------1---1---1---1--|3-------3-------3---3---3------|
G|2-------2-------2---2---2---2--|0-------0-------0---0---0------|
D|2-------2-------2---2---2---2--|0-------0-------0---0---0------|
A|0-------0-------0---0---0---0--|2-------2-------2---2---2------|
E|-------------------------------|3-------3-------3---3---3------|

e|------- ------- ------- -------|------- ------- ------- -------|
B|-------------------------------|--------15B17---15P13---15B17-~|
G|------------------------12H14-B|17-----------------------------|
D|-------------------------------|-------------------------------|
A|-------------------------------|-------------------------------|
E|-------------------------------|-------------------------------|

  D                               E
e|2------ 2------ 2---2-- 2------|0---0-- 0---0-- 0---0-- 0---0--|
B|3-------3-------3---3---3------|0---0---0---0---0---0---0---0--|
G|2-------2-------2---2---2------|1---1---1---1---1---1---1---1--|
D|0-------0-------0---0---0------|2---2---2---2---2---2---2---2--|
A|-------------------------------|2---2---2---2---2---2---2---2--|
E|-------------------------------|0---0---0---0---0---0---0---0--|

e|------- 15----- ------- -------|------- 15B17-- ------- 15B17--|
B|------------------------15-----|13-----------------------------|
G|-------------------------------|-------------------------------|
D|-------------------------------|-------------------------------|
A|-------------------------------|-------------------------------|
E|-------------------------------|-------------------------------|

  Am                              Am7
e|0------ 0------ 0---0-- 0---0--|0------ 0------ 0---0-- 0---0--|
B|1-------1-------1---1---1---1--|1-------1-------1---1---1---1--|
G|2-------2-------2---2---2---2--|2-------2-------2---2---2---2--|
D|2-------2-------2---2---2---2--|2-------2-------2---2---2---2--|
A|0-------0-------0---0---0---0--|-------------------------------|
E|-------------------------------|3-------3-------3---3---3---3--|


e|15B17-~ ------- 17R15-- -B--17-|~------ ------- ------- 15-------|
B|-------------------------------|------------17--15B17-------17---|R
G|-------------------------------|---------------------------------|
D|-------------------------------|---------------------------------|
A|-------------------------------|---------------------------------|
E|-------------------------------|---------------------------------|

  D9                              F
e|0------ 0------ 0------ 0---0--|1------ 1------ 1------ 1------|
B|1-------1-------1-------1---1--|1-------1-------1-------1------|
G|2-------2-------2-------2---2--|2-------2-------2-------2------|
D|0-------0-------0-------0---0--|3-------3-------3-------3------|
A|0-------0-------0-------0---0--|3-------3-------3-------3------|
E|2-------2-------2-------2---2--|1-------1-------1-------1------|

e|------- ------- ----15- -------|------- ------- ------- -------|
B|15------13--15-B17------17R15--|13-~---------------------------|
G|-------------------------------|----------------14B17R1412H14-B|
D|-------------------------------|-------------------------------|
A|-------------------------------|-------------------------------|
E|-------------------------------|-------------------------------|

  Am                              G
e|0------ 0------ 0---0-- 0---0--|3------ 3------ 3------ 3---3--|
B|1-------1-------1---1---1---1--|3-------3-------3-------3---3--|
G|2-------2-------2---2---2---2--|0-------0-------0-------0---0--|
D|2-------2-------2---2---2---2--|0-------0-------0-------0---0--|
A|0-------0-------0---0---0---0--|2-------2-------2-------2---2--|
E|-------------------------------|3-------3-------3-------3---3--|

e|------- ------- ------- -------|------- ------- ------- -------|
B|-------------------------------|-------------------------------|
G|17---14B17--------------12-----|-------------------------------|
D|----------------12H14-------14-|12P10---12------10H12---10-----|
A|-------------------------------|-------------------------------|
E|-------------------------------|-------------------------------|

  C                               E
e|0------ 0------ 0---0-- 0---0--|0------ 0------ 0---0-- 0---0--|
B|1-------1-------1---1---1---1--|0-------0-------0---0---0---0--|
G|0-------0-------0---0---0---0--|1-------1-------1---1---1---1--|
D|2-------2-------2---2---2---2--|2-------2-------2---2---2---2--|
A|3-------3-------3---3---3---3--|2-------2-------2---2---2---2--|
E|3-------3-------3---3---3---3--|0-------0-------0---0---0---0--|

e|------- ------- ------- -------|------- ----17- 15B17-- 17R15-B|
B|------------------------13/15--|15B17---17---------------------|
G|--------12H14---14B17----------|-------------------------------|
D|12H14--------------------------|-------------------------------|
A|-------------------------------|-------------------------------|
E|-------------------------------|-------------------------------|

  02:30
  A                               Dbm
e|0------ 0------ 0---0-- 0------|4------ ----4-- 4------ 4------|
B|2-------2-------2---2---2------|5-----------5---5-------5------|
G|2-------2-------2---2---2------|6-----------6---6-------6------|
D|2-------2-------2---2---2------|6-----------6---6-------6------|
A|0-------0-------0---0---0------|4-----------4---4-------4------|
E|-------------------------------|-------------------------------|
              I       don't   know
                                  how
e|12----- ------- ------- -------|12----- ------- ------- -------|
B|14-----------------------------|14-----------------------------|
G|14-----------------------------|13-----------------------------|
D|-------------------------------|-------------------------------|
A|-------------------------------|-------------------------------|
E|-------------------------------|-------------------------------|

e|17-~--- ------- ------- -------|------- ------- ------- -------|
B|-------------------------------|-------------------------------|
G|-------------------------------|-------------------------------|
D|-------------------------------|-------------------------------|
A|-------------------------------|-------------------------------|
E|-------------------------------|-------------------------------|

  F#m                             Dbm
e|2------ 2------ ------- 2------|4------ ----4-- 4---4-- 4------|
B|2-------2---------------2------|5-----------5---5---5---5------|
G|2-------2---------------2------|6-----------6---6---6---6------|
D|4-------4---------------4------|6-----------6---6---6---6------|
A|4-------4---------------4------|4-----------4---4---4---4------|
E|2-------2---------------2------|-------------------------------|
              you     were    diverted
e|-9----- ------- ------- -------|12----- ------- ------- -------|
B|10-----------------------------|14-----------------------------|
G|11-----------------------------|13-----------------------------|
D|-------------------------------|-------------------------------|
A|-------------------------------|-------------------------------|
E|-------------------------------|-------------------------------|

e|------- ------- ------- -------|------- 0------ ------- 0------|
B|-------------------------------|-------------------------------|
G|-------------------------------|-------------------------------|
D|-------------------------------|-------------------------------|
A|-------------------------------|-------------------------------|
E|-------------------------------|-------------------------------|

  Bm
e|2------ 2------ ------- 2------|2------ 2------ 2---2-- 2------|
B|3-------3---------------3------|3-------3-------3---3---3------|
G|4-------4---------------4------|4-------4-------4---4---4------|
D|4-------4---------------4------|4-------4-------4---4---4------|
A|2-------2---------------2------|2-------2-------2---2---2------|
E|-------------------------------|-------------------------------|
              you     were    perverted                   too
e|10----- ------- ------- -------|------- ------- ------- -------|
B|12-----------------------------|-------------------------------|
G|11-----------------------------|-------------------------------|
D|-------------------------------|-------------------------------|
A|-------------------------------|-------------------------------|
E|-------------------------------|-------------------------------|

e|------- ------- ------- -------|------- ------- ------- -------|
B|-------------------------------|--------3---------------3------|
G|-------------------------------|----------------4--------------|
D|-------------------------------|-------------------------------|
A|-------------------------------|-------------------------------|
E|-------------------------------|-------------------------------|

  E
e|0------ 0------ 0------ -------|0------ 0------ 0------ 0------|
B|0-------0-------0--------------|0-------0-------0-------0------|
G|1-------1-------1--------------|1-------1-------1-------1------|
D|2-------2-------2--------------|2-------2-------2-------2------|
A|2-------2-------2--------------|2-------2-------2-------2------|
E|0-------0-------0--------------|0-------0-------0-------0------|

e|12----- ------- ------- -------|------- ------- ------- -------|
B|12-----------------------------|-------------------------------|
G|13-----------------------------|-------------------------------|
D|-------------------------------|-------------------------------|
A|-------------------------------|-------------------------------|
E|-------------------------------|-------------------------------|

e|----0-- ------- 0------ 0------|0------ 4------ 4-\-0-- 0------|
B|-------------------------------|-------------------------------|
G|------------0------------------|--2/4--------------------------|
D|-------------------------------|-------------------------------|
A|-------------------------------|-------------------------------|
E|-------------------------------|-------------------------------|

  02:46
  A                               Dbm
e|0------ ----0-- 0------ -------|4------ ----4-- 4------ 4------|
B|2-----------2---2--------------|5-----------5---5-------5------|
G|2-----------2---2--------------|6-----------6---6-------6------|
D|2-----------2---2--------------|6-----------6---6-------6------|
A|0-----------0---0--------------|4-----------4---4-------4------|
E|-------------------------------|-------------------------------|
              I   don't       how
                      know
e|12----- ------- ------- -------|12----- ------- ------- -------|
B|14-----------------------------|14-----------------------------|
G|14-----------------------------|13-----------------------------|
D|-------------------------------|-------------------------------|
A|-------------------------------|-------------------------------|
E|-------------------------------|-------------------------------|

e|------- ------- ------- -------|------- ------- 4------ 7---4--|
B|-------------------------------|------------5------------------|
G|--------2----------------------|-------------------------------|
D|-------------------------------|-------------------------------|
A|-------------------------------|-------------------------------|
E|-------------------------------|-------------------------------|

  F#m                             Dbm
e|2------ 2------ ------- 2------|4------ ----4-- 4---4-- 4------|
B|2-------2---------------2------|5-----------5---5---5---5------|
G|2-------2---------------2------|6-----------6---6---6---6------|
D|4-------4---------------4------|6-----------6---6---6---6------|
A|4-------4---------------4------|4-----------4---4---4---4------|
E|2-------2---------------2------|-------------------------------|
              you     were
                          inverted
e|-9----- ------- ------- -------|12----- ------- ------- -------|
B|10-----------------------------|14-----------------------------|
G|11-----------------------------|13-----------------------------|
D|-------------------------------|-------------------------------|
A|-------------------------------|-------------------------------|
E|-------------------------------|-------------------------------|

e|5------ ------- ------- -------|------- ------- ------- -------|
B|----7--------------------------|----------------5--------------|
G|--------6----------------------|--------6---------------6------|
D|-------------------------------|----6--------------------------|
A|-------------------------------|-------------------------------|
E|-------------------------------|-------------------------------|

  Bm
e|2------ 2------ 2------ -------|2------ ------- 2------ -------|
B|3-------3-------3--------------|3---------------3--------------|
G|4-------4-------4--------------|4---------------4--------------|
D|4-------4-------4--------------|4---------------4--------------|
A|2-------2-------2--------------|2---------------2--------------|
E|-------------------------------|-------------------------------|
              no      one     alerted                     you
e|10----- ------- ------- -------|------- ------- ------- -------|
B|12-----------------------------|-------------------------------|
G|11-----------------------------|-------------------------------|
D|-------------------------------|-------------------------------|
A|-------------------------------|-------------------------------|
E|-------------------------------|-------------------------------|

e|------- ------- 2------ -------|------- ------- ------- -------|
B|--------3----------------------|3---------------3--------------|
G|----4-------------------4------|--------4---------------4------|
D|4------------------------------|-------------------------------|
A|-------------------------------|-------------------------------|
E|-------------------------------|-------------------------------|

  E
e|0------ 0------ 0------ 0---0--|0------ 0---0-- 0---0-- 0------|
B|0-------0-------0-------0---0--|0-------0---0---0---0---0------|
G|1-------1-------1-------1---1--|1-------1---1---1---1---1------|
D|2-------2-------2-------2---2--|2-------2---2---2---2---2------|
A|2-------2-------2-------2---2--|2-------2---2---2---2---2------|
E|0-------0-------0-------0---0--|0-------0---0---0---0---0------|
                                                          I   look
e|12----- ------- ------- -------|------- ------- ------- -------|
B|12-----------------------------|-------------------------------|
G|13-----------------------------|-------------------------------|
D|-------------------------------|-------------------------------|
A|-------------------------------|-------------------------------|
E|-------------------------------|-------------------------------|

e|------- 0------ ------- -------|12----- ----12- ----12- 12\----|
B|-------------------------------|-------------------------------|
G|------------------------12/13--|----14----------14-------------|
D|-------------------------------|-------------------------------|
A|-------------------------------|-------------------------------|
E|-------------------------------|-------------------------------|

  03:03
  Am                              Am7
e|0------ 0------ 0---0-- 0------|0------ 0------ ----0-- 0------|
B|1-------1-------1---1---1------|1-------1-----------1---1------|
G|2-------2-------2---2---2------|2-------2-----------2---2------|
D|2-------2-------2---2---2------|2-------2-----------2---2------|
A|0-------0-------0---0---0------|-------------------------------|
E|-------------------------------|3-------3-----------3---3------|
              at      you     all                 see the     love
e|------- ------- ------- -------|------- ------- ------- -------|
B|----------------10-------------|-------------------------------|
G|-------------------------------|-------------------------------|
D|-------------------------------|-------------------------------|
A|-------------------------------|-------------------------------|
E|-------------------------------|-------------------------------|

  D9                              F
e|0------ 0------ ------- 0------|1------ 1------ 1---1-- 1------|
B|1-------1---------------1------|1-------1-------1---1---1------|
G|2-------2---------------2------|2-------2-------2---2---2------|
D|0-------0---------------0------|3-------3-------3---3---3------|
A|0-------0---------------0------|3-------3-------3---3---3------|
E|2-------2---------------2------|1-------1-------1---1---1------|
              there   that's  sleeping
e|------- ------- ------- -------|------- ------- ----0-- ----0--|
B|-------------------------------|-------------------------------|
G|------------2-----------2------|------------------------2------|
D|-------------------------------|-------------------------------|
A|-------------------------------|-------------------------------|
E|-------------------------------|1------------------------------|

  Am                              G
e|0------ ------- 0------ 0------|3------ 3------ 3------ 3------|
B|1---------------1-------1------|3-------3-------3-------3------|
G|2---------------2-------2------|0-------0-------0-------0------|
D|2---------------2-------2------|0-------0-------0-------0------|
A|0---------------0-------0------|2-------2-------2-------2------|
E|-------------------------------|3-------3-------3-------3------|
          While   my      guitar              gently      weeps
e|------- ------- ------- -------|------- ------- ------- -------|
B|-------------------------------|-------------------------------|
G|2-----------2-------2----------|0-----------0---0---0---0------|
D|-------------------------------|-------------------------------|
A|-------------------------------|-------------------------------|
E|-------------------------------|-------------------------------|

  D                           E
e|2------ 2------ 2---2-- 2---0--|----0-- 0------ 0---0-- ----0--|
B|3-------3-------3---3---3---0--|----0---0-------0---0-------0--|
G|2-------2-------2---2---2---1--|----1---1-------1---1-------1--|
D|0-------0-------0---0---0---2--|----2---2-------2---2-------2--|
A|----------------------------2--|----2---2-------2---2-------2--|
E|----------------------------0--|----0---0-------0---0-------0--|
                                                          I   look
e|------- ------- ------- -------|------- ------- ------- -------|
B|-------------------------------|-------------------------------|
G|--------12--14--14B17---14B17--|13-14---14-~----14P12----------|
D|0------------------------------|------------------------14\12--|
A|-------------------------------|-------------------------------|
E|-------------------------------|-------------------------------|

  03:19
  Am                              Am7
e|0------ 0------ 0------ 0------|0------ 0---0-- 0---0-- 0------|
B|1-------1-------1-------1------|1-------1---1---1---1---1------|
G|2-------2-------2-------2------|2-------2---2---2---2---2------|
D|2-------2-------2-------2------|2-------2---2---2---2---2------|
A|0-------0-------0-------0------|-------------------------------|
E|-------------------------------|3-------3---3---3---3---3------|
  look        at      you     all
  look        at      you     all
e|12----- ------- ------- -------|12----- ------- ------- -------|
B|13-----------------------------|13-----------------------------|
G|14-----------------------------|12-----------------------------|
D|-------------------------------|-------------------------------|
A|-------------------------------|-------------------------------|
E|-------------------------------|-------------------------------|

e|------- ------- ------- -------|------- ------- ------- -------|
B|-------------------------------|-------------------------------|
G|--------------------2----------|--------2-------2-------2------|
D|10------\----------------------|-------------------------------|
A|-------------------------------|-------------------------------|
E|-------------------------------|-------------------------------|

  D9                              F
e|0------ 0------ 0---0-- 0---0--|1------ 1------ 1---1-- 1------|
B|1-------1-------1---1---1---1--|1-------1-------1---1---1------|
G|2-------2-------2---2---2---2--|2-------2-------2---2---2------|
D|0-------0-------0---0---0---0--|3-------3-------3---3---3------|
A|0-------0-------0---0---0---0--|3-------3-------3---3---3------|
E|2-------2-------2---2---2---2--|1-------1-------1---1---1------|

e|12----- ------- ------- -------|12----- ------- ------- -------|
B|13-----------------------------|13-----------------------------|
G|11-----------------------------|10-----------------------------|
D|-------------------------------|-------------------------------|
A|-------------------------------|-------------------------------|
E|-------------------------------|-------------------------------|

e|------- 0------ ------- -------|------- 0------ ------- -------|
B|--------------------1----------|-------------------------------|
G|------------2------------------|----------------2--------------|
D|----------------------------2--|------------2------------------|
A|-------------------------------|-------------------------------|
E|-------------------------------|-------------------------------|

  Am                              G
e|0------ ------- ------- 0------|3------ 3------ 3------ 3------|
B|1-----------------------1------|3-------3-------3-------3------|
G|2-----------------------2------|0-------0-------0-------0------|
D|2-----------------------2------|0-------0-------0-------0------|
A|0-----------------------0------|2-------2-------2-------2------|
E|-------------------------------|3-------3-------3-------3------|
          Still   my      guitar              gently          weeps
          Still   my      guitar              gently          weeps
e|12----- ------- ------- -------|10----- ------- ------- -------|
B|13-----------------------------|12-----------------------------|
G|14-----------------------------|12-----------------------------|
D|-------------------------------|-------------------------------|
A|-------------------------------|-------------------------------|
E|-------------------------------|-------------------------------|

e|------- ------- ------- -------|------- ------- ------- -------|
B|-------------------------------|-------------------------------|
G|2-----------2---------------0--|--------0-----------0----------|
D|-------------------------------|-------------------------------|
A|-------------------------------|-------------------------------|
E|-------------------------------|-------------------------------|

  03:32
  C                               E
e|0------ 0---0-- 0---0-- 0------|0------ 0---0-- 0---0-- 0---0--|
B|1-------1---1---1---1---1------|0-------0---0---0---0---0---0--|
G|0-------0---0---0---0---0------|1-------1---1---1---1---1---1--|
D|2-------2---2---2---2---2------|2-------2---2---2---2---2---2--|
A|3-------3---3---3---3---3------|2-------2---2---2---2---2---2--|
E|3-------3---3---3---3---3------|0-------0---0---0---0---0---0--|

e|12----- ------- ------- -------|12----- ------- ------- -------|
B|13-----------------------------|12-----------------------------|
G|12-----------------------------|13-----------------------------|
D|-------------------------------|-------------------------------|
A|-------------------------------|-------------------------------|
E|-------------------------------|-------------------------------|

e|------- ------- ------- -------|------- ------- ------- -------|
B|-------------------------------|-------------------------------|
G|--------7B9-~-----------7B9-~--|--------7B9-~------------------|
D|-------------------------------|-------------------------------|
A|-------------------------------|-------------------------------|
E|-------------------------------|-------------------------------|

  Am                              Am7
e|0------ 0------ ----0-- 0---0--|0------ 0------ 0---0-- 0------|
B|1-------1-----------1---1---1--|1-------1-------1---1---1------|
G|2-------2-----------2---2---2--|2-------2-------2---2---2------|
D|2-------2-----------2---2---2--|2-------2-------2---2---2------|
A|0-------0-----------0---0---0--|-------------------------------|
E|-------------------------------|3-------3-------3---3---3------|

e|12----- ------- ------- -------|12----- ------- ------- -------|
B|13-----------------------------|13-----------------------------|
G|14-----------------------------|12-----------------------------|
D|-------------------------------|-------------------------------|
A|-------------------------------|-------------------------------|
E|-------------------------------|-------------------------------|

e|------- ------- ------- -------|------- ------- ------- -------|
B|-------------------------------|-------------------------------|
G|--------7B9-~-----------7B9-~--|--------7B9-~-----------7B9-~--|
D|-------------------------------|-------------------------------|
A|-------------------------------|-------------------------------|
E|-------------------------------|-------------------------------|

  D9                              F
e|0------ 0------ 0------ 0------|1---1-- ------- ----1-- 1------|
B|1-------1-------1-------1------|1---1---------------1---1------|
G|2-------2-------2-------2------|2---2---------------2---2------|
D|0-------0-------0-------0------|3---3---------------3---3------|
A|0-------0-------0-------0------|3---3---------------3---3------|
E|2-------2-------2-------2------|1---1---------------1---1------|

e|12----- ------- ------- -------|12----- ------- ------- -------|
B|13-----------------------------|13-----------------------------|
G|11-----------------------------|10-----------------------------|
D|-------------------------------|-------------------------------|
A|-------------------------------|-------------------------------|
E|-------------------------------|-------------------------------| ...
   (This^organ sequence goes on till the end of the song)
e|------- ------- ------- -------|------- ------- ------- -------|
B|-------------------------------|-------------------------------|
G|--------7B9-~-----------7B9-~--|--------7B9-~-----------7B9-~--|
D|-------------------------------|-------------------------------|
A|-------------------------------|-------------------------------|
E|-------------------------------|-------------------------------|

  Am                              G
e|0------ 0---0-- 0---0-- 0------|3------ 3---3-- 3---3-- 3---3--|
B|1-------1---1---1---1---1------|3-------3---3---3---3---3---3--|
G|2-------2---2---2---2---2------|0-------0---0---0---0---0---0--|
D|2-------2---2---2---2---2------|0-------0---0---0---0---0---0--|
A|0-------0---0---0---0---0------|2-------2---2---2---2---2---2--|
E|-------------------------------|3-------3---3---3---3---3---3--|

e|------- ------- ------- -------|------- ------- ------- -------|
B|-------------------------------|--------8B10-~----------8B10---|
G|--------7B9-~-----------7B9-~--|-------------------------------|
D|-------------------------------|-------------------------------|
A|-------------------------------|-------------------------------|
E|-------------------------------|-------------------------------|

  D                           E
e|2------ 2------ 2---2-- 2---0--|0---0-- 0---0-- 0---0-- 0---0--|
B|3-------3-------3---3---3---0--|0---0---0---0---0---0---0---0--|
G|2-------2-------2---2---2---1--|1---1---1---1---1---1---1---1--|
D|0-------0-------0---0---0---2--|2---2---2---2---2---2---2---2--|
A|----------------------------2--|2---2---2---2---2---2---2---2--|
E|----------------------------0--|0---0---0---0---0---0---0---0--|

e|------- 5------ ----5-- ----8B10------- 8------ 5------ -------|
B|5-----------5-----------5------|-------------------------------|
G|-------------------------------|-----------------------B9-R-7--|
D|-------------------------------|-------------------------------|
A|-------------------------------|-------------------------------|
E|-------------------------------|-------------------------------|

  03:53
  Am                              Am7
e|0------ ------- ------- 0------|0------ 0------ 0---0-- 0------|
B|1-----------------------1------|1-------1-------1---1---1------|
G|2-----------------------2------|2-------2-------2---2---2------|
D|2-----------------------2------|2-------2-------2---2---2------|
A|0-----------------------0------|-------------------------------|
E|-------------------------------|3-------3-------3---3---3------|

e|------- ------- ------- -------|------- ------- ------- -------|
B|-------------------------------|-------------------------------|
G|5-~----------------------------|5-~-------------------------5--|
D|------------------------5-H-7--|-------------------------------|
A|-------------------------------|-------------------------------|
E|-------------------------------|-------------------------------|

  D9                              F
e|0------ 0------ ------- 0------|1---1-- ----1-- ----1-- 1------|
B|1-------1---------------1------|1---1-------1-------1---1------|
G|2-------2---------------2------|2---2-------2-------2---2------|
D|0-------0---------------0------|3---3-------3-------3---3------|
A|0-------0---------------0------|3---3-------3-------3---3------|
E|2-------2---------------2------|1---1-------1-------1---1------|

e|------- ------- ------- -------|------- ------- ------- -------|
B|------------------------13B15-~|----------------15R13---15R13--|
G|-----------/17-----------------|-------------------------------|
D|-------------------------------|-------------------------------|
A|-------------------------------|-------------------------------|
E|-------------------------------|-------------------------------|

  Am                              G
e|0------ 0---0-- 0---0-- 0------|3------ 3------ 3---3-- 3------|
B|1-------1---1---1---1---1------|3-------3-------3---3---3------|
G|2-------2---2---2---2---2------|0-------0-------0---0---0------|
D|2-------2---2---2---2---2------|0-------0-------0---0---0------|
A|0-------0---0---0---0---0------|2-------2-------2---2---2------|
E|-------------------------------|3-------3-------3---3---3------|

e|------- ------- ------- -------|------- ------- ------- -------|
B|15--R---13-~----------------10-H13--13--10--10--10H13---13-~---|
G|-------------------------------|-------------------------------|
D|-------------------------------|-------------------------------|
A|-------------------------------|-------------------------------|
E|-------------------------------|-------------------------------|

  C                               E
e|0------ 0------ 0---0-- 0------|0------ 0------ 0------ 0------|
B|1-------1-------1---1---1------|0-------0-------0-------0------|
G|0-------0-------0---0---0------|1-------1-------1-------1------|
D|2-------2-------2---2---2------|2-------2-------2-------2------|
A|3-------3-------3---3---3------|2-------2-------2-------2------|
E|3-------3-------3---3---3------|0-------0-------0-------0------|

e|------- ------- ------- -------|----17- ----15- ------- -------|
B|--------13------13/15---15B17--|--------17------15B17R1513-----|
G|-------------------------------|-------------------------------|
D|-------------------------------|-------------------------------|
A|-------------------------------|-------------------------------|
E|-------------------------------|-------------------------------|

  04:09
  Am                              Am7
e|0------ 0------ 0---0-- 0---0--|0------ 0---0-- 0------ 0------|
B|1-------1-------1---1---1---1--|1-------1---1---1-------1------|
G|2-------2-------2---2---2---2--|2-------2---2---2-------2------|
D|2-------2-------2---2---2---2--|2-------2---2---2-------2------|
A|0-------0-------0---0---0---0--|-------------------------------|
E|-------------------------------|3-------3---3---3-------3------|

e|------- ------- ------- ---15B17-~----- 17-~--- ------- -------|
B|-------------------------------|-------------------------------|
G|14-~---------------------------|-------------------------------|
D|-------------------------------|-------------------------------|
A|-------------------------------|-------------------------------|
E|-------------------------------|-------------------------------|

  D9                              F
e|0------ 0------ 0------ ----0--|1------ 1---1-- 1---1-- 1------|
B|1-------1-------1-----------1--|1-------1---1---1---1---1------|
G|2-------2-------2-----------2--|2-------2---2---2---2---2------|
D|0-------0-------0-----------0--|3-------3---3---3---3---3------|
A|0-------0-------0-----------0--|3-------3---3---3---3---3------|
E|2-------2-------2-----------2--|1-------1---1---1---1---1------|

e|15B17-~ ------- ------- 15B1717|17-~--- ------- ------- -------|
B|-------------------------------|-------------------------------|
G|-------------------------------|-------------------------------|
D|-------------------------------|-------------------------------|
A|-------------------------------|-------------------------------|
E|-------------------------------|-------------------------------|
  .............................Fade..............................


  Am                              G
e|0------ 0------ 0---0-- 0------|3------ 3------ 3------ 3------|
B|1-------1-------1---1---1------|3-------3-------3-------3------|
G|2-------2-------2---2---2------|0-------0-------0-------0------|
D|2-------2-------2---2---2------|0-------0-------0-------0------|
A|0-------0-------0---0---0------|2-------2-------2-------2------|
E|-------------------------------|3-------3-------3-------3------|

e|15-B-17 17-15B17-~----- ---R15-|------- ------- ----15- 17--15-|
B|-------------------------------|15B17-~---------17-------------|
G|-------------------------------|-------------------------------|
D|-------------------------------|-------------------------------|
A|-------------------------------|-------------------------------|
E|-------------------------------|-------------------------------|
  ...............................................................


  C                               E
e|0------ 0---0-- 0---0-- 0------|0---0-- 0---0-- 0---0-- 0---0--|
B|1-------1---1---1---1---1------|0---0---0---0---0---0---0---0--|
G|0-------0---0---0---0---0------|1---1---1---1---1---1---1---1--|
D|2-------2---2---2---2---2------|2---2---2---2---2---2---2---2--|
A|3-------3---3---3---3---3------|2---2---2---2---2---2---2---2--|
E|3-------3---3---3---3---3------|0---0---0---0---0---0---0---0--|

e|17----- ------- ----12- 17--15-|------- ------- ------- -------|
B|--------15B1715B17-------------|15B17R1513H15-----------13-----|
G|-------------------------------|----------------12H14-------14-|
D|-------------------------------|-------------------------------|
A|-------------------------------|-------------------------------|
E|-------------------------------|-------------------------------|
  ...............................................................


  04:26
  Am                              Am7
e|0------ 0------ 0------ 0------|0------ 0------ 0------ 0------|
B|1-------1-------1-------1------|1-------1-------1-------1------|
G|2-------2-------2-------2------|2-------2-------2-------2------|
D|2-------2-------2-------2------|2-------2-------2-------2------|
A|0-------0-------0-------0------|-------------------------------|
E|-------------------------------|3-------3-------3-------3------|

e|------- ------- ------- -------|------- ------- ------- -------|
B|-------------------------------|-------------------------------|
G|14------2----------------------|2-/-5-----------5-/-7---7---5--|
D|-------------------------------|-------------------------------|
A|-------------------------------|-------------------------------|
E|-------------------------------|-------------------------------|
  ...............................................................

  D9                              F
e|0------ 0------ 0------ 0------|1------ 1---1-- 1---1-- 1------|
B|1-------1-------1-------1------|1-------1---1---1---1---1------|
G|2-------2-------2-------2------|2-------2---2---2---2---2------|
D|0-------0-------0-------0------|3-------3---3---3---3---3------|
A|0-------0-------0-------0------|3-------3---3---3---3---3------|
E|2-------2-------2-------2------|1-------1---1---1---1---1------|

e|------- ------- ------- -------|------- ------- ------- -------|
B|----------------5---8----------|-------------------------------|
G|7B9---------------------7B8R7--|5-~---------------------7-B-9--|
D|-------------------------------|-------------------------------|
A|-------------------------------|-------------------------------|
E|-------------------------------|-------------------------------|
  ...............................................................

  Am                              G
e|0------ 0------ 0---0-- 0------|3------ 3------ 3------ 3------|
B|1-------1-------1---1---1------|3-------3-------3-------3------|
G|2-------2-------2---2---2------|0-------0-------0-------0------|
D|2-------2-------2---2---2------|0-------0-------0-------0------|
A|0-------0-------0---0---0------|2-------2-------2-------2------|
E|-------------------------------|3-------3-------3-------3------|

e|------- ------- ------- -------|------- ------- ------- -------|
B|--------5---8------------------|---------------------------------|
G|7---------------7B9R7---5---7-5|7B9-------------7---5---7-----5--|H
D|-------------------------------|---------------------------------|
A|-------------------------------|---------------------------------|
E|-------------------------------|---------------------------------|
  ...............................................................

  C                               E
e|0------ 0---0-- 0---0-- 0---0--|0---0-- 0---0-- 0---0-- 0---0--|
B|1-------1---1---1---1---1---1--|0---0---0---0---0---0---0---0--|
G|0-------0---0---0---0---0---0--|1---1---1---1---1---1---1---1--|
D|2-------2---2---2---2---2---2--|2---2---2---2---2---2---2---2--|
A|3-------3---3---3---3---3---3--|2---2---2---2---2---2---2---2--|
E|3-------3---3---3---3---3---3--|0---0---0---0---0---0---0---0--|

e|------- ------- ------- -------|------- ------- ------- -------|
B|-------------------------------|-------------------------------|
G|7------------------------------|-------------------------------|
D|-------------------------------|-------------------------------|
A|-------------------------------|-------------------------------|
E|-------------------------------|-------------------------------|
  ..............................


        B  Bend
        R  Release
        /  slide up
        \  slide down
        H  hammer-on
        P  pull-off
        ~  vibrato
        +  harmonic
        x  Mute note
        . - play note like a dot in standard notation
        ^ - ties two notes together
        (.  Pause

  ---------------------------------------------------------------

  THE BEATLES - HAPPINESS IS A WARM GUN (Lennon & McCartney) From
                THE WHITE ALBUM. Released on 22nd November 1968.

  ---------------------------------------------------------------

  Tabbed by:PJVillanueva


  She's not a girl who misses much
  Do do do do do do- oh yea!
  She's well acquainted with the touch of the velvet hand
  Like a lizard on a window pane

  The man in the crowd with the multicoloured mirrors
  On his hobnail boots
  Lying with his eyes while his hands are busy
  Working overtime
  A soap impression of his wife which he ate
  And donated to the National Trust

  I need a fix 'cause I'm going down
  Down to the bits that I left uptown
  I need a fix cause I'm going down
  Mother Superior jump the gun
  Mother Superior jump the gun
  Mother Superior jump the gun
  Mother Superior jump the gun

  Happiness is a warm gun
  Happiness is a warm gun, momma
  When I hold you in my arms
  And I feel my finger on your trigger
  I know nobody can do me no harm
  Because happiness is a warm gun, momma
  Happiness is a warm gun
  Yes it is.
  Happiness is a warm, yes it is...
  Gun!
  Well don't ya know that happiness is a warm gun, momma?


e|------- ------- ------- -------|------- ------- ------- -------|
B|-------------------------------|-------------------------------|
G|-------------------------------|-------------------------------|
D|-------------------------------|-------------------------------|
A|-------------------------------|-------------------------------|
E|-------------------------------|-------------------------------|
                                                          She's

  Am7                             Am6
e|3------ ------- ------- -------|2------ ------- ------- -------|
B|--------------------1----------|--------------------1----------|
G|------------2------------------|------------2------------------|
D|--------2---------------2------|--------2---------------2------|
A|0------------------------------|0------------------------------|
E|----------------0--------------|----------------0--------------|
  not                      a  girl                        who misses


  Emadd9
e|2------ ------- ------- -------|0------ ------- ------- -------|
B|--------------------0----------|--------------------0----------|
G|------------0------------------|------------0------------------|
D|--------2---------------4------|--------4---------------2------|
A|-------------------------------|-------------------------------|
E|0---------------0--------------|0---------------0--------------|
              much


  Am7                             Am6
e|3------ ------- ------- -------|2------ ------- ------- -------|
B|--------------------1----------|--------------------1----------|
G|------------2------------------|------------2------------------|
D|--------2---------------2------|--------2---------------2------|
A|0------------------------------|0------------------------------|
E|----------------0--------------|----------------0--------------|
          Do  do  do  do  do  do


                                  x   x   x   x   x   x   x   x
  Emadd9
e|2------ ------- ------- -------|0------ ------- ------- -------|
B|--------------------0----------|--------------------0----------|
G|------------0------------------|------------0------------------|
D|--------2---------------4------|--------4---------------2------|
A|-------------------------------|-------------------------------|
E|0---------------0--------------|0---------------0--------------|
              Oh,     yeah                                    The

  Dm
e|1------ ------- ----1-- -------|1------ ------- ----1-- -------|
B|------------3------------------|------------3------------------|
G|--------2---------------2------|--------2---------------2------|
D|0------------------------------|0------------------------------|
A|----------------0--------------|----------------0--------------|
E|-------------------------------|-------------------------------|
      She's well acquainted with the touch of the velvet      hand
e|7------ ------- ------- -------|------- ------- ------- -------|
B|6------------------------------|----------------6--------------|
G|7------------------------------|----------------7--------------|
D|7------------------------------|----------------7--------------|
A|-------------------------------|----------------5--------------|
E|-------------------------------|-------------------------------|

                                  Am                      Asus2
e|1------ ------- ----1-- -------|0------ ------- ------- -------|
B|------------3------------------|--------------------1---0------|
G|--------2---------------2------|------------2------------------|
D|0------------------------------|--------2---------------2------|
A|----------------0--------------|0------------------------------|
E|-------------------------------|----------------0--------------|
          Like a  lizard  on  a   window      pane
e|------- ------- 5------ -------|------- ------- 5------ -------|
B|----------------6--------------|----------------5--------------|
G|----------------7--------------|----------------5--------------|
D|----------------7--------------|----------------7--------------|
A|----------------5--------------|----------------7--------------|
E|-------------------------------|----------------6--------------|

  Am
e|0------ ------- ------- -------|
B|--------------------1----------|
G|------------2------------------|
D|--------2---------------2------|
A|0------------------------------|
E|----------------0--------------|
                              The
e|------- ------- 5------ -------|
B|----------------5--------------|
G|----------------5--------------|
D|----------------7--------------|
A|----------------7--------------|
E|----------------5--------------|

  Dm
e|1------ ------- ----1-- -------|1------ ------- ----1-- -------|
B|------------3------------------|------------3------------------|
G|--------2---------------2------|--------2---------------2------|
D|0------------------------------|0------------------------------|
A|----------------0--------------|----------------0--------------|
E|-------------------------------|-------------------------------|
  man     in the crowd   with the multicoloured   mirrors on  his
e|5------ ------- ------- -------|------- ------- 5------ -------|
B|6------------------------------|----------------6--------------|
G|7------------------------------|----------------7--------------|
D|7------------------------------|----------------7--------------|
A|5------------------------------|----------------5--------------|
E|-------------------------------|-------------------------------|

  Am                                                      Asus2
e|o------ ------- ------- -------|0------ ------- ------- -------|
B|--------------------1----------|--------------------1---0------|
G|------------2------------------|------------2------------------|
D|--------2---------------2------|--------2---------------2------|
A|0------------------------------|0------------------------------|
E|----------------0--------------|----------------0--------------|
  hobnail         boots
e|------- ------- 5------ -------|------- ------- 5------ -------|
B|----------------5--------------|----------------5--------------|
G|----------------5--------------|----------------5--------------|
D|----------------7--------------|----------------7--------------|
A|----------------7--------------|----------------7--------------|
E|----------------5--------------|----------------5--------------|

  Dm
e|1------ ------- ----1-- -------|1------ ------- ----1-- -------|
B|------------3------------------|------------3------------------|
G|--------2---------------2------|--------2---------------2------|
D|0------------------------------|0------------------------------|
A|----------------0--------------|----------------0--------------|
E|-------------------------------|-------------------------------|
  Lying   with his eyes  while his hands are  busy        working
e|------- ------- 5------ -------|------- ------- 5------ -------|
B|----------------6--------------|----------------6--------------|
G|----------------7--------------|----------------7--------------|
D|----------------7--------------|----------------7--------------|
A|----------------5--------------|----------------5--------------|
E|-------------------------------|-------------------------------|

  Am
e|o------ ------- ------- -------|0------ ------- ------- -------|
B|--------------------1----------|--------------------1----------|
G|------------2------------------|------------2------------------|
D|--------2---------------2------|--------2---------------2------|
A|0------------------------------|0------------------------------|
E|----------------0--------------|----------------0--------------|
  overtime
e|------- ------- 5------ -------|------- ------- 5------ -------|
B|----------------5--------------|----------------5--------------|
G|----------------5--------------|----------------5--------------|
D|----------------7--------------|----------------7--------------|
A|----------------7--------------|----------------7--------------|
E|----------------5--------------|----------------5--------------|

  Dm
e|1------ ------- ----1-- -------|1------ ------- ----1-- -------|
B|------------3------------------|------------3------------------|
G|--------2---------------2------|--------2---------------2------|
D|0------------------------------|0------------------------------|
A|----------------0--------------|----------------0--------------|
E|-------------------------------|-------------------------------|
      A  soap impression  of his  wife    which he ate    and do..
e|------- ------- 5------ -------|------- ------- 5------ -------|
B|----------------6--------------|----------------6--------------|
G|----------------7--------------|----------------7--------------|
D|----------------7--------------|----------------7--------------|
A|----------------5--------------|----------------5--------------|
E|-------------------------------|-------------------------------|

                  Am                      Asus2
e|1------ -------|0------ ------- ------- -------|
B|------------3--|--------------------1---0------|
G|--------2------|------------2------------------|
D|0--------------|--------2---------------2------|
A|---------------|0------------------------------|
E|---------------|----------------0--------------|
  nated   to the  National    Trust
e|------- -------|------- ------- 5------ -------|
B|---------------|----------------5--------------|
G|---------------|----------------5--------------|
D|---------------|----------------7--------------|
A|---------------|----------------7--------------|
E|---------------|----------------5--------------|

  Am
e|0------ ------- ------- -------|
B|--------------------1----------|
G|------------2------------------|
D|--------2---------------2------|
A|0------------------------------|
E|----------------0--------------|

e|5------ ------- ------- -------|
B|5------------------------------|
G|5------------------------------|
D|7------------------------------|
A|7---------------------------5-/|
E|5------------------------------|


  A7
e|---------- ---------- ----------|---------- ---------- ----------|
B|-----------2----------2---------|-----------2----------2---------|
G|-----------0----------0---------|-----------0----------0---------|
D|-----------2----------2---------|-----------2----------2---------|
A|0-------------------------------|--------------------------------|
E|--------------------------------|0-------------------------------|

e|---------- ---------- ----------|---------- ---------- ----------|
B|--------------------------------|--------------------------------|
G|--------------------------------|--------------------------------|
D|--------------------------------|--------------------------------|
A|7----------7-B-10---------------|3-B-4-----------------3---------|
E|--------------------------------|-----------5--------------------|


e|---------- ---------- ----------|---------- ---------- ----------|
B|-----------2----------2---------|-----------2----------2---------|
G|-----------0----------0---------|-----------0----------0---------|
D|-----------2----------2---------|-----------2----------2---------|
A|0-------------------------------|--------------------------------|
E|--------------------------------|0-------------------------------|

e|---------- ---------- ----------|---------- ---------- ----------|
B|--------------------------------|--------------------------------|
G|--------------------------------|--------------------------------|
D|--------------------------------|--------------------------------|
A|5-B-6-----R5B6R5B6R5P3-------5-/|7----------7-B-10---------------|
E|----------------------5---------|--------------------------------|


e|---------- ---------- ----------|---------- ---------- ----------|
B|-----------2----------2---------|-----------2----------2---------|
G|-----------0----------0---------|-----------0----------0---------|
D|-----------2----------2---------|-----------2----------2---------|
A|0-------------------------------|--------------------------------|
E|--------------------------------|0----------3----------4---------|

e|---------- ---------- ----------|---------- ---------- ----------|
B|--------------------------------|--------------------------------|
G|--------------------------------|--------------------------------|
D|--------------------------------|--------------------------------|
A|3-B-4-----------------3------5-/|7----------7-B-10------------5-/|
E|-----------5---------------------|-------------------------------|

                                   C
e|---------- ---------- ----------|---------- ---------- ----------|
B|-----------2----------2---------|-----------1----------1---------|
G|-----------0----------0---------|-----------0----------0---------|
D|-----------2----------2---------|-----------2----------2---------|
A|0----------1----------2---------|3-------------------------------|
E|--------------------------------|--------------------------------|

e|---------- ---------- ----------|---------- ---------- ----------|
B|--------------------------------|--------------------------------|
G|--------------------------------|--------------------------------|
D|--------------------------------|--------------------------------|
A|7----------7-----------------B--|-----------10-------------------|
E|--------------------------------|--------------------------------|

                                   Am7
e|---------- ---------- ----------|---------- ---------- ----------|
B|-----------1----------1---------|-----------1----------1---------|
G|-----------0----------0---------|-----------0----------0---------|
D|-----------2----------2---------|-----------2----------2---------|
A|--------------------------------|0-------------------------------|
E|3-------------------------------|--------------------------------|

e|---------- ---------- ----------|---------- ---------- ----------|
B|--------------------------------|--------------------------------|
G|--------------------------------|--------------------------------|
D|--------------------------------|--------------------------------|
A|3-B-4-----------------3---------|5-B-6-----R5B6R5B6R5P3----------|
E|-----------5--------------------|----------------------5---------|


e|---------- ---------- ----------|
B|-----------1----------1---------|
G|-----------0----------0---------|
D|-----------2----------2---------|
A|--------------------------------|
E|0-------------------------------|

  A7
e|---------- ---------- ----------|---------- ---------- ----------|
B|-----------2----------2---------|-----------2----------2---------|
G|-----------0----------0---------|-----------0----------0---------|
D|-----------2----------2---------|-----------2----------2---------|
A|0-------------------------------|--------------------------------|
E|--------------------------------|0----------3----------4---------|
  I         need      a         fix        'cause I'm

e|---------- ---------- ----------|---------- ---------- ----------|
B|-----------2----------2---------|-----------2----------2---------|
G|-----------0----------0---------|-----------0----------0---------|
D|-----------2----------2---------|-----------2----------2---------|
A|0-------------------------------|--------------------------------|
E|--------------------------------|0-------------------------------|
  going     down                   Down       to         the

e|---------- ---------- ----------|---------- ---------- ----------|
B|-----------2----------2---------|-----------2----------2---------|
G|-----------0----------0---------|-----------0----------0---------|
D|-----------2----------2---------|-----------2----------2---------|
A|0-------------------------------|--------------------------------|
E|--------------------------------|0----------3----------4---------|
  bits       that  I               left       up...................

                                   C
e|---------- ---------- ----------|---------- ---------- ----------|
B|-----------2----------2---------|-----------1----------1---------|
G|-----------0----------0---------|-----------0----------0---------|
D|-----------2----------2---------|-----------2----------2---------|
A|0----------1----------2---------|3-------------------------------|
E|--------------------------------|--------------------------------|
  town                             I          need       a


                                   A
e|---------- ---------- ----------|---------- ---------- ----------|
B|-----------1----------1---------|2-------------------------------|
G|-----------0----------0---------|2-------------------------------|
D|-----------2----------2---------|2-------------------------------|
A|-----------2----------1---------|0-------------------------------|
E|3-------------------------------|--------------------------------|
  fix        cause I'm             going      down


e|---------- ---------- ----------|
B|--------------------------------|
G|--------------------------------|
D|--------------------------------|
A|--------------------------------|
E|--------------------------------|


  A                                C
e|---------- ---------- ----------|------- ------- ------- -------|
B|2-----2----2-----2--------------|1-------1-------1-------1------|
G|2-----2----2-----2--------------|0-------0-------0-------0------|
D|2-----2----2-----2--------------|2-------2-------2-------2------|
A|0-----0----0-----0--------------|3-------3-------3-------3------|
E|--------------------------------|-------------------------------|
  Mother     Superior              jump    the gun
e|---------- ---------- ----------|------- ------- ------- -------|
B|--------------------------------|-------------------------------|
G|--------------------------------|------------------------7------|
D|--------------------------------|--------7-------10-------------|
A|--------------------------------|8------------------------------|
E|5----5-----5----5---------------|-------------------------------|

e|---------- ----------|
B|1----------1---------|
G|0----------0---------|
D|2----------2---------|
A|3----------3---------|
E|---------------------|

e|---------- ----------|
B|---------------------|
G|---------------------|
D|---------------------|
A|10---------7----\----|
E|---------------------|


  A                                G
e|---------- ---------- ----------|------- ------- ------- -------|
B|2-----2----2-----2--------------|0-------0-------0-------0------|
G|2-----2----2-----2--------------|0-------0-------0-------0------|
D|2-----2----2-----2--------------|0-------0-------0-------0------|
A|0-----0----0-----0--------------|2-------2-------2-------2------|
E|--------------------------------|3-------3-------3-------3------|
  Mother     Superior              jump    the gun
e|---------- ---------- ----------|------- ------- ------- -------|
B|--------------------------------|-------------------------------|
G|--------------------------------|-------------------------------|
D|--------------------------------|------------------------5------|
A|--------------------------------|--------2-------5--------------|
E|5----5-----5----5---------------|3------------------------------|

e|---------- ---------- ----------|
B|0----------0----------0---------|
G|0----------0----------0---------|
D|0----------0----------0---------|
A|2----------2----------2---------|
E|3----------3----------3---------|

e|---------- ---------- ----------|
B|--------------------------------|
G|--------------------------------|
D|3-------------------------------|
A|-----------5--------------------|
E|----------------------3---------|

  A                                C
e|---------- ---------- ----------|------- ------- ------- -------|
B|2-----2----2-----2--------------|1-------1-------1-------1------|
G|2-----2----2-----2--------------|0-------0-------0-------0------|
D|2-----2----2-----2--------------|2-------2-------2-------2------|
A|0-----0----0-----0--------------|3-------3-------3-------3------|
E|--------------------------------|-------------------------------|
  Mother     Superior              jump    the gun
e|---------- ---------- ----------|------- ------- ------- -------|
B|--------------------------------|-------------------------------|
G|--------------------------------|------------------------7------|
D|--------------------------------|--------7-------10-------------|
A|--------------------------------|8------------------------------|
E|5----5-----5----5---------------|-------------------------------|

e|---------- ----------|
B|1----------1---------|
G|0----------0---------|
D|2----------2---------|
A|3----------3---------|
E|---------------------|

e|---------- ----------|
B|---------------------|
G|---------------------|
D|---------------------|
A|10---------7----\----|
E|---------------------|


  A                                G
e|---------- ---------- ----------|------- ------- ------- -------|
B|2-----2----2-----2--------------|0-------0-------0-------0------|
G|2-----2----2-----2--------------|0-------0-------0-------0------|
D|2-----2----2-----2--------------|0-------0-------0-------0------|
A|0-----0----0-----0--------------|2-------2-------2-------2------|
E|--------------------------------|3-------3-------3-------3------|
  Mother     Superior              jump    the gun
e|---------- ---------- ----------|------- ------- ------- -------|
B|--------------------------------|-------------------------------|
G|--------------------------------|-------------------------------|
D|--------------------------------|------------------------5------|
A|--------------------------------|--------2-------5--------------|
E|5----5-----5----5---------------|3------------------------------|

e|---------- ---------- ----------|
B|0----------0----------0---------|
G|0----------0----------0---------|
D|0----------0----------0---------|
A|2----------2----------2---------|
E|3----------3----------3---------|

e|---------- ---------- ----------|
B|--------------------------------|
G|--------------------------------|
D|3-------------------------------|
A|-----------5--------------------|
E|----------------------3---------|

  A                                C
e|---------- ---------- ----------|------- ------- ------- -------|
B|2-----2----2-----2--------------|1-------1-------1-------1------|
G|2-----2----2-----2--------------|0-------0-------0-------0------|
D|2-----2----2-----2--------------|2-------2-------2-------2------|
A|0-----0----0-----0--------------|3-------3-------3-------3------|
E|--------------------------------|-------------------------------|
  Mother     Superior              jump    the gun
e|---------- ---------- ----------|------- ------- ------- -------|
B|--------------------------------|-------------------------------|
G|--------------------------------|------------------------7------|
D|--------------------------------|--------7-------10-------------|
A|--------------------------------|8------------------------------|
E|5----5-----5----5---------------|-------------------------------|

e|---------- ----------|
B|1----------1---------|
G|0----------0---------|
D|2----------2---------|
A|3----------3---------|
E|---------------------|

e|---------- ----------|
B|---------------------|
G|---------------------|
D|---------------------|
A|10---------7----\----|
E|---------------------|


  A                                G
e|---------- ---------- ----------|------- ------- ------- -------|
B|2-----2----2-----2--------------|0-------0-------0-------0------|
G|2-----2----2-----2--------------|0-------0-------0-------0------|
D|2-----2----2-----2--------------|0-------0-------0-------0------|
A|0-----0----0-----0--------------|2-------2-------2-------2------|
E|--------------------------------|3-------3-------3-------3------|
  Mother     Superior              jump    the gun
e|---------- ---------- ----------|------- ------- ------- -------|
B|--------------------------------|-------------------------------|
G|--------------------------------|-------------------------------|
D|--------------------------------|------------------------5------|
A|--------------------------------|--------2-------5--------------|
E|5----5-----5----5---------------|3------------------------------|

e|---------- ---------- ----------|
B|0----------0----------0---------|
G|0----------0----------0---------|
D|0----------0----------0---------|
A|2----------2----------2---------|
E|3----------3----------3---------|

e|---------- ---------- ----------|
B|--------------------------------|
G|--------------------------------|
D|3-------------------------------|
A|-----------5--------------------|
E|----------------------3---------|


  C                               Am
e|------- ------- ------- -------|------- ------- ------- -------|
B|----------------1--------------|----------------1--------------|
G|--------0---------------0------|--------2---------------2------|
D|2------------------------------|2------------------------------|
A|3------------------------------|0------------------------------|
E|-------------------------------|-------------------------------|
                  Happiness                               is  a
                  Happiness

  F                               G
e|------- ------- ------- -------|------- ------- ------- -------|
B|----------------1--------------|----------------3--------------|
G|--------2----------------------|--------4---------------4------|
D|3-----------------------3------|5------------------------------|
A|-------------------------------|-------------------------------|
E|1------------------------------|3------------------------------|
  warm        gun
                  Bang            bang            shoot

  C                               Am
e|------- ------- ------- -------|------- ------- ------- -------|
B|----------------1--------------|----------------1--------------|
G|--------0---------------0------|--------2---------------2------|
D|2------------------------------|2------------------------------|
A|3-----------------------2------|0------------------------------|
E|-------------------------------|------------------------3------|
                  Happiness                               is  a
  shoot           Happiness

  F                               G
e|------- ------- ------- -------|------- ------- ------- -------|
B|----------------1--------------|---------------3---------------|
G|--------2---------------2------|--------4---------------4------|
D|3------------------------------|5------------------------------|
A|-------------------------------|-------------------------------|
E|1------------------------------|3------------------------------|
  warm        gun,        momma
                  bang            bang            shoot


  C                                Am
e|---------- ---------- ----------|---------- ---------- ----------|
B|-----------1----------1---------|-----------1----------1---------|
G|-----------0----------0---------|-----------2----------2---------|
D|-----------2----------2---------|-----------2----------2---------|
A|3-------------------------------|0-------------------------------|
E|--------------------------------|--------------------------------|
                   When I          hold       you
  shoot


  F                                G
e|---------- ---------- ----------|---------- ---------- ----------|
B|-----------1----------1---------|-----------3----------3---------|
G|-----------2----------2---------|-----------4----------4---------|
D|-----------3----------3---------|-----------5----------5---------|
A|--------------------------------|--------------------------------|
E|1-------------------------------|3-------------------------------|
             in         my         arms
                                   Oh,


  C                                Am
e|---------- ---------- ----------|---------- ---------- ----------|
B|-----------1----------1---------|-----------1----------1---------|
G|-----------0----------0---------|-----------2----------2---------|
D|-----------2----------2---------|-----------2----------2---------|
A|3-------------------------------|0-------------------------------|
E|--------------------------------|--------------------------------|
                   and  I          feel              my
  Yeah                             Oooooooooooooooooooooooooooooooo


  F                                G
e|---------- ---------- ----------|---------- ---------- ----------|
B|-----------1----------1---------|-----------3----------3---------|
G|-----------2----------2---------|-----------4----------4---------|
D|-----------3----------3---------|-----------5----------5---------|
A|--------------------------------|--------------------------------|
E|1-------------------------------|3-------------------------------|
  finger            on  your            trigger
  ooooooooooooooooooohhhhhhhhhhhhh  Oh,


  C                                Am
e|---------- ---------- ----------|---------- ---------- ----------|
B|-----------1----------1---------|-----------1----------1---------|
G|-----------0----------0---------|-----------2----------2---------|
D|-----------2----------2---------|-----------2----------2---------|
A|3-------------------------------|0-------------------------------|
E|--------------------------------|--------------------------------|
                        I          know                  no........
  yeah                             Oooooooooooooooooooooooooooooooo


  F                                G
e|---------- ---------- ----------|---------- ---------- ----------|
B|-----------1----------1---------|-----------3----------3---------|
G|-----------2----------2---------|-----------4----------4---------|
D|-----------3----------3---------|-----------5----------5---------|
A|--------------------------------|--------------------------------|
E|1-------------------------------|3-------------------------------|
  body       can        do   me    no         harm
  ooooooooooooooooohhhhhhhhhhhhhhh Oh,


  C                               Am
e|0------ 0------ 0------ 0------|0------ 0------ 0------ 0------|
B|1-------1-------1-------1------|1-------1-------1-------1------|
G|0-------0-------0-------0------|2-------2-------2-------2------|
D|-------------------------------|-------------------------------|
A|3-----------------------2------|0------------------------------|
E|-------------------------------|------------------------3------|
  because                                                 is  a
  yeah            Happiness


  F                               G
e|------- ------- ------- -------|------- ------- ------- -------|
B|1-------1-------1-------1------|3-------3-------3-------3------|
G|2-------2-------2-------2------|4-------4-------4-------4------|
D|3-------3-------3-------3------|5-------5-------5-------5------|
A|-------------------------------|-------------------------------|
E|1-----------------------1---/--|3------------------------------|
  warm        gun,        momma
                  Bang            bang            shoot


  C                               Am
e|0------ 0------ 0------ 0------|0------ 0------ 0------ 0------|
B|1-------1-------1-------1------|1-------1-------1-------1------|
G|0-------0-------0-------0------|2-------2-------2-------2------|
D|-------------------------------|-------------------------------|
A|3-----------------------2------|0------------------------------|
E|-------------------------------|------------------------3------|
                  Happiness                               is  a
  shoot           Happiness


  F                               G
e|------- ------- ------- -------|------- ------- ------- -------|
B|1-------1-------1-------1------|3-------3-------3-------3------|
G|2-------2-------2-------2------|4-------4-------4-------4------|
D|3-------3-------3-------3------|5-------5-------5-------5------|
A|-------------------------------|-------------------------------|
E|1-----------------------1---/--|3------------------------------|
  warm        gun         yes,    it  is
                   Bang            bang            shoot

  (.
  Fm
e|1------ ------- ------- -------|------- ------- ------- -------|
B|1------------------------------|-------------------------------|
G|1------------------------------|-------------------------------|
D|3------------------------------|-------------------------------|
A|3------------------------------|-------------------------------|
E|1------------------------------|-------------------------------|
  Happiness                     is a warm                 yes,
  Shoot


e|------- ------- ------- -------|------- ------- ------- -------|
B|-------------------------------|-------------------------------|
G|-------------------------------|-------------------------------|
D|-------------------------------|-------------------------------|
A|-------------------------------|-------------------------------|
E|-------------------------------|-------------------------------|
  it  is                                                      gun


  C                               Am
e|------- ------- ------- -------|------- ------- ------- -------|
B|----------------1--------------|----------------1--------------|
G|--------0---------------0------|--------2---------------2------|
D|2------------------------------|2------------------------------|
A|3-----------------------2------|0------------------------------|
E|-------------------------------|------------------------3------|

                  Happiness
e|------- ------- ------- -------|------- ------- ------- -------|
B|-------------------------------|-------------------------------|
G|-------------------------------|-------------------------------|
D|-------------------------------|-------------------------------|
A|3---------------2--------------|0------------------------------|
E|-------------------------------|------------------------3------|

  F                               G
e|------- ------- ------- -------|------- ------- ------- -------|
B|----------------1--------------|---------------3---------------|
G|--------2---------------2------|--------4---------------4------|
D|3------------------------------|5------------------------------|
A|-------------------------------|-------------------------------|
E|1------------------------------|3------------------------------|
                                       But don't you know that happiness
                  Bang            bang           shoot
e|------- ------- ------- -------|------- ------- ------- -------|
B|-------------------------------|-------------------------------|
G|-------------------------------|-------------------------------|
D|-------------------------------|-------------------------------|
A|-------------------------------|-------------------------------|
E|1------------------------------|3------------------------------|

  C                               Am
e|------- ------- ------- -------|------- ------- ------- -------|
B|----------------1--------------|----------------1--------------|
G|--------0---------------0------|--------2---------------2------|
D|2------------------------------|2------------------------------|
A|3-----------------------2------|0------------------------------|
E|-------------------------------|------------------------3------|
                                                      is  a   warm
  shoot           Happiness
e|------- ------- ------- -------|------- ------- ------- -------|
B|-------------------------------|-------------------------------|
G|-------------------------------|-------------------------------|
D|-------------------------------|------------------------7------|
A|3-----------------------2------|0------------------------------|
E|-------------------------------|-------------------------------|

  F                               G
e|------- ------- ------- -------|------- ------- ------- -------|
B|----------------1--------------|----------------3--------------|
G|--------2---------------2------|--------4---------------4------|
D|3------------------------------|5------------------------------|
A|-------------------------------|-------------------------------|
E|1------------------------------|3------------------------------|
              gun,        momma
                  is      a       warm            gun
e|------- ------- ------- -------|------- ------- ------- -------|
B|-------------------------------|-------------------------------|
G|5---7-B-8-R-7-5----------------|-------------------------------|
D|----------------7-------6------|5------------------------------|
A|-------------------------------|----------------7---\---5------|
E|-------------------------------|-------------------------------|


 (.
  C
e|0------ ------- ------- -------|------- ------- ------- -------|
B|1------------------------------|-------------------------------|
G|0------------------------------|-------------------------------|
D|2------------------------------|-------------------------------|
A|3------------------------------|-------------------------------|
E|-------------------------------|-------------------------------|

  Yeah
e|------- ------- ------- -------|------- ------- ------- -------|
B|-------------------------------|-------------------------------|
G|-------------------------------|-------------------------------|
D|2------------------------------|-------------------------------|
A|3------------------------------|-------------------------------|
E|-------------------------------|-------------------------------|

        B  Bend
        R  Release
        /  slide up
        \  slide down
        H  hammer-on
        P  pull-off
        ~  vibrato
        +  harmonic
        x  Mute note
        . - play note like a dot in standard notation
        ^ - ties two notes together
        (.  Pause

    ----------------------------------------------------------

    THE BEATLES - MARTHA MY DEAR (Lennon & McCartney) From the
                  WHITE ALBUM. Released on 22nd November 1968.


    ----------------------------------------------------------

    Tabbed by:PJVillanueva


    The lyrics may not be up to it, but this is a very good song
    musically, with different key areas, rythm changes and a good
    melody. John used to be sarcastic with this kind of songs and
    called them Paul's "granny music", but this song, which has a
    certain "charleston" air, is almost as good as HONEY PIE (the
    latter with a better arrangement from George Martin).
    It is easier to play those syncopated notes on a piano than a
    guitar, but with a slow approach and a little practice anyone
    can master it.

    Martha my dear though I spend my days in conversation
    Please, Remember me Martha my love
    Don't forget me Martha my dear

    Hold your head up you silly girl look what you've done
    When you find yourself in the thick of it
    Help yourself to a bit of what is all around you
    Silly Girl.

    Take a good look around you
    Take a good look you're bound to see
    That you and me were meant to be for each other
    Silly girl.

    Hold your hand out you silly girl see what you've done
    When you find yourself in the thick of it
    Help yourself to a bit of what is all around you
    Silly girl.

    Martha my dear you have always been my inspiration
    Please, be good to me Martha my love
    Don't forget me Martha my dear.

    5/4 time

    Eb        Eb6 ....              D
  e|----6-- --8---- ------- 6-8---- --5----|
  B|8---------------8-------------8--------|
  G|----8-------8-------8-------8-------7--|
  D|---------------------------------------|
  A|6-------6-------6-------6-------5------|
  E|---------------------------------------|

    4/4
    Gm              C               F
  e|------- ------- 8------ 6------|------- ------- -----/- -------|
  B|11--11-11--10------------------10------------------1011-10--8--|
  G|-------------------------------|----------------10-------------|
  D|-------------------------------|--------7---10-----------------|
  A|10------8-------7-------5---7--|8---10-------------------------|
  E|--------------------8----------|-------------------------------|

                                              Bb
    Eb              Abmaj7          Bb7     Bb6     abmaj7
  e|------- ------- 3---3-- 3---3--|------- ------- ------- --3----|
  B|6-----6---6-----4---4---4---4--|9---9---8P6-----------4-----4--|
  G|----------------5---5---5---5--|7---7---7-----7---5------------|
  D|----8-------8-------6-------6--|----8-------8-------6-------6--|
  A|-------------------------------|-------------------------------|
  E|6-------6-------4-------4------|6-------6-------4-------4------|


    ....                            Bb                      Bb7
  e|------- ------- ------- --3----|6---6-- 4P3---- ------3H4------|
  B|9---9---8P6-----------4-----4--|3---3-------6---3-6------------|
  G|7---7---7-----7---5------------|3---3--------------------------|
  D|----8-------8-------6-------6--|-------------------------------|
  A|-------------------------------|-------------------------------|
  E|6-------6-------4-------4------|-------------------------------|


    00:19

  e|----6-- --8---- ------- 6-8---- --5----|
  B|8---------------8-------------8--------|
  G|----8-------8-------8-------8-------7--|
  D|---------------------------------------|
  A|6-------6-------6-------6-------5------|
  E|---------------------------------------|
    Martha    my    dear    though    my
                              I   spend

  e|------- ------- 8------ 6------|------- ------- -----/- -------|
  B|11--11-11--10------------------10------------------1011-10--8--|
  G|-------------------------------|----------------10-------------|
  D|-------------------------------|--------7---10-----------------|
  A|10------8-------7-------5---7--|8---10-------------------------|
  E|--------------------8----------|-------------------------------|
    days    conversation            Please              remember
        in

  e|------- ------- 3---3-- 3---3--|------- ------- ------- --3----|
  B|6-----6---6-----4---4---4---4--|9---9---8P6-----------4-----4--|
  G|----------------5---5---5---5--|7---7---7-----7---5------------|
  D|----8-------8-------6-------6--|----8-------8-------6-------6--|
  A|-------------------------------|-------------------------------|
  E|6-------6-------4-------4------|6-------6-------4-------4------|
    me              Martha      love                don't       me
                          my                            forget

  e|------- ------- ------- --3----|6---6-- 4P3---- ------3 4------|
  B|9---9---8P6-----------4-----4--|3---3-------6---3-6----H-------|
  G|7---7---7-----7---5------------|3---3--------------------------|
  D|----8-------8-------6-------6--|-------------------------------|
  A|-------------------------------|-------------------------------|
  E|6-------6-------4-------4------|-------------------------------|
                    Martha      dear
                          my


    00:38
    Dm7                             Gmadd9
  e|5---5-- 5---5-- 5---5-- 5---5--|5---5-- 5---5-- 5---5-- 5---5--|
  B|6---6---6---6---6---6---6---6--|3---3---3---3---3---3---3---3--|
  G|5---5---5---5---5---5---5---5--|3---3---3---3---3---3---3---3--|
  D|-------------------------------|-------------------------------|
  A|5---------------5--------------|--------5---------------5------|
  E|--------5---------------5------|3---------------3--------------|
    Hold    your        up      you silly       girl
                head


    F
  e|5---5-- 5---5-- 5---5-- 5---5--|5---5-- 5---5-- 5---5-- 5---5--|
  B|6---6---6---6---6---6---6---6--|6---6---6---6---6---6---6---6--|
  G|5---5---5---5---5---5---5---5--|5---5---5---5---5---5---5---5--|
  D|3---------------3--------------|3-----------7------------------|
  A|--------3---------------3------|-------------------------------|
  E|-------------------------------|-------------------------------|
    look    you've                              When    you     find
        what    done


    Csus4           C ....
  e|------- ------- ------- -------|------- ------- ------- -------|
  B|6---6---6---6---5---5---5---5--|6---6---6---6---5---5---5---5--|
  G|5---5---5---5---5---5---5---5--|5---5---5---5---5---5---6---6--|
  D|5---5---5---5---5---5---5---5--|5---5---5---5---5---5---7---7--|
  A|3---------------3--------------|3---------------3--------------|
  E|--------3---------------3------|--------3---------------5------|
        yourself  the of            Help        to  bit what    around
                in  thick               yourself  a   of  is
                        it                                  all

                                   (.
    Dm7                             Gmadd9
  e|5---5-- 5---5-- 5---5-- 5---5--|5------ ------- ------- -------|
  B|6---6---6---6---6---6---6---6--|3------------------------------|
  G|5---5---5---5---5---5---5---5--|3------------------------------|
  D|0------------------------------|-------------------------------|
  A|-------------------------------|-------------------------------|
  E|-------------------------------|3------------------------------|

  e|------- ------- ------- -------|------- ------- ------- -------|
  B|-------------------------------|------6-----------6------------|
  G|-------------------------------|----7-----7-----7-----7--------|
  D|-------------------------------|8-----------8-----------5---7--|
  A|-------------------------------|-------------------------------|
  E|-------------------------------|-------------------------------|
        you                 silly                           Take  good
                                  girl                          a


    DOUBLE TIME
    01:00
    Dm7                             G7
  e|5------ 5------ 5------ 5------|3------ 3------ 3------ 3------|
  B|6-------6-------6-------6------|6-------6-------6-------6------|
  G|5-------5-------5-------5------|4-------4-------4-------4------|
  D|7-------7-------7-------7------|5-------5-------5-------5------|
  A|-------------------------------|-------------------------------|
  E|-------------------------------|-------------------------------|

  e|5------ ------- 5------ -------|3------ 3------ 3------ 3------|
  B|6---------------6--------------|3-------3-------3-------3------|
  G|7---------------7--------------|4-------4-------4-------4------|
  D|7---------------7--------------|5-------5-------5-------5------|
  A|5---------------5--------------|5-------5-------5-------5------|
  E|-------------------------------|3-------3-------3-------3------|

  e|5------ ------- ------- -------|5------ ------- ------- -------|
  B|6------------------------------|6------------------------------|
  G|5------------------------------|4------------------------------|
  D|5------------------------------|5------------------------------|
  A|-------------------------------|-------------------------------|
  E|-------------------------------|-------------------------------|
                    look                        you
                        around


  e|3------ 3------ 3------ 3------|
  B|6-------6-------6-------6------|
  G|4-------4-------4-------4------|
  D|5-------5-------5-------5------|
  A|-------------------------------|
  E|-------------------------------|

  e|3------ ------- 3------ -------|
  B|3---------------3--------------|
  G|4---------------4--------------|
  D|5---------------5--------------|
  A|5---------------5--------------|
  E|3---------------3--------------|

  e|------- ------- ------- -------|
  B|-------------------------------|
  G|-------------------------------|
  D|-------------------------------|
  A|-------------------------------|
  E|-------------------------------|
                    Take        good
                        a

    Dm7                             G7
  e|5------ 5------ 5------ 5------|3------ 3------ 3------ 3------|
  B|6-------6-------6-------6------|6-------6-------6-------6------|
  G|5-------5-------5-------5------|4-------4-------4-------4------|
  D|7-------7-------7-------7------|5-------5-------5-------5------|
  A|-------------------------------|-------------------------------|
  E|-------------------------------|-------------------------------|

  e|5------ ------- 5------ -------|3------ 3------ 3------ -------|
  B|6---------------6--------------|3-------3-------3--------------|
  G|7---------------7--------------|4-------4-------4--------------|
  D|7---------------7--------------|5-------5-------5--------------|
  A|5---------------5--------------|5-------5-------5--------------|
  E|-------------------------------|3-------3-------3--------------|

  e|5------ ------- ------- -------|5------ ------- ------- -------|
  B|6------------------------------|6------------------------------|
  G|5------------------------------|4------------------------------|
  D|5------------------------------|5------------------------------|
  A|-------------------------------|-------------------------------|
  E|-------------------------------|-------------------------------|
                    look            bound       to          see
                        you're


  e|3------ 3------ 3------ 3------|
  B|6-------6-------6-------6------|
  G|4-------4-------4-------4------|
  D|5-------5-------5-------5------|
  A|-------------------------------|
  E|-------------------------------|

  e|3------ ------- 3------ -------|
  B|3---------------3--------------|
  G|4---------------4--------------|
  D|5---------------5--------------|
  A|5---------------5--------------|
  E|3---------------3--------------|

  e|5------ ------- ------- -------|
  B|6------------------------------|
  G|4------------------------------|
  D|5------------------------------|
  A|-------------------------------|
  E|-------------------------------|
                            that

    C11
  e|1------ 1------ 1------ 1------|1------ 1------ 1------ 1------|
  B|3-------3-------3-------3------|3-------3-------3-------3------|
  G|3-------3-------3-------3------|3-------3-------3-------3------|
  D|-------------------------------|-------------------------------|
  A|3-------3-------3-------3------|3-------3-------3-------3------|
  E|-------------------------------|-------------------------------|

  e|------- ------- ------- -------|------- ------- ------- -------|
  B|3---------------3--------------|3------------------------------|
  G|3---------------3--------------|3---------------3--------------|
  D|2---------------2--------------|2---------------2--------------|
  A|3---------------3--------------|3---------------3--------------|
  E|-------------------------------|-------------------------------|

  e|5------ ------- ------- -------|------- ------- ------- -------|
  B|6------------------------------|-------------------------------|
  G|7------------------------------|-------------------------------|
  D|8------------------------------|-------------------------------|
  A|-------------------------------|-------------------------------|
  E|-------------------------------|-------------------------------|
    you and         me                                  were

    Bb
  e|1------ 1------ 1------ 1------|1------ 1------ 1------ 1------|
  B|3-------3-------3-------3------|3-------3-------3-------3------|
  G|3-------3-------3-------3------|3-------3-------3-------3------|
  D|-------------------------------|-------------------------------|
  A|1-------1-------1-------1------|1-------1-------1-------1------|
  E|-------------------------------|-------------------------------|

  e|5------ ------5 ------5 5------|------5 ------5 5------ -------|
  B|3-------------3-------3-3------|------3-x-----3-3--------------|
  G|3-------------3-------3-3------|------3-x-----3-3--------------|
  D|3-------------3-------3-3------|------3-x-----3-3--------------|
  A|-------------------------------|-------------------------------|
  E|-------------------------------|-------------------------------|
    meant       to      be                          for each    other

    Dm7
  e|5------ 5------ 5------ 5------|5------ 5------ 5------ 5------|
  B|6-------6-------6-------6------|6-------6-------6-------6------|
  G|5-------5-------5-------5------|5-------5-------5-------5------|
  D|-------------------------------|-------------------------------|
  A|5------------------------------|5------------------------------|
  E|----------------5--------------|----------------5--------------|

  e|5------ ------- 5------ -------|5------ ------- 5------ -------|
  B|6---------------6--------------|6---------------6--------------|
  G|5---------------5--------------|5---------------5--------------|
  D|7---------------7--------------|7---------------7--------------|
  A|5---------------5--------------|5---------------5--------------|
  E|-------------------------------|-------------------------------|
                                                    silly       girl


    BACK TO ORIGINAL TIME
    4/4                             2/4
   (.
    Gm                              Eb
  e|3------ ------- ------- -------|------- -------|
  B|3------------------------------|---------------|
  G|3------------------------------|---------------|
  D|-------------------------------|---------------|
  A|-------------------------------|---------------|
  E|3------------------------------|---------------|

  e|3------ ------- ------- -------|3---3-- 3------|
  B|3------------------------------|4---4---4------|
  G|3------------------------------|3---3---3------|
  D|5------------------------------|5---5---5------|
  A|5------------------------------|6---6---6------|
  E|3------------------------------|---------------|

  e|------- ------- ------- -------|------- -------|
  B|------6-----------6------------|8---8---8------|
  G|----7-----7-----7-----7-----7--|8---8---8------|
  D|8-----------8-----------8------|8---8---8------|
  A|-------------------------------|---------------|
  E|-------------------------------|---------------|


    01:20   x               x

  e|----6-- --8---- ------- 6-8---- --5----|
  B|8---------------8-------------8--------|
  G|----8-------8-------8-------8-------7--|
  D|---------------------------------------|
  A|6-------6-------6-------6-------5------|
  E|---------------------------------------|

  e|------- 6------ ------- 6------ 5------|
  B|--------8---------------8-------7------|
  G|--------8---------------8-------7------|
  D|--------8---------------8-------7------|
  A|--------6---------------6-------5------|
  E|---------------------------------------|

    x               x               x               x

  e|------- ------- 8------ 6------|------- ------- -----/- -------|
  B|11--11-11--10------------------10------------------1011-10--8--|
  G|-------------------------------|----------------10-------------|
  D|-------------------------------|--------7---10-----------------|
  A|10------8-------7-------5---7--|8---10-------------------------|
  E|--------------------8----------|-------------------------------|

  e|3------ 3------ 3------ 3-\----|1------ ------- ------- -------|
  B|3-------3-------5-------5-\----|1------------------------------|
  G|3-------3-------5-------5-\----|2------------------------------|
  D|5-------3-------5-------5-\----|3------------------------------|
  A|5-------5-------3-------3-\----|3------------------------------|
  E|3-------3----------------------|1------------------------------|

            x               x               x               x

  e|------- ------- 3---3-- 3---3--|------- ------- ------- --3----|
  B|6-----6---6-----4---4---4---4--|9---9---8P6-----------4-----4--|
  G|----------------5---5---5---5--|7---7---7-----7---5------------|
  D|----8-------8-------6-------6--|----8-------8-------6-------6--|
  A|-------------------------------|-------------------------------|
  E|6-------6-------4-------4------|6-------6-------4-------4------|

  e|6------ 6------ 3-----3 3-3-3--|6---6-- 6------ 3---3-3 3-3-3--|
  B|6-------6-------4-----4-4-4-4--|6---6---6-------4---4-4-4-4-4--|
  G|7-------7-------5-----5-5-5-5--|7---7---7-------5---5-5-5-5-5--|
  D|8-------8-------6-----6-6-6-6--|8---8---8-------6---6-6-6-6-6--|
  A|8-------8----------------------|8---8---8----------------------|
  E|6-------6-------4-----4-4-4-4--|6---6---6-------4---4-4-4-4-4--|
                    T
  e|------- ------- ------- -------|------- ------- ------- -------|
  B|-------------------------------|-------------------------------|
  G|7---------------5---5---5---5--|7-------------------5----------|
  D|------------8------------------|-------------------------------|
  A|-------------------------------|-------------------------------|
  E|-------------------------------|-------------------------------|

            x               x

  e|------- ------- ------- --3----|6---6-- 4P3---- ------3H4------|
  B|9---9---8P6-----------4-----4--|3---3-------6---3-6------------|
  G|7---7---7-----7---5------------|3---3--------------------------|
  D|----8-------8-------6-------6--|-------------------------------|
  A|-------------------------------|-------------------------------|
  E|6-------6-------4-------4------|-------------------------------|

  e|6------ 6------ 3-----3 3-3-3--|------- ------- ------- -------|
  B|6-------6-------4-----4-4-4-4--|-------------------------------|
  G|7-------7-------5-----5-5-5-5--|-------------------------------|
  D|8-------8-------6-----6-6-6-6--|----8--------------------------|
  A|8-------8----------------------|----8--------------------------|
  E|6-------6-------4-----4-4-4-4--|----6--------------------------|

  e|------- ------- ------- -------|------- ------- ------- -------|
  B|-------------------------------|-------------------------------|
  G|7-------------------5----------|-------------------------------|
  D|-------------------------------|8---8--------------------------|
  A|-------------------------------|-------------------------------|
  E|-------------------------------|6---6--------------------------|

    01:40

  e|5---5-- 5---5-- 5---5-- 5---5--|5---5-- 5---5-- 5---5-- 5---5--|
  B|6---6---6---6---6---6---6---6--|3---3---3---3---3---3---3---3--|
  G|5---5---5---5---5---5---5---5--|3---3---3---3---3---3---3---3--|
  D|-------------------------------|-------------------------------|
  A|5---------------5--------------|--------5---------------5------|
  E|--------5---------------5------|3---------------3--------------|

  e|5------ 5---5-- 5------ 5------|3---3-- 3-----3 ----3-- ----3--|
  B|6-------6---6---6-------6------|6---6---6-----6-----6-------6--|
  G|7-------7---7---7-------7------|3---3---3-----3-----3-------3--|
  D|7-------7---7---7-------7------|5---5---5-----5-----5-------5--|
  A|5-------5---5---5-------5------|5---5---5-----5-----5-------5--|
  E|-------------------------------|3---3---3-----3-----3-------3--|

  e|13----- ------- ------- -------|------- ------- ------- -------|
  B|-------------------------------|----------------------------6--|
  G|-------------------------------|------------------------7------|
  D|-------------------------------|---------------------8---------|
  A|-------------------------------|-------------------------------|
  E|-------------------------------|-------------------------------|
    Hold    your        up      you silly       girl
                head

  e|5---5-- 5---5-- 5---5-- 5---5--|5---5-- 5---5-- 5---5-- 5---5--|
  B|6---6---6---6---6---6---6---6--|6---6---6---6---6---6---6---6--|
  G|5---5---5---5---5---5---5---5--|5---5---5---5---5---5---5---5--|
  D|3---------------3--------------|3-----------7------------------|
  A|--------3---------------3------|-------------------------------|
  E|-------------------------------|-------------------------------|

  e|1------ 1---1-- 1-----1 1---1--|1------ 1------ 1------ 1------|
  B|1-------3---3---3-----3-3---3--|3-------3-------3-------3------|
  G|2-------2---2---2-----2-2---2--|2-------2-------2-------2------|
  D|3------------------------------|-------------------------------|
  A|3-------3---3---3-----3-3---3--|3-------3-------3-------3------|
  E|1-------1---1---1-----1-1---1--|1-------1-------1-------1------|

  e|5------ ------- ------- -------|------- ------- ------- -------|
  B|----------------6--------------|----------------5---6----------|
  G|-------------------------------|--------5---7-----------5------|
  D|-------------------------------|7---8-----------------------7--|
  A|-------------------------------|-------------------------------|
  E|-------------------------------|-------------------------------|
    see     you've                              When    you     find
        what    done

  e|------- ------- ------- -------|------- ------- ------- -------|
  B|6---6---6---6---5---5---5---5--|6---6---6---6---5---5---5---5--|
  G|5---5---5---5---5---5---5---5--|5---5---5---5---5---5---6---6--|
  D|5---5---5---5---5---5---5---5--|5---5---5---5---5---5---7---7--|
  A|3---------------3--------------|3---------------3--------------|
  E|--------3---------------3------|--------3---------------5------|

  e|3------ 3------ 3------ 3------|3------ 3------ 3------ -------|
  B|6-------6-------5-------5------|6-------6-------5--------------|
  G|3-------3-------5-------5------|3-------3-------5--------------|
  D|5-------5-------5-------5------|5-------5-------5--------------|
  A|5-------5-------3-------3------|5-------5-------3--------------|
  E|3-------3----------------------|3-------3---------------5------|

  e|------- ------- ------- -------|------- ------- ------- -------|
  B|-------------------------------|----------------5-------6---5--|
  G|5------------------------------|7------------------------------|
  D|-------------------------------|-------------------------------|
  A|-------------------------------|-------------------------------|
  E|-------------------------------|-------------------------------|
        yourself  the of            Help        to  bit what    around
                in  thick               yourself  a   of  is
                        it                                  all

                                   (.

  e|5---5-- 5---5-- 5---5-- 5---5--|5------ ------- ------- -------|
  B|6---6---6---6---6---6---6---6--|3------------------------------|
  G|5---5---5---5---5---5---5---5--|3------------------------------|
  D|0------------------------------|-------------------------------|
  A|-------------------------------|-------------------------------|
  E|-------------------------------|3------------------------------|

  e|5------ 5------ 5------ 5------|3------ ------- ------- -------|
  B|6-------6-------6-------6------|3------------------------------|
  G|7-------7-------7-------7------|3------------------------------|
  D|7-------7-------7-------7------|5------------------------------|
  A|5-------5-------5-------5------|5------------------------------|
  E|-------------------------------|3------------------------------|

  e|------- ------- ------- -------|------- ------- ------- -------|
  B|6------------------------------|------6-----------6------------|
  G|-------------------------------|----7-----7-----7-----7--------|
  D|-------------------------------|8-----------8-----------5---7--|
  A|-------------------------------|-------------------------------|
  E|-------------------------------|-------------------------------|

        you                 silly
                                  girl

  e|------- -------|
  B|8---9--10------|
  G|8---8---8------|
  D|8---8---8------|
  A|---------------|
  E|---------------|

  e|6---6-- 6------|
  B|8---6---8------|
  G|8---8---8------|
  D|8---8---8------|
  A|6---6---6------|
  E|---------------|

  e|------- -------|
  B|---------------|
  G|---------------|
  D|8---6---5------|
  A18---8---6------|
  E|---------------|


    02:03

  e|----6-- --8---- ------- 6-8---- --5----|
  B|8---------------8-------------8--------|
  G|----8-------8-------8-------8-------7--|
  D|---------------------------------------|
  A|6-------6-------6-------6-------5------|
  E|---------------------------------------|
    Martha      my  dear    you have
                                  always

  e|------- ------- 8------ 6------|------- ------- -----/- -------|
  B|11--11-11--10------------------10------------------1011-10--8--|
  G|-------------------------------|----------------10-------------|
  D|-------------------------------|--------7---10-----------------|
  A|10------8-------7-------5---7--|8---10-------------------------|
  E|--------------------8----------|-------------------------------|
    been    inspiration             Please              be  good
        my                                                      to

  e|------- ------- 3---3-- 3---3--|------- ------- ------- --3----|
  B|6-----6---6-----4---4---4---4--|9---9---8P6-----------4-----4--|
  G|----------------5---5---5---5--|7---7---7-----7---5------------|
  D|----8-------8-------6-------6--|----8-------8-------6-------6--|
  A|-------------------------------|-------------------------------|
  E|6-------6-------4-------4------|6-------6-------4-------4------|
    me              Martha      love                Don't       me
                          my                            forget

  e|------- ------- ------- --3----|6---6-- 4P3---- ------3H4---4--|
  B|9---9---8P6-----------4-----4--|3---3-------6---3-6---------3--|
  G|7---7---7-----7---5------------|3---3-----------------------3--|
  D|----8-------8-------6-------6--|-------------------------------|
  A|-------------------------------|-------------------------------|
  E|6-------6-------4-------4------|-------------------------------|
                    Martha      dear
                          my

   (.

  e|3------ ------- ------- -------|------- ------- ------- -------|
  B|4------------------------------|-------------------------------|
  G|3------------------------------|-------------------------------|
  D|5------------------------------|-------------------------------|
  A|-------------------------------|-------------------------------|
  E|-------------------------------|-------------------------------|

        T  Thumb
        B  Bend
        R  Release
        /  Slide up
        \  Slide down
        H  Hammer-on
        P  Pull-off
        ~  Vibrato
        +  Harmonic
        x  Mute note
        .  Play note like a dot in standard notation
        ^  Ties two notes together
        (. Pause

  --------------------------------------------------------------

  THE BEATLES - I'M SO TIRED (Lennon & McCartney) From the WHITE
                ALBUM. Released on November 22nd 1968.

  --------------------------------------------------------------

  Tabbed by:PJVillanueva


  I'm so tired, I haven't slept a wink
  I'm so tired, my mind is on the blink
  I wonder should I get up and fix myself a drink
  No,no,no.

  I'm so tired I don't know what to do
  I'm so tired my mind is set on you
  I wonder should I call you but I know what you'd do

  You'd say I'm putting you on
  But it's no joke, it's doing me harm
  You know I can't sleep, I can't stop my brain
  You know it's three weeks, I'm going insane
  You know I'd give you everything I've got
  for a little peace of mind

  I'm so tired, I'm feeling so upset
  Although I'm so tired I'll have another cigarette
  And curse Sir Walter Raleigh
  He was such a stupid get.

  You'd say I'm putting you on
  But it's no joke, it's doing me harm
  You know I can't sleep, I can't stop my brain
  You know it's three weeks, I'm going insane
  You know I'd give you everything I've got
  for a little peace of mind
  I'd got for a little peace of mind
  I'd got for a little peace of mind


e|------- ------- ------- -------|------- ------- ------- -------|
B|-------------------------------|-------------------------------|
G|-------------------------------|-------------------------------|
D|-------------------------------|-------------------------------|
A|-------------------------------|-------------------------------|
E|-------------------------------|--------------------0---2---4--|
                                                              I'm


  A               G#              D               E7
e|5---5-5 5-5-5-- 4---4-- 4---4--|2---2-- 2---2-- 0---0-- 0---0--|
B|5---5-5-5-5-5---4---4---4---4--|3---3---3---3---3---3---3---3--|
G|6---6-6-6-6-6---5---5---5---5--|2---2---2---2---1---1---1---1--|
D|7---7-7-7-7-7---6---6---6---6--|0---0---0---0---2---2---2---2--|
A|7---7-7-7-7-7---6---6---6---6--|----------------2---2---2---2--|
E|5---5-5-5-5-5---4---4---4---4--|----------------0---0---0---0--|
  so              tired,      I   haven't slept a wink        I'm

  A               F#m             D               E
e|5---5-- 5---5-- 2---2-2 2---2--|2---2-2 2---2-- 0---0-- 0---0--|
B|5---5---5---5---2---2-2-2---2--|3---3-3-3---3---3---3---3---3--|
G|6---6---6---6---2---2-2-2---2--|2---2-2-2---2---1---1---1---1--|
D|7---7---7---7---4---4-4-4---4--|0---0-0-0---0---2---2---2---2--|
A|7---7---7---7---4---4-4-4---4--|----------------2---2---2---2--|
E|5---5---5---5---2---2-2-2---2--|----------------0---0---0---0--|
  so                  tired,   my mind is  on the blink       I

  A               Eaug5           F#m             Dm
e|5---5-- 5---5-- ------- -------|2---2-- 2---2-- 5---5-- 5---5--|
B|5---5---5---5---5---5---5---5--|2---2---2---2---6---6---6---6--|
G|6---6---6---6---5---5---5---5--|2---2---2---2---7---7---7---7--|
D|7---7---7---7---6---6---6---6--|4---4---4---4---7---7---7---7--|
A|7---7---7---7---7---7---7---7--|4---4---4---4---5---5---5---5--|
E|5---5---5---5------------------|2---2---2---2------------------|
  wonder should I get up      and fix myself  a drink     No no no
e|------- 5------ ------- 4------|------- 2------ 5---5-- 5---5--|
B|--------5---------------5------|--------2-------6---6---6---6--|
G|--------6---------------5------|--------2-------7---7---7---7--|
D|--------7---------------6------|--------4----------------------|
A|--------7----------------------|--------4----------------------|
E|--------5----------------------|--------2----------------------|


e|5---5-- 5---5--|
B|6---6---6---6--|
G|7---7---7---7--|
D|7---7---7---7--|
A|5---5---5---5--|
E|---------------|
              I'm
e|5---5-- 5---5--|
B|6---6---6---6--|
G|7---7---7---7--|
D|---------------|
A|---------------|
E|---------------|


  A               G#              D               E
e|5---5-- 5---5-- 4---4-- 4-4-4--|2---2-- 2---2-- 0---0-- 0---0--|
B|5---5---5---5---4---4---4-4-4--|3---3---3---3---3---3---3---3--|
G|6---6---6---6---5---5---5-5-5--|2---2---2---2---1---1---1---1--|
D|7---7---7---7---6---6---6-6-6--|0---0---0---0---2---2---2---2--|
A|7---7---7---7---6---6---6-6-6--|----------------2---2---2---2--|
E|5---5---5---5---4---4---4-4-4--|----------------0---0---0---0--|
  so              tired       I   don't know what to do       I'm

  A               F#m             D               E
e|5---5-- 5---5-- 2---2-2 2---2--|2---2-- 2---2-- 0-----0 0-0-0--|
B|5---5---5---5---2---2-2-2---2--|3---3---3---3---3-----3-3-3-3--|
G|6---6---6---6---2---2-2-2---2--|2---2---2---2---1-----1-1-1-1--|
D|7---7---7---7---4---4-4-4---4--|0---0---0---0---2-----2-2-2-2--|
A|7---7---7---7---4---4-4-4---4--|----------------2-----2-2-2-2--|
E|5---5---5---5---2---2-2-2---2--|----------------0-----0-0-0-0--|
  so               tired      my  mind is set on you

  A               Eaug5           F#m             Dm
e|5---5-- 5---5-- ------- -------|2---2-- 2---2-- 5---5-- 5---5--|
B|5---5---5---5---5---5---5---5--|2---2---2---2---6---6---6---6--|
G|6---6---6---6---5---5---5---5--|2---2---2---2---7---7---7---7--|
D|7---7---7---7---6---6---6---6--|4---4---4---4---7---7---7---7--|
A|7---7---7---7---7---7---7---7--|4---4---4---4---5---5---5---5--|
E|5---5---5---5------------------|2---2---2---2------------------|
  wonder should I call  you but I know what you'd do
e|------- 5------ ------- 2------|------- 2------ 5---5-- 5------|
B|--------5---------------5------|--------2-------6---6---6------|
G|--------6---------------5------|--------2-------7---7---7---7--|
D|--------7---------------6------|--------4----------------------|
A|--------7----------------------|--------4----------------------|
E|--------5----------------------|--------2----------------------|

e|------- ------- ------- ----4--|5------ ----7-- 8------ -------|
B|5---------------5-------7------|7---------------6--------------|
G|6---------------5--------------|6---------------7--------------|
D|7---------------6--------------|-------------------------------|
A|-------------------------------|-------------------------------|
E|-------------------------------|-------------------------------|


e|5---5-- 5---5--|
B|6---6---6---6--|
G|7---7---7---7--|
D|7---7---7---7--|
A|5---5---5---5--|
E|---------------|

e|7------ 5------|
B|6-------6------|
G|7-------7------|
D|---------------|
A|---------------|
E|---------------|


e|0---0-- 2---2-- ------- -------|0---0-- 2---2-- ------- -------|
B|2---2---2---2---------------5--|2---2---2---2---------------5--|
G|2---2---2---2---------4/6------|2---2---2---2---------4/6------|
D|2---2---2---2------------------|2---2---2---2------------------|
A|0---0---0---0------------------|0---0---0---0------------------|
E|-------------------------------|-------------------------------|
  You'd say I'm putting you on...................................
e|------- ------- ------- -------|------- ------- ------- -------|
B|-------------------------------|-------------------------------|
G|-------------------------------|-------------------------------|
D|7-------7-------7--------------|7---7---7-------7--------------|
A|7-------7-------7--------------|7---7---7-------7--------------|
E|5-------5-------5--------------|5---5---5-------5--------------|

e|------- ------- ------- -------|------- ------- ------- -------|
B|5------------------------------|-------------------------------|
G|6------------------------------|-------------------------------|
D|7------------------------------|-------------------------------|
A|-------------------------------|-------------------------------|
E|-------------------------------|-------------------------------|


e|0---0-- 0---0-- ------- -------|0---0-- 0---0-- ------- -------|
B|0---0---2---2---------------5--|0---0---2---2---------------5--|
G|1---1---1---1---------4/6------|1---1---1---1---------4/6------|
D|2---2---2---2------------------|2---2---2---2------------------|
A|2---2---2---2------------------|2---2---2---2------------------|
E|-------------------------------|-------------------------------|
  can't sleep I can't stop my brain..............................
e|------- ------- ------- -------|------- ------- ------- -------|
B|-------------------------------|-------------------------------|
G|-------------------------------|-------------------------------|
D|2---2---2-------2--------------|2---2---2-------2--------------|
A|2---2---2-------2--------------|2---2---2-------2--------------|
E|0---0---0-------0--------------|0---0---0-------0--------------|

e|------- ------- ------- -------|------- ------- ------- -------|
B|-------------------------------|-------------------------------|
G|4------------------------------|-------------------------------|
D|6------------------------------|-------------------------------|
A|7------------------------------|-------------------------------|
E|-------------------------------|-------------------------------|


e|------- ------- ------- -------|------- ------- ------- -------|
B|-------------------------------|5------------------------------|
G|7---7---7---7---7---7-------5--|6------------------------------|
D|7---7---9---7---7---7-7/9------|7------------------------------|
A|5---5---5---5---5---5----------|7------------------------------|
E|-------------------------------|5-------------------0---2---4--|
  give you ............peace of mind                          I'm
e|------- ------- ------- -------|------- ------- ------- -------|
B|-------------------------------|-------------------------------|
G|2------------------------------|-------------------------------|
D|4------------------------------|-------------------------------|
A|5------------------------------|-------------------------------|
E|-------------------------------|-------------------------------|

  A               G#              D               E
e|5---5-5 5-5-5-5 4---4-4 4-----2|2-----2 2------ 0---0-- 0-0-0--|
B|5---5-5-5-5-5-5-4---4-4-4-----3|3-----3-3-------3---3---3-3-3--|
G|6---6-6-6-6-6-6-5---5-5-5-----2|2-----2-2-------1---1---1-1-1--|
D|7---7-7-7-7-7-7-6---6-6-6-----0|0-----0-0-------2---2---2-2-2--|
A|7---7-7-7-7-7-7-6---6-6-6------|----------------2---2---2-2-2--|
E|5---5-5-5-5-5-5-4---4-4-4------|----------------0---0---0-0-0--|
  so              tired       I'm feeling so upset           Although


  A               F#m             D               E
e|5---5-5 5-5-5-- 2---2-2 2---2--|2---2-2 2---2-- 0---0-0 0-0-0--|
B|5---5-5-5-5-5---2---2-2-2---2--|3---3-3-3---3---3---3-3-3-3-3--|
G|6---6-6-6-6-6---2---2-2-2---2--|2---2-2-2---2---1---1-1-1-1-1--|
D|7---7-7-7-7-7---4---4-4-4---4--|0---0-0-0---0---2---2-2-2-2-2--|
A|7---7-7-7-7-7---4---4-4-4---4--|----------------2---2-2-2-2-2--|
E|5---5-5-5-5-5---2---2-2-2---2--|----------------0---0-0-0-0-0--|
                    I'm so tired  I'll have another cigarette and


  A               Eaug5           F#m             Dm
e|5---5-- 5---5-- ------- -------|2---2-- 2---2-- 5-5---5 5---5--|
B|5---5---5---5---5---5---5---5--|2---2---2---2---6-6---6-6---6--|
G|6---6---6---6---5---5---5---5--|2---2---2---2---7-7---7-7---7--|
D|7---7---7---7---6---6---6---6--|4---4---4---4---7-7---7-7---7--|
A|7---7---7---7---7---7---7---7--|4---4---4---4---5-5---5-5---5--|
E|5---5---5---5------------------|2---2---2---2------------------|
  curse Sir Walter Raleigh he was such a stupid get
e|------- 5------ ------- 4------|------- 2------ ------- -------|
B|--------5---------------5------|--------2----------------------|
G|--------6---------------5------|--------2----------------------|
D|--------7---------------6------|--------4----------------------|
A|--------7----------------------|--------4----------------------|
E|--------5----------------------|--------2----------------------|

e|------- ------- ------- -------|5------ ----7-- 8------ 7------|
B|5---------------5---7---9-7-5--|7---------------6--------------|
G|6---------------5--------------|6---------------7--------------|
D|7---------------6--------------|-------------------------------|
A|-------------------------------|-------------------------------|
E|-------------------------------|-------------------------------|

e|5---5-5 5-5-5--|
B|6---6-6-6-6-6--|
G|7---7-7-7-7-7--|
D|7---7-7-7-7-7--|
A|5---5-5-5-5-5--|
E|---------------|

e|------- 1------|
B|8P7P6---1H2H3--|
G|5-------2------|
D|7-------0------|
A|5--------------|
E|---------------|

e|5------ -------|
B|6-------6------|
G|7--------------|
D|---------------|
A|---------------|
E|---------------|


e|0---0-- 2---2-- ------- -------|0---0-- 2---2-- ------- -------|
B|2---2---2---2---------------5--|2---2---2---2---------------5--|
G|2---2---2---2---------4/6------|2---2---2---2---------4/6------|
D|2---2---2---2------------------|2---2---2---2------------------|
A|0---0---0---0------------------|0---0---0---0------------------|
E|-------------------------------|-------------------------------|
  You'd say I'm putting you on...................................
e|------- ------- ------- -------|------- ------- ------- -------|
B|-------------------------------|-------------------------------|
G|-------------------------------|-------------------------------|
D|7-------7-------7--------------|7---7---7-------7--------------|
A|7-------7-------7--------------|7---7---7-------7--------------|
E|5-------5-------5--------------|5---5---5-------5--------------|

e|------- ------- ------- -------|------- ------- ------- -------|
B|5------------------------------|-------------------------------|
G|6------------------------------|-------------------------------|
D|7------------------------------|-------------------------------|
A|-------------------------------|-------------------------------|
E|-------------------------------|-------------------------------|


e|0---0-- 0---0-- ------- -------|0---0-- 0---0-- ------- -------|
B|0---0---2---2---------------5--|0---0---2---2---------------5--|
G|1---1---1---1---------4/6------|1---1---1---1---------4/6------|
D|2---2---2---2------------------|2---2---2---2------------------|
A|2---2---2---2------------------|2---2---2---2------------------|
E|-------------------------------|-------------------------------|
  can't sleep can't stop my brain................................
e|------- ------- ------- -------|------- ------- ------- -------|
B|-------------------------------|-------------------------------|
G|-------------------------------|-------------------------------|
D|2---2---2-------2--------------|2---2---2-------2--------------|
A|2---2---2-------2--------------|2---2---2-------2--------------|
E|0---0---0-------0--------------|0---0---0-------0--------------|

e|------- ------- ------- -------|------- ------- ------- -------|
B|-------------------------------|-------------------------------|
G|4------------------------------|-------------------------------|
D|6------------------------------|-------------------------------|
A|7------------------------------|-------------------------------|
E|-------------------------------|-------------------------------|


e|------- ------- ------- -------|------- ------- ------- -------|
B|-------------------------------|-------------------------------|
G|7---7---7---7---7---7-------5--|6------------------------------|
D|7---7---9---7---7---7-7/9------|7------------------------------|
A|5---5---5---5---5---5----------|7------------------------------|
E|-------------------------------|5------------------------------|
  give you...............peace of mind
e|------- ------- ------- -------|------- ------- ------- -------|
B|-------------------------------|-------------------------------|
G|2------------------------------|-------------------------------|
D|4------------------------------|-------------------------------|
A|5------------------------------|-------------------------------|
E|-------------------------------|-------------------------------|


e|------- ------- ------- -------|------- ------- ------- -------|
B|-------------------------------|-------------------------------|
G|7---7---7---7---7---7---7---5--|6------------------------------|
D|7---7---9---7---7---7---9---7--|7-------------------7---7\--x-7|
A|5---5---5---5---5---5---5---5--|7-------------------7---7\--x-7|
E|-------------------------------|5-------------------5---5\--x-5|
  give you...............peace of mind

e|------- ------- ------- -------|------- ------- ------- -------|
B|-------------------------------|-------------------------------|
G|7---7---7---7---7---7----------|-------------------------------|
D|7---7---9---7---7---7-7/9------|7------------------------------|
A|5---5---5---5---5---5----------|7------------------------------|
E|-------------------------------|5------------------------------|
  give you...............peace of mind

        B  Bend
        R  Release
        /  slide up
        \  slide down
        H  hammer-on
        P  pull-off
        ~  vibrato
        +  harmonic
        x  Mute note
        . - play note like a dot in standard notation
        ^ - ties two notes together
        (. Pause

  ------------------------------------------------------------------

  THE BEATLES - BLACKBIRD (Lennon & McCartney) From THE WHITE ALBUM.
                Released on 22nd November 1968.

  ------------------------------------------------------------------

  Tabbed by:PJVillanueva


  While in Rishikesh, India, in the spring of 1968, The Beatles
  could only use their Martin D-28 guitars. Being Donovan there
  too with his Gibson J-45 he gave John some fingerpicking clues.
  But we shouldn't forget that in the UK there has always been a
  strong liking for folk music and lots of great guitar players
  working the folk-club circuit. Bert Jansch, John Renbourn and
  Davey Graham to mention a few. John and Paul (oddly enough, not
  so much George, who more easily might have got in touch with the
  "Travis picking" techniques through his great rockabilly passion
  and proficiency) both learned to pick, not only "Travis picking"
  style, but also other interesting picking patterns which they'd
  often use. John's DEAR PRUDENCE, JULIA, HAPPINESS IS A WARM GUN,
  SUN KING, and later WORKING CLASS HERO, LOOK AT ME (composed in
  Rishikesh) and Paul's YESTERDAY, MOTHER NATURE'S SON, HER MAJESTY
  and later CALICO SKIES and JENNY WREN among many others.
  JULIA was written by Paul in Scotland and is based on an open G
  pedal point, with two note chords in tenths and it's one of his
  best songs ever. Some people say that he used D tuning on sixth
  string, but I can't see why should he. I think there is not any
  advantage doing it so.


  Blackbird singing in the dead of night
  Take these broken wings and learn to fly
  All your life
  You were only waiting for this moment to arise.

  Blackbird singing in the dead of night
  Take these sunken eyes and learn to see
  All your life
  You were only waiting for this moment to be free.

  Blackbird fly Blackbird fly
  Into the light of the dark black night.

  Blackbird fly Blackbird fly
  Into the light of the dark black night.

  Blackbird singing in the dead of night
  Take these broken wings and learn to fly
  All your life
  You were only waiting for this moment to arise
  You were only waiting for this moment to arise
  You were only waiting for this moment to arise.


    G               Am              G
  e|------- ------- ------- -------|------- -------|
  B|0---------------1--------------|3-------/------|
  G|--------0---------------0------|---------------|
  D|-------------------------------|---------------|
  A|----------------0--------------|2-------/------|
  E|3------------------------------|---------------|

  e|------- ------- ------- -------|------- ------- ------- -------|
  B|12----------------------12-----|12---------12------------------|
  G|--------0---0-------0----0-----|--------0---0-------0---0------|
  D|-------------------------------|-------------------------------|
  A|10--------------10-------------|10--------------10-------------|
  E|-------------------------------|-------------------------------|


    00:04
                    Am              G
  e|------- ------- ------- -------|------- -------|
  B|0---------------1--------------|3-------/------|
  G|--------0---------------0------|---------------|
  D|-------------------------------|---------------|
  A|----------------0--------------|2-------/------|
  E|3------------------------------|---------------|
    Blackbird       singing in  the dead
                                        of


  e|------- ------- ------- -------|------- ------- ------- -------|
  B|12----------------------12-----|12---------12------------------|
  G|--------0---0-------0----0-----|--------0---0-------0---0------|
  D|-------------------------------|-------------------------------|
  A|10--------------10-------------|10--------------10-------------|
  E|-------------------------------|-------------------------------|
    night


    C               C#dim           Dsus4           Ebdim
  e|------- ------- 3------ -------|------- ------- 5------ -------|
  B|5------------------------------|7------------------------------|
  G|--------0---------------0------|--------0---------------0------|
  D|-------------------------------|-------------------------------|
  A|3---------------4--------------|5---------------6--------------|
  E|-------------------------------|-------------------------------|
    Take    these   broken  wings            and            to  fly
                                                learn

    Em                              Eb
  e|------- ------- ------- -------|------- ------- ------- -------|
  B|8------------------------------|8-------8----------------------|
  G|--------0---0-------0---0------|--------0---0-------0---0------|
  D|-------------------------------|-------------------------------|
  A|7---------------7--------------|6---------------6--------------|
  E|-------------------------------|-------------------------------|

    Dsus4           C#dim           C
  e|------- ------- 3------ -------|------- ------- ------- -------|
  B|7------------------------------|5------------------------------|
  G|--------0---------------0------|--------0---0-------0---0------|
  D|-------------------------------|-------------------------------|
  A|5---------------4--------------|3---------------3--------------|
  E|-------------------------------|-------------------------------|
    All         your        life
                                    00:18

    Cm                              G
  e|------- ------- ------- -------|------- ------- ------- -------|
  B|4------------------------------|3------------------------------|
  G|--------0---0-------0---0------|--------0-----------0---0------|
  D|-------------------------------|-------------------------------|
  A|3---------------3--------------|2---------------2--------------|
  E|-------------------------------|-------------------------------|
                                    you were        only        waiting

    A7                              D7sus2
  e|------- ------- ------- -------|------- ------- ------- -------|
  B|2------------------------------|1------------------------------|
  G|--------0-----------0---0------|--------0-----------0---0------|
  D|-------------------------------|0---------------0--------------|
  A|0---------------0--------------|-------------------------------|
  E|-------------------------------|-------------------------------|
                    for this    moment              to  arise


    G                               C               G
  e|------- ------- ------- -------|------- ------- ------- -------|
  B|0------------------------------|5---------------3--------------|
  G|--------0---0-----------0------|--------0---------------0------|
  D|-------------------------------|-------------------------------|
  A|-------------------------------|3---------------2--------------|
  E|3---------------3--------------|-------------------------------|

    A7                              D7sus2
  e|------- ------- ------- 0------|------- ------- ------- 0------|
  B|2-----------------------2------|1-----------------------1------|
  G|--------0---0-------0---0------|--------0---0-------0---0------|
  D|-------------------------------|0---------------0--------------|
  A|0---------------0--------------|-------------------------------|
  E|-------------------------------|-------------------------------|

    G
  e|------- ------- ------- -------|
  B|0------------------------------|
  G|--------0---0-------0---0------|
  D|-------------------------------|
  A|-------------------------------|
  E|3---------------3--------------|


    00:28
    G               Am              G
  e|------- ------- ------- -------|------- -------|
  B|0---------------1--------------|3-------/------|
  G|--------0---------------0------|---------------|
  D|-------------------------------|---------------|
  A|----------------0--------------|2-------/------|
  E|3------------------------------|---------------|
    Blackbird       singing in  the     of
                                    dead

  e|------- ------- ------- -------|------- ------- ------- -------|
  B|12----------------------12-----|12-----------------------------|
  G|--------0---0-------0----0-----|--------0-----------0---0------|
  D|-------------------------------|-------------------------------|
  A|10--------------10-------------|10-------------10--------------|
  E|-------------------------------|-------------------------------|
    night


    C               C#dim           Dsus4           Ebdim
  e|------- ------- 3------ -------|------- ------- 5------ -------|
  B|5------------------------------|7------------------------------|
  G|--------0---------------0------|--------0---------------0------|
  D|-------------------------------|-------------------------------|
  A|3---------------4--------------|5---------------6--------------|
  E|-------------------------------|-------------------------------|
    Take    these   sunken                  and learn       to  see
                        eyes

    Eb                              Em
  e|------- ------- ------- -------|------- ------- ------- -------|
  B|8-------------------8---8------|8-------8---8-------8---8------|
  G|--------0---0-------0---0------|--------0---0-------0---0------|
  D|-------------------------------|-------------------------------|
  A|7---------------7--------------|6---------------6--------------|
  E|-------------------------------|-------------------------------|

    Dsus4           C#dim           C
  e|------- ------- 3------ -------|------- ------- ------- -------|
  B|7------------------------------|5------------------------------|
  G|--------0---------------0------|--------0---0-----------0------|
  D|-------------------------------|-------------------------------|
  A|5---------------4--------------|3---------------3--------------|
  E|-------------------------------|-------------------------------|
    All         your        life
                                    00:41

    Cm                              G
  e|------- ------- ------- -------|------- ------- ------- -------|
  B|4-----------4-----------4------|3------------------------------|
  G|--------0-----------0----------|--------0---0-------0---0------|
  D|-------------------------------|-------------------------------|
  A|3---------------3--------------|2---------------2--------------|
  E|-------------------------------|-------------------------------|
                                    you were        only        waiting


    A7                              D7sus2
  e|------- ------- ------- -------|------- ------- ------- -------|
  B|2------------------------------|1-----------------------1------|
  G|--------0---0-------0---0------|--------0-----------0---0------|
  D|-------------------------------|0---------------0--------------|
  A|0---------------0--------------|-------------------------------|
  E|-------------------------------|-------------------------------|
                    for this    moment              to  be


    G
  e|------- ------- ------- -------|
  B|0---------------0--------------|
  G|--------0---0---0-------0------|
  D|-------------------------------|
  A|-------------------------------|
  E|3---------------3--------------|
    free

    00:46

    Fadd9           Em              Dm              C
  e|------- ------- ------- -------|------- ------- ------- -------|
  B|10--------------8--------------|6---------------5--------------|
  G|--------0---------------0------|--------0---------------0------|
  D|-------------------------------|-------------------------------|
  A|-8--------------7--------------|5---------------3--------------|
  E|-------------------------------|-------------------------------|
    Blackbird                                               fly


    Bb6                             C
  e|------- ------- ------- -------|------- ------- ------- -------|
  B|3------------------------------|5-------5---5------------------|
  G|--------0-----------0---0------|--------0---0-------0---0------|
  D|-------------------------------|-------------------------------|
  A|1---------------1--------------|3---------------3--------------|
  E|-------------------------------|-------------------------------|

    Fadd9           Em              Dm              C
  e|------- ------- ------- -------|------- ------- ------- -------|
  B|10--------------8--------------|6---------------5--------------|
  G|--------0---------------0------|--------0---------------0------|
  D|-------------------------------|-------------------------------|
  A|-8--------------7--------------|5---------------3--------------|
  E|-------------------------------|-------------------------------|
    Blackbird                                               fly


    Bb6                             A7
  e|------- ------- ------- -------|------- ------- ------- -------|
  B|3------------------------------|2---------------2--------------|
  G|--------0---0-------0---0------|--------0---0-----------0------|
  D|-------------------------------|-------------------------------|
  A|1---------------1--------------|0---------------0--------------|
  E|-------------------------------|-------------------------------|
                                                into        the light


    D7sus4
  e|------- ------- ------- -------|
  B|1------------------------------|
  G|--------0---0-------0---0------|
  D|0---------------0--------------|
  A|-------------------------------|
  E|-------------------------------|
            of  the dark    black

    00:58

    G               Am              G
  e|------- ------- ------- -------|------- -------|
  B|0---------------1--------------|3-------/------|
  G|--------0---------------0------|---------------|
  D|-------------------------------|---------------|
  A|----------------0--------------|2-------/------|
  E|3------------------------------|---------------|
        night


  e|------- ------- ------- -------|------- ------- ------- -------|
  B|12-----------------------------|12-------------12--/-----------|
  G|--------0---0-------0----0-----|--------0---------------0------|
  D|-------------------------------|-------------------------------|
  A|10--------------10-------------|10-------------10--/-----------|
  E|-------------------------------|-------------------------------|


    C               C#dim           Dsus4           D#dim
  e|------- ------- 3------ -------|------- ------- 5------ -------|
  B|5------------------------------|7------------------------------|
  G|--------0---------------0------|--------0---------------0------|
  D|-------------------------------|-------------------------------|
  A|3---------------4--------------|5---------------6--------------|
  E|-------------------------------|-------------------------------|


    Em                              Eb
  e|------- ------- ------- -------|------- ------- ------- -------|
  B|8------------------------------|8------------------------------|
  G|--------0---0-------0---0------|--------0---0-------0---0------|
  D|-------------------------------|-------------------------------|
  A|7---------------7--------------|6---------------6--------------|
  E|-------------------------------|-------------------------------|


    D               C#dim           C
  e|------- ------- 3------ -------|------- ------- ------- -------|
  B|7-----------------------0------|5------------------------------|
  G|--------0---------------0------|--------0---0-------0---0------|
  D|-------------------------------|-------------------------------|
  A|5---------------4--------------|3---------------3--------------|
  E|-------------------------------|-------------------------------|


    Cm                              G
  e|------- ------- ------- -------|------- ------- ------- -------|
  B|4------------------------------|3------------------------------|
  G|--------0---0-------0---0------|--------0---0-------0---0------|
  D|-------------------------------|-------------------------------|
  A|3---------------3--------------|2---------------2--------------|
  E|-------------------------------|-------------------------------|


    A7                              D7sus4
  e|------- 0---0-- ----0-- 0------|------- 3---3-- ----3-- 3------|
  B|2-------2---2-------2---2------|1-------1---1-------1---1------|
  G|--------0---0-------0---0------|--------0---0-------0---0------|
  D|-------------------------------|0---------------0--------------|
  A|0---------------0--------------|-------------------------------|
  E|-------------------------------|-------------------------------|


    G
  e|------- 3---3-- ----3-- 3------|
  B|0-------0---0-------0---0------|
  G|--------0---0-------0---0------|
  D|-------------------------------|
  A|-------------------------------|
  E|3---------------3--------------|


    01:16

    Fadd9           Em              Dm              C
  e|------- ------- ------- -------|------- ------- ------- -------|
  B|10--------------8--------------|6---------------5--------------|
  G|--------0---------------0------|--------0---------------0------|
  D|-------------------------------|-------------------------------|
  A|-8--------------7--------------|5---------------3--------------|
  E|-------------------------------|-------------------------------|
    Blackbird                                               fly


    Bb6                             C
  e|------- ------- ------- -------|------- ------- ------- -------|
  B|3------------------------------|5-------5----------------------|
  G|--------0---0-------0---0------|--------0---0-------0---0------|
  D|-------------------------------|-------------------------------|
  A|1---------------1--------------|3---------------3--------------|
  E|-------------------------------|-------------------------------|

    Fadd9           Em              Dm              C
  e|------- ------- ------- -------|------- ------- ------- -------|
  B|10--------------8--------------|6---------------5--------------|
  G|--------0---------------0------|--------0---------------0------|
  D|-------------------------------|-------------------------------|
  A|-8--------------7--------------|5---------------3--------------|
  E|-------------------------------|-------------------------------|
    Blackbird                                               fly


    Bb6                             A7
  e|------- ------- ------- -------|------- ------- ------- -------|
  B|3------------------------------|2------------------------------|
  G|--------0-----------0---0------|--------0---0-------0---0------|
  D|-------------------------------|-------------------------------|
  A|1---------------1--------------|0---------------0--------------|
  E|-------------------------------|-------------------------------|
                                                into        the light


    D7sus4
  e|------- ------- ------- -------|
  B|1------------------------------|
  G|--------0---0-------0---0------|
  D|0---------------0--------------|
  A|-------------------------------|
  E|-------------------------------|
            of  the dark    black

    01:28

    G               Am              G
  e|------- ------- ------- -------|------- -------|
  B|0---------------1--------------|3-------/------|
  G|--------0---------------0------|---------------|
  D|-------------------------------|---------------|
  A|----------------0--------------|2-------/------|
  E|3------------------------------|---------------|
     night

  e|------- ------- ------- -------|------- ------- ------- -------|
  B|12------12--12------12--12-----|12-------------12---12--12-----|
  G|---------0---0-------0---0-----|--------0-------0----0---0-----|
  D|-------------------------------|-------------------------------|
  A|10--------------10-------------|10-------------10---10--10-----|
  E|-------------------------------|-------------------------------|

  e|------- ------- ------- -------|------- ------- ------- -------|
  B|12------12--12--12--12--12-----|12------12--12--12--12--12-----|
  G|---------0---0---0---0---0-----|---------0---0---0---0---0-----|
  D|-------------------------------|-------------------------------|
  A|10------10--10--10--10--10-----|10------10--10--10--10--10-----|
  E|-------------------------------|-------------------------------|

                                                    (.

  e|------- ------- ------- -------|------- ------- ------- -------|
  B|12------12------12------12-----|12------12------12-------------|
  G|---------0---------------0-----|---------0---------------------|
  D|-------------------------------|-------------------------------|
  A|10--------------10-------------|10--------------10-------------|
  E|-------------------------------|-------------------------------|

  e|------- ------- ------- -------|------- ------- ------- -------|
  B|-------------------------------|------------------------12--\--|
  G|-------------------------------|-------------------------------|
  D|-------------------------------|-------------------------------|
  A|-------------------------------|------------------------10--\--|
  E|-------------------------------|-------------------------------|

    01:41

    G               Am              G               C
  e|------- ------- ------- -------|------- ------- ------- -------|
  B|0---------------1--------------|3---------------5--------------|
  G|--------0---------------0------|--------0---------------0------|
  D|-------------------------------|-------------------------------|
  A|----------------0--------------|2---------------3--------------|
  E|3------------------------------|-------------------------------|


    G               A7              D7sus4
  e|------- ------- ------- -------|------- ------- ------- -------|
  B|3---------------2--------------|1------------------------------|
  G|--------0---------------0------|--------0---0-------0---0------|
  D|-------------------------------|0---------------0--------------|
  A|2---------------0--------------|-------------------------------|
  E|-------------------------------|-------------------------------|

    01:46

    G               Am              G
  e|------- ------- ------- -------|------- -------|
  B|0---------------1--------------|3-------/------|
  G|--------0---------------0------|---------------|
  D|-------------------------------|---------------|
  A|----------------0--------------|2-------/------|
  E|3------------------------------|---------------|
    Blackbird       singing in  the dead
                                        of


  e|------- ------- ------- -------|------- ------- ------- -------|
  B|12------12--12------12--12-----|12------12------12-------------|
  G|---------0---0-------0---0-----|---------0-------0-------------|
  D|-------------------------------|-------------------------------|
  A|10--------------10-------------|10--------------10-------------|
  E|-------------------------------|-------------------------------|
    night


    C               C#dim           D               D#dim
  e|------- ------- 3------ -------|------- ------- 5------ -------|
  B|5------------------------------|7------------------------------|
  G|--------0---------------0------|--------0---------------0------|
  D|-------------------------------|-------------------------------|
  A|3---------------4--------------|5-------/-------6--------------|
  E|-------------------------------|-------------------------------|
    Take    these   broken  wings           and learn       to  fly


    Em                              Eb
  e|------- ------- ------- -------|------- ------- ------- -------|
  B|8-------8---8-------8---8------|8-------8---8-------8---8------|
  G|--------0---0-------0---0------|--------0---0-------0---0------|
  D|-------------------------------|-------------------------------|
  A|7---------------7--------------|6---------------6--------------|
  E|-------------------------------|-------------------------------|

    D               C#dim           C
  e|------- ------- 3------ -------|------- ------- ------- -------|
  B|7------------------------------|5------------------------------|
  G|--------0---------------0------|--------0---0-------0---0------|
  D|-------------------------------|-------------------------------|
  A|5---------------4--------------|3---------------3--------------|
  E|-------------------------------|-------------------------------|
    All       your    life
                                    02:00

    Cm                              G
  e|------- ------- ------- -------|------- ------- ------- -------|
  B|4-------4----------------------|3------------------------------|
  G|--------0---0-------0---0------|--------0---0-------0---0------|
  D|-------------------------------|-------------------------------|
  A|3---------------3--------------|2---------------2--------------|
  E|-------------------------------|-------------------------------|
                                    you were        only        waiting


    A7                              D7sus4
  e|------- ------- ------- -------|------- ------- ------- -------|
  B|2------------------------------|1------------------------------|
  G|--------0---0-------0---0------|--------0-----------0---0------|
  D|-------------------------------|0---------------0--------------|
  A|0---------------0--------------|-------------------------------|
  E|-------------------------------|-------------------------------|
                    for this    moment              to  arise

                                    02:05

    G                               C               G
  e|------- ------- ------- -------|------- ------- ------- -------|
  B|0------------------------------|5---------------3--------------|
  G|--------0---0-------0---0------|--------0---------------0------|
  D|-------------------------------|-------------------------------|
  A|-------------------------------|3---------------2--------------|
  E|3---------------3--------------|-------------------------------|
                                    you were        only        waiting


    A7                              D7sus4
  e|------- ------- ------- -------|------- ------- ------- -------|
  B|2------------------------------|1------------------------------|
  G|--------0---0-------0---0------|--------0---0-------0---0------|
  D|-------------------------------|0---------------0--------------|
  A|0---------------0--------------|-------------------------------|
  E|-------------------------------|-------------------------------|
                    for this    moment              to  arise

                                    02:10

    G                               C               G
  e|------- ------- ------- -------|------- ------- ------- -------|
  B|0------------------------------|5---------------3--------------|
  G|--------0---0-----------0------|--------0---------------0------|
  D|-------------------------------|-------------------------------|
  A|-------------------------------|3---------------2--------------|
  E|3---------------3--------------|-------------------------------|
                                    you were        only        waiting


    A7                              D7sus4
  e|------- ------- ------- -------|------- ------- ------- -------|
  B|2------------------------------|1------------------------------|
  G|--------0---0-----------0------|--------0---------------0------|
  D|-------------------------------|0---------------0--------------|
  A|0---------------0--------------|-------------------------------|
  E|-------------------------------|-------------------------------|
                    for this    moment              to  arise

           (.
    G
  e|------- ------- ------- -------|------- ------- ------- -------|
  B|0-------0----------------------|-------------------------------|
  G|--------0----------------------|-------------------------------|
  D|--------0----------------------|-------------------------------|
  A|-------------------------------|-------------------------------|
  E|3------------------------------|-------------------------------|


        B  Bend
        R  Release
        /  slide up
        \  slide down
        H  hammer-on
        P  pull-off
        ~  vibrato
        +  harmonic
        x  Mute note
        . - play note like a dot in standard notation
        ^ - ties two notes together
        (. Pause

  --------------------------------------------------------------------

  THE BEATLES - PIGGIES (Harrison) From THE WHITE ALBUM. Released 22nd
                November 1968.

  --------------------------------------------------------------------

  Tabbed by:PJVillanueva


  Have you seen the little piggies
  Crawling in the dirt
  And for all the little piggies
  Life is getting worse
  Always having dirt to play around in.

  Have you seen the bigger piggies
  In their starched white shirts
  You will find the bigger piggies
  Stirring up the dirt
  Always have clean shirts to play around in.

  In their styes with all their backing
  They don't care what goes on around
  In their eyes there's something lacking
  What they need's a damn good whacking.

  Everywhere there's lots of piggies
  Living piggy lives
  You can see them out for dinner
  With their piggy wives
  Clutching forks and knives to eat their bacon.

  Use a capo on sixth fret


  D                 A                 D                 A
e|2------- 2---3---|0------- --------|2---3--- 5-3-2---|0------- --------|
B|3---5----3-------|2----------------|3--------3-------|2----------------|
G|2--------2-------|2----------------|2--------2-------|2----------------|
D|0--------0-------|-----------------|0--------0-------|-----------------|
A|-----------------|0--------0-------|-----------------|0--------0-------|
E|-----------------|-----------------|-----------------|-----------------|

e|-------- --------|-------- --------|-------- --------|-------- --------|
B|-----------------|-----------------|-----------------|-----------------|
G|-----------------|-----------------|-----------------|-----------------|
D|-----------------|-----------------|0---2----4-2-0---|-----------------|
A|---------0---2---|4--------0-------|-----------------|0----------------|
E|2---3------------|-----------------|-----------------|-----------------|


  D              A                    D              A
e|2------- 2-----0-|0---0--- 0-----0-|2---2--- 2-----0-|0---0--- 0-----0-|
B|3--------3-----2-|2---2----2-----2-|3---3----3-----2-|2---2----2-----2-|
G|2--------2-----2-|2---2----2-----2-|2---2----2-----2-|2---2----2-----2-|
D|0--------0-----2-|2---2----2-----2-|0---0----0-----2-|2---2----2-----2-|
A|---------------0-|0---0----0-----0-|---------------0-|0---0----0-----0-|
E|-----------------|-----------------|-----------------|-----------------|
  Have you seen the little piggies    Crawling in the dirt

  D                 A                 Bm                E
e|2---2-2- ----2---|0---0--- 0---0---|2----2-- --2-2---|0---0--- 0-0-0---|
B|3---3-3------3---|2---2----2---2---|3----3-----3-3---|0---0----0-0-0---|
G|2---2-2------2---|2---2----2---2---|4----4-----4-4---|1---1----1-1-1---|
D|0---0-0------0---|2---2----2---2---|4----4-----4-4---|2---2----2-2-2---|
A|-----------------|0---0----0---0---|2----2-----2-2---|2---2----2-2-2---|
E|-----------------|-----------------|-----------------|0---0----0-0-0---|
  And for all the   little piggies    life is  getting worse

  Bm                E                 A
e|2-2----- 2---2-0-|0---0--- 0-0-0-0-|0------- --------|-------- --------|
B|3-3------3---3-0-|0---0----0-0-0-0-|2----------------|-----------------|
G|4-4------4---4-1-|1---1----1-1-1-1-|2----------------|-----------------|
D|4-4------4---4-2-|2---2----2-2-2-2-|2----------------|-----------------|
A|2-2------2---2-2-|2---2----2-2-2-2-|0----------------|-----------------|
E|---------------0-|0---0----0-0-0-0-|-----------------|-----------------|
  Always   having   dirt         to   play     a........round    in.
e|-------- --------|-------- --------|0------- 1-------|2------- 3-------|
B|-----------------|-----------------|2--------3-------|4--------5-------|
G|-----------------|-----------------|0--------0-------|0--------0-------|
D|-----------------|-----------------|-----------------|-----------------|
A|-----------------|-----------------|0--------2-------|3--------4-------|
E|-----------------|-----------------|-----------------|-----------------|


  D                 A                 D                 A
e|2------- 2-------|0---0--- 0-0-0---|2------- 2-------|0---0--- 0-0-0---|
B|3--------3-------|2---2----2-2-2---|3--------3-------|2---2----2-2-2---|
G|2--------2-------|2---2----2-2-2---|2--------2-------|2---2----2-2-2---|
D|0--------0-------|2---2----2-2-2---|0--------0-------|2---2----2-2-2---|
A|-----------------|0---0----0-0-0---|-----------------|0---0----0-0-0---|
E|-----------------|-----------------|-----------------|-----------------|

e|2------- 2-------|0------- --------|2---3--- 5-3-2---|0------- --------|
B|3---5----3----3--|2----------------|3--------3-------|2----------------|
G|2--------2-------|2----------------|2--------2-------|2----------------|
D|0--------0-------|-----------------|0--------0-------|-----------------|
A|-----------------|0--------0-------|-----------------|0--------0-------|
E|-----------------|-----------------|-----------------|-----------------|


  D                 A                 D                 A
e|2-----2- 2---2---|0---0--- 0-0-0---|2-----2- 2---2---|0---0--- 0-0-0---|
B|3-----3--3---3---|2---2----2-2-2---|3-----3--3---3---|2---2----2-2-2---|
G|2-----2--2---2---|2---2----2-2-2---|2-----2--2---2---|2---2----2-2-2---|
D|0-----0--0---0---|2---2----2-2-2---|0-----0--0---0---|2---2----2-2-2---|
A|-----------------|0---0----0-0-0---|-----------------|0---0----0-0-0---|
E|-----------------|-----------------|-----------------|-----------------|
  Have you seen the bigger piggies    In their starched white shirts
e|2------- --------|0------- --------|2---0--- --------|0------- --------|
B|3----------------|2----------------|3--------3-------|2----------------|
G|2----------------|2----------------|2--------2-------|2----------------|
D|-----------------|-----------------|-----------------|-----------------|
A|-----------------|-----------------|-----------------|-----------------|
E|-----------------|-----------------|-----------------|-----------------|


  D                 A                 Bm                E
e|2-----2- 2---2---|0------- 0-0-0---|2----2-- 2---2---|0---0--- 0-0-0---|
B|3-----3--3---3---|2--------2-2-2---|3----3---3---3---|0---0----0-0-0---|
G|2-----2--2---2---|2--------2-2-2---|4----4---4---4---|1---1----1-1-1---|
D|0-----0--0---0---|2--------2-2-2---|4----4---4---4---|2---2----2-2-2---|
A|-----------------|0--------0-0-0---|2----2---2---2---|2---2----2-2-2---|
E|-----------------|-----------------|-----------------|0---0----0-0-0---|
  You will find the bigger piggies    Stirring up the dirt
e|2------- --------|0------- --------|-------- --------|-------- --------|
B|3----------------|2----------------|3---2----3-------|0----------------|
G|2----------------|2----------------|4----------------|1----------------|
D|-----------------|-----------------|4----------------|2----------------|
A|-----------------|-----------------|-----------------|-----------------|
E|-----------------|-----------------|-----------------|-----------------|

  Bm                E                 A
e|2------- 2---2---|0---0--- 0-0-0-0-|0------- --------|-------- --------|
B|3--------3---3---|0---0----0-0-0-0-|2----------------|-----------------|
G|4--------4---4---|1---1----1-1-1-1-|2----------------|-----------------|
D|4--------4---4---|2---2----2-2-2-2-|2----------------|-----------------|
A|2--------2---2---|2---2----2-2-2-2-|0----------------|-----------------|
E|-----------------|0---0----0-0-0-0-|-----------------|-----------------|
  Always   have clean shirts     to   play     a........round    in.
e|-------- --------|-------- --------|0------- 1-------|2------- 3-------|
B|3---2----3-------|0----------------|2--------3-------|4--------5-------|
G|4----------------|1----------------|0--------0-------|0--------0-------|
D|4----------------|2----------------|-----------------|-----------------|
A|-----------------|-----------------|0--------2-------|3--------4-------|
E|-----------------|-----------------|-----------------|-----------------|


  D                 A                 D                 F#
e|2------- 2-------|0------- --------|2------- ----4-5-|6------- --------|
B|3---5----3----3--|2----------------|3---5----7/8-----|7----------------|
G|2--------2-------|2----------------|2----------------|6----------------|
D|0--------0-------|-----------------|0----------------|-----------------|
A|-----------------|0--------0-------|-----------------|-----------------|
E|-----------------|-----------------|-----------------|-----------------|

e|-------- --------|-------- --------|-------- --------|-------- --------|
B|-----------------|-----------------|-----------------|-----------------|
G|-----------------|-----------------|-----------------|-----------------|
D|0----------------|-----------------|0----------------|-----------------|
A|-----------------|0----------------|---------------0-|1----------------|
E|----0----2---3---|-----------------|----0----2-3-4---|-----------------|

  Em                F#                G                 D
e|0------- --------|2------- --------|3------- --------|2------- --------|
B|0----------------|2----------------|0----------------|3----------------|
G|0----------------|3----------------|0----------------|2----------------|
D|2----------------|4----------------|0----------------|0----------------|
A|2----------------|4----------------|2----------------|-----------------|
E|0----------------|2----------------|3----------------|-----------------|
 In their styes with all their backing They    don't    care     what
e|-------- --------|-------- --------|-------- --------|-------- --------|
B|-----------------|-----------------|-----------------|-----------------|
G|-----------------|-----------------|-----------------|-----------------|
D|-----------------|-----------------|-----------------|7---7----7---7---|
A|2---2----2---2---|4---4----4---4---|5---5----5---5---|5---5----5---5---|
E|0---0----0---0---|2---2----2---2---|3---3----3---3---|-----------------|


  A
e|5------- --------|-------- --------|-------- --------|--3----- --------|
B|2----------------|-----------------|----2----3---4-5-|------5--3---1---|
G|2----------------|-----------------|2----------------|-----------------|
D|2----------------|-----------------|-----------------|-----------------|
A|0----------------|-----------------|-----------------|-----------------|
E|-----------------|-----------------|-----------------|-----------------|
  goes on      around
e|-------- --------|-------- --------|-------- --------|-------- --------|
B|-----------------|-----------------|-----------------|-----------------|
G|-----------------|-----------------|-----------------|--0--------------|
D|-----------------|-----------------|---------0---1-2-|-----2---0-------|
A|-----------------|-----------------|0---4------------|-------------3---|
E|-----------------|-----------------|-----------------|-----------------|

e|-------- --------|-------- --------|-------- --------|-------- --------|
B|-----------------|-----------------|-----------------|-----------------|
G|-----------------|-----------------|-----------------|-----------------|
D|-----------------|-----------------|-----------------|-----------------|
A|7---7----7---7---|7---7----7---7---|7---7----7---7---|7---7----7---7---|
E|5---5----5---5---|5---5----5---5---|5---5----5---5---|5---5----5---5---|


  Em                F#                G                 A
e|0---0--- 0---0---|2---2--- 2---2---|3---3--- 3---3---|5---5--- 5---5---|
B|0---0----0---0---|2---2----2---2---|0---0----0---0---|2---2----2---2---|
G|0---0----0---0---|3---3----3---3---|0---0----0---0---|2---2----2---2---|
D|2---2----2---2---|4---4----4---4---|0---0----0---0---|2---2----2---2---|
A|2---2----2---2---|4---4----4---4---|2---2----2---2---|0---0----0---0---|
E|0---0----0---0---|2---2----2---2---|3---3----3---3---|-----------------|
In their eyes there's something lacking What they need's a damn good whacking.
e|-------- --------|-------- --------|-------- --------|-------- --------|
B|-----------------|-----------------|-----------------|-----------------|
G|-----------------|-----------------|-----------------|-----------------|
D|-----------------|-----------------|-----------------|2---2----2---2---|
A|2---2----2---2---|4---4----4---4---|5---5----5---5---|0---0----0---0---|
E|0---0----0---0---|2---2----2---2---|3---3----3---3---|-----------------|


                                      D                 A
e|5---5--- 5---5---|5---5--- 5---5---|--5---5- --5---5-|--5---5- --5---5-|
B|2---2----2---2---|2---2----2---2---|-----------------|-----------------|
G|2---2----2---2---|2---2----2---2---|2---0--------2---|0------------0---|
D|2---2----2---2---|2---2----2---2---|---------4-------|----4----2-------|
A|0---0----0---0---|0---0----0---0---|-----------------|-----------------|
E|-----------------|-----------------|-----------------|-----------------|

e|-------- --------|-------- --------|-------- --------|-------- --------|
B|-----------------|-----------------|-----------------|-----------------|
G|-----------------|-----------------|-----------------|-----------------|
D|2---2----2---2---|2---2----2---2---|0----------------|-----------------|
A|0---0----0---0---|0---0----0---0---|-----------------|0------------4---|
E|-------------0---|2---3------------|-------------2---|-----------------|

  D                 A                 D                 A
e|--5---5- --5---5-|--5---5- --------|--5---5- --5---5-|--5---5- --5---5-|
B|-----------------|-----------------|-----------------|-----------------|
G|-----------------|-----------------|-----------------|---------0-------|
D|4---2----0---4---|2---0------------|0---2----4---0---|2---4--------2---|
A|-----------------|---------4---0---|-----------------|-----------------|
E|-----------------|-----------------|-----------------|-----------------|

e|-------- --------|-------- --------|-------- --------|-------- --------|
B|-----------------|-----------------|-----------------|-----------------|
G|-----------------|-----------------|-----------------|-----------------|
D|0---2----4---0---|-----------------|-------------0---|-----------------|
A|-----------------|0---0-2--0-------|-----------------|0------------4---|
E|-----------------|--4--------3-2-0-|2----------------|-----------------|


  Bm                E                 Bm                E
e|-------- --------|-------- --------|-------- --------|-------- --------|
B|-----------------|-----------------|-----------------|-----------------|
G|-----------------|-----------------|-----------------|-----------------|
D|0----------------|-----------------|---------0-------|2----------------|
A|----4----2---0---|-----------------|2---4--------2---|-----------------|
E|-----------------|4---2----0-------|-----------------|-----------------|

e|--7---7- --7---7-|--7---7- --7---7-|7-7---7- --7---7-|--7---7- --7---7-|
B|-----------------|-----------------|-----------------|-----------------|
G|-----------------|-----------------|-----------------|-----------------|
D|4------------4---|----4----6-------|4------------4---|----4----6-------|
A|----7----5-------|7------------7---|----7----5-------|7------------7---|
E|-----------------|-----------------|-----------------|-----------------|

  A7       G7       Cmflat5  Em6
e|0------- 1-------|2------- 3-------|
B|2--------3-------|4--------5-------|
G|0--------0-------|0--------0-------|
D|-----------------|-----------------|
A|0--------2-------|3--------4-------|
E|-----------------|-----------------|

e|--5---5- --3---3-|-------- --------|
B|-----------------|--7---7----5---5-|
G|2---2----0---0---|-----------------|
D|-----------------|4---4----2---2---|
A|-----------------|-----------------|
E|-----------------|-----------------|


  D                 A                 D                 A
e|2---3--- 5----2--|0------- --------|2---3--- 5-3-2---|0------- --------|
B|3--------3-------|2----------------|3--------3-------|2----------------|
G|2--------2-------|2---2----2P1H2---|2--------2-------|2----------------|
D|0--------0-------|-----------------|0--------0-------|-----------------|
A|-----------------|0--------0-------|-----------------|0---0----0---0---|
E|-----------------|-----------------|-----------------|-----------4-----|

e|-------- --------|-------- --------|-------- 2-------|-------- --------|
B|3----------------|-----------------|3----------------|-----------------|
G|-----------------|2----------------|-----------------|-----------------|
D|0----------------|-----------------|0--------4-------|7---7----7\6-7---|
A|-----------------|0----------------|-----------------|-----------------|
E|-----------------|-----------------|-----------------|5---5----5\4-5---|


  D                 A                 D                 A
e|2------- --------|0------- --------|2---3--- 2-------|0------- --------|
B|3----------------|2----------------|3------------3---|2----------------|
G|2----------------|2----------------|2----------------|2----------------|
D|0----------------|2----------------|0----------------|2----------------|
A|-----------------|0----------------|-----------------|0----------------|
E|-----------------|-----------------|-----------------|-----------------|
  Everywhere there's lots of piggies  Living   piggy lives
e|-------- --------|-------- --------|-------- --------|-------- --------|
B|3---3----3-------|-----------------|3----------------|-----------------|
G|-----------------|2----------------|-----------------|2----------------|
D|0---0----0-------|-----------------|0----------------|-----------------|
A|-----------------|0----------------|-----------------|0----------------|
E|-----------------|-----------------|-----------------|-----------------|


  D                 A                 Bm                E
e|2---3--- 5----2--|0------- --------|2------- --------|-------- --------|
B|3--------3-------|2----------------|3-P-2----3-------|0----------------|
G|2--------2-------|2----------------|4----------------|1----------------|
D|0--------0-------|-----------------|4----------------|2----------------|
A|-----------------|0--------0-------|2----------------|2----------------|
E|-----------------|-----------------|-----------------|0----------------|
  You can  see them out for  dinner  With their piggy wives
e|-------- --------|-------- --------|-------- --------|-------- --------|
B|3----------------|-----------------|-----------------|-----------------|
G|-----------------|2----------------|4----------------|-----------------|
D|0----------------|-----------------|-----------------|2----------------|
A|-----------------|0----------------|2----------------|-----------------|
E|-----------------|-----------------|-----------------|0----------------|


  Bm                E                 A7       G7       Cmflat5  Em6
e|2------- --------|-------- --------|0------- 1-------|2------- 3-------|
B|3-P-2----3-------|0---0------------|2--------3-------|4--------5-------|
G|4----------------|1--------2-P-1---|0--------0-------|0--------0-------|
D|4----------------|2--------2-------|-----------------|-----------------|
A|2----------------|2----------------|0--------2-------|3--------4-------|
E|-----------------|0----------------|-----------------|-----------------|
 Clutching forks and knives      to   eat      their    bacon.
e|-------- --------|-------- --------|-------- --------|-------- --------|
B|-----------------|-----------------|-----------------|-----------------|
G|4----------------|-----------------|2--------4-------|5--------6-------|
D|-----------------|2----------------|-----------------|-----------------|
A|2----------------|-----------------|0--------2-------|3--------4-------|
E|-----------------|0----------------|-----------------|-----------------|


  D                 A                 Dm                A
e|2---3--- 5----2--|0------- --------|5------- 5-------|0------- --------|
B|3--------3-------|2----------------|6---8----6-8-6---|2----------------|
G|2--------2-------|2----------------|7--------7-------|2----------------|
D|0--------0-------|-----------------|0----------------|-----------------|
A|-----------------|0--------0-------|-----------------|0----------------|
E|-----------------|-----------------|-----------------|-----------------|

e|-------- --------|-------- --------|-------- --------|-------- --------|
B|3----------------|-----------------|3----------------|-----------------|
G|-----------------|2----------------|-----------------|2----------------|
D|0----------------|-----------------|0----------------|-----------------|
A|-----------------|0----------------|-----------------|0----------------|
E|-----------------|-----------------|-----------------|-----------------|

                                                       (.
  Dm                A                 Bb7               A
e|5------- 5-------|0---1--- 3---0---|-------- 1---4---|5------- --------|
B|6---8----6---6---|2----------------|3---5------------|2----------------|
G|7--------7-------|2----------------|1----------------|2----------------|
D|0----------------|-----------------|3----------------|2----------------|
A|-----------------|0----------------|1----------------|0----------------|
E|-----------------|-----------------|-----------------|-----------------|

e|-------- --------|-------- --------|-------- --------|-------- --------|
B|3----------------|-----------------|-----------------|-----------------|
G|-----------------|2----------------|-----------------|2----------------|
D|0----------------|-----------------|2----------------|-----------------|
A|-----------------|0----------------|-----------------|0----------------|
E|-----------------|-----------------|0----------------|-----------------|


                                      Eb
e|-------- --------|-------- --------|3------- --------|-------- --------|
B|-----------------|-----------------|4----------------|-----------------|
G|-----------------|-----------------|3----------------|-----------------|
D|-----------------|-----------------|1----------------|-----------------|
A|-----------------|-----------------|-----------------|-----------------|
E|-----------------|-----------------|-----------------|-----------------|
                       One more time
e|-------- --------|-------- --------|-------- --------|-------- --------|
B|-----------------|-----------------|-----------------|-----------------|
G|-----------------|-----------------|3----------------|-----------------|
D|-----------------|-----------------|1----------------|-----------------|
A|-----------------|-----------------|1----------------|-----------------|
E|-----------------|-----------------|-----------------|-----------------|


 Ebmaj7 Eb6         Bb
e|3-----3- --------|1------- --------|-------- --------|-------- --------|
B|3-----1----------|3----------------|-----------------|-----------------|
G|3-----3----------|3----------------|-----------------|-----------------|
D|1-----1----------|3----------------|-----------------|-----------------|
A|-----------------|1----------------|-----------------|-----------------|
E|-----------------|-----------------|-----------------|-----------------|

e|-------- --------|-------- --------|-------- --------|-------- --------|
B|-----------------|-----------------|-----------------|-----------------|
G|-----------------|3----------------|-----------------|-----------------|
D|-----------------|3----------------|-----------------|-----------------|
A|-----------------|1----------------|-----------------|-----------------|
E|-----------------|-----------------|-----------------|-----------------|

        B  Bend
        R  Release
        /  slide up
        \  slide down
        H  hammer-on
        P  pull-off
        ~  vibrato
        +  harmonic
        x  Mute note
        . - play note like a dot in standard notation
        ^ - ties two notes together
       (.  Pause

    ---------------------------------------------------------

    THE BEATLES - ROCKY RACCOON (Lennon & McCartney) From the
                  WHITE ALBUM. Released on 22nd November 1968

    ---------------------------------------------------------

    Tabbed by:PJVillanueva


    Paul sang and played acoustic guitar, John played harmonica
    , harmonium and bass and sang backing vocals with George and
    Ringo played drums. The song looks kind of quaint, the lyrics
    seem right (like vignettes of spaguetti western movie), but
    just until the ending line. George Martin's barrelhouse piano
    trills are impossible to play on guitar, but I have included
    all the rest of it hoping that someone will like it.


    Now somewhere in the black mining hills of Dakota
    There lived a young boy named Rocky Raccoon

    And one day his woman ran off with another guy
    Hit young Rocky in the eye Rocky didn't like that
    He said I'm gonna get that boy

    So one day he walked into town
    Booked himself a room in the local saloon.

    Rocky Raccoon checked into his room
    Only to find Gideon's bible

    Rocky had come equipped with a gun
    To shoot off the legs of his rival

    His rival it seems had broken his dreams
    By stealing the girl of his fancy.

    Her name was Magil and she called herself Lil
    But everyone knew her as Nancy.

    Now she and her man who called himself Dan
    Were in the next room at the hoedown

    Rocky burst in and grinning a grin
    He said Danny boy this is a showdown

    But Daniel was hot he drew first and shot
    And Rocky collapsed in the corner.

    Now the doctor came in stinking of gin
    And proceeded to lie on the table

    He said Rocky you met your match
    And Rocky said, Doc it's only a scratch
    And I'll be better I'll be better doc as soon as I am able.

    And now Rocky Raccoon he fell back in his room
    Only to find Gideon's bible

    A Gideon checked out and he left it no doubt
    To help with good Rocky's revival.

    Doo do doo do .... Come on Rocky boy
    Doo do doo do .... Come on Rocky boy
    Doo do doo do .... Sorry Rocky that's your time


    Am7
  e|----3-- 3---3-- ----3-3 3-3-3--|----3-3 3-3-3-- ----3-- 3---3--|
  B|----1---1---1-------1-1-1-1-1--|----1-1-1-1-1-------1---1---1--|
  G|----2---2---2-------2-2-2-2-2--|----2-2-2-2-2-------2---2---2--|
  D|----2---2---2-------2-2-2-2-2--|----2-2-2-2-2-------2---2---2--|
  A|0---------------0--------------|0---------------0--------------|
  E|-------------------------------|-------------------------------|
                                                                  Now


    00:06
                                    D7sus4          D7
  e|----3-- 3---3-- ----3-- 3---3--|----3-3 3---3-- ----2-- 2-2-2--|
  B|----1---1---1-------1---1---1--|----1-1-1---1-------1---1-1-1--|
  G|----2---2---2-------2---2---2--|----2-2-2---2-------2---2-2-2--|
  D|----2---2---2-------2---2---2--|0---------------0--------------|
  A|0---------------0--------------|-------------------------------|
  E|-------------------------------|-------------------------------|
    somewhere  mining of Dakota   young named   Raccoon         uh
       in the     hills   there a     boy   Rocky
            black           lived


    G7                              C               Cmaj7
  e|----1-- 1-1-1-- ----1-1 1-1-1--|----3-- 3-3-3-- ----3-- --3-3--|
  B|----0---0-0-0-------0-0-0-0-0--|----1---1-1-1-------1-----1-1--|
  G|----0---0-0-0-------0-0-0-0-0--|----0---0-0-0-------0-----0-0--|
  D|----0---0-0-0-------0-0-0-0-0--|----2---2-2-2-------2-----2-2--|
  A|----2---2-2-2-------2-2-2-2-2--|3---------------2--------------|
  E|3---------------3--------------|-------------------------------|
          and   day woman off   with    guy         Hit young   in
            one   his   ran       another                   Rocky the


  e|----3-- 3-3-3-- ----3-- 3-3-3--|----3-3 3-3-3-- ----2-2 2---2--|
  B|----1---1-1-1-------1---1-1-1--|----1-1-1-1-1-------1-1-1---1--|
  G|----2---2-2-2-------2---2-2-2--|----2-2-2-2-2-------2-2-2---2--|
  D|----2---2-2-2-------2---2-2-2--|0---------------0--------------|
  A|0---------------0--------------|-------------------------------|
  E|-------------------------------|-------------------------------|
    eye         Rocky   like  He    gonna that                So
                    didn't that said    get    boy              one
                                  I'm

  e|----1-- 1-1-1-- ----1-1 1-1-1--|----3-3 3---3-- ----3-3 3-3-3--|
  B|----0---0-0-0-------0-0-0-0-0--|----1-1-1---1-------1-1-1-1-1--|
  G|----0---0-0-0-------0-0-0-0-0--|----0-0-0---0-------0-0-0-0-0--|
  D|---
comments
print report bad tab
5 comments total. Showing first comments.
+2 reply
jman272 wrote on May 11 2009, 10:57 am

All the tabs are great...
But you have bungalow bill on there 3 times and the its missing the last 3 songs and most of rocky racoon
But by far the best tabs for any white album song

0 reply
revelatory john wrote on May 15 2009, 06:05 pm

Yep, apart from the points made by jman this is a brilliant, painstaking tab. Very helpful.

0 reply
nrrjw wrote on March 30 2010, 06:25 pm

Yeah, you should fix it if you can. 5 stars anyway!

I want to post or [tab]
guest
You may want to rate the tab now too:
select rating
Please do not post tabs as comments. Select "correction" instead!