Oops, an error
Loading. Please wait.

White Album Tab

ver1
ver1

Album

Whole song

More versions @911Tabs.com
168,110 views 262 this week
5 commentsread comments
1 2 3 4 5
excellent!
x 10
add to favorites launch autoscroll
font size
0
reset
Autoscroll
+/-
esc
set tempo
stop
Contributor
WARNING: You are trying to view
                                    content from Ultimate-Guitar.com
                                    in an unauthorized application,
                                    which is prohibited.

                                    Please use an official Ultimate
                                    Guitar Tabs application for iPhone,
                                    iPad or Android to access legitimate
                                    chords, guitar, bass, and drum tabs
                                    from Ultimate-Guitar.com database.

                                    Type "ultimate guitar tabs" in Apple
                                    App Store's or Android Market's
                                    search to find the application.
             THE BEATLES (WHITE ALBUM) 1

          1  BACK IN THE USSR
          2  DEAR PRUDENCE
          3  GLASS ONION
          4  OBLADI OBLADA
          5  WILD HONEY PIE
          6  THE CONTINUING STORY OF BUNGALOW BILL
          7  WHILE MY GUITAR GENTLY WEEPS
          8  HAPPINESS IS A WARM GUN
          9  MARTHA MY DEAR
         10  I'M SO TIRED
         11  BLACKBIRD
         12  PIGGIES
         13  ROCKY RACCOON
         14  DON'T PASS ME BY
         15  WHY DON'T WE DO IT IN THE ROAD
         16  I WILL
         17  JULIA

  ------------------------------------------------------------------

  THE BEATLES - BACK IN THE USSR (Lennon & McCartney) From the WHITE
                ALBUM. Released on November 22nd 1968.

  ------------------------------------------------------------------

  Tabbed by:PJVillanueva


  Flew in from Miami Beach BOAC
  Didn't get to bed last night
  On the way the paper bag was on my knee
  Man I had a dreadful flight
  I'm back in the U.S.S.R.
  You don't know how lucky you are boy
  Back in the U.S.S.R.

  Been away so long I hardly knew the place
  Gee it's good to be back home
  Leave it till tomorrow to unpack my case
  Honey disconnect the phone
  I'm back in the U.S.S.R.
  You don't know how lucky you are boy
  Back in the U.S.S.R.

  Well the Ukraine girls really knock me out
  They leave the West behind
  And Moscow girls make me sing and shout
  That Georgia's always on my mind.

  I'm back in the U.S.S.R.
  You don't know how lucky you are boys
  Back in the U.S.S.R.

  Show me round your snow peaked mountains way down south
  Take me to your daddy's farm
  Let me hear your balalaika's ringing out
  Come and keep your comrade warm.
  I'm back in the U.S.S.R.
  You don't know how lucky you are boys
  Back in the U.S.S.R.

  e|------- ------- ------- -------|------- 8------ ------- -------|
  B|-------------------------------|-------------------------------|
  G|-------------------------------|-------------------------------|
  D|-------------------------------|------------8\5-----B7\-x------|
  A|-------------------------------|-------------------------------|
  E|-------------------------------|-------------------------------|

    00:09
    x   x   x   x   x   x   x   x   x   x   x   x   x   x   x   x
                            E                               E7
  e|------- ------- ------- 0------|------- ------- ------- 0------|
  B|-------------------------------|------------------------3------|
  G|-------------------------------|------------------------1------|
  D|-------------------------------|------------------------0------|
  A|-------------------------------|------------------------2------|
  E|-------------------------------|-------------------------------|

  e|------- ------- ------- -------|------- ------- ------- -------|
  B|3---3---3---3---3---3---3---3--|3---3---3---3---3---3---3---3--|
  G|1---1---1---1---1---1---1---1--|1---1---1---1---1---1---1---1--|
  D|0---0---0---0---0---0---0---0--|0---0---0---0---0---0---0---0--|
  A|2---2---2---2---2---2---2---2--|2---2---2---2---2---2---2---2--|
  E|0---0---0---0---0---0---0---0--|0---0---0---0---0---0---0---0--|


    00:16
    A5                              D5
  e|------- ------- ------- -------|------- ------- ------- -------|
  B|-------------------------------|-------------------------------|
  G|-------------------------------|7---7---7---7---7---7---7---7--|
  D|7---7---7---7---7---7---7---7--|7---7---7---7---7---7---7---7--|
  A|7---7---9---7---7---7---9---7--|5---5---5---5---5---5---5---5--|
  E|5---5---5---5---5---5---5---5--|-------------------------------|
    Flew    from            Beach                               Didn't
        in      Miami           B   O   A       C


    C5                              D5
  e|------- ------- ------- -------|------- ------- ------- -------|
  B|-------------------------------|-------------------------------|
  G|5---5---5---5---5---5---5---5--|7---7---7---7---7---7---7---7--|
  D|5---5---5---5---5---5---5---5--|7---7---7---7---7---7---7---7--|
  A|3---3---3---3---3---3---3---3--|5---5---5---5---5---5---5---5--|
  E|-------------------------------|-------------------------------|
            get to  bed last    night                           On


    A5                              D5
  e|------- ------- ------- -------|------- ------- ------- -------|
  B|-------------------------------|-------------------------------|
  G|-------------------------------|7---7---7---7---7---7---7---7--|
  D|7---7---7---7---7---7---7---7--|7---7---7---7---7---7---7---7--|
  A|7---7---7---7---7---7---7---7--|5---5---5---5---5---5---5---5--|
  E|5---5---5---5---5---5---5---5--|-------------------------------|

  e|------- ------- ------- -------|------- ------- ------- -------|
  B|-------------------------------|-------------------------------|
  G|-------------------------------|-------------------------------|
  D|7-----------7-----------7------|12----------12----------12-----|
  A|7-----------7-----------7------|12----------12----------12-----|
  E|5-----------5-----------5------|10----------10----------10-----|
        the way the paper   bag was on  my      knee            Man

    C5                              D5
  e|------- ------- ------- -------|------- ------- ------- -------|
  B|-------------------------------|-------------------------------|
  G|5---5---5---5---5---5---5---5--|7---7---7---7---7---7---7---7--|
  D|5---5---5---5---5---5---5---5--|7---7---7---7---7---7---7---7--|
  A|3---3---3---3---3---3---3---3--|5---5---5---5---5---5---5---5--|
  E|-------------------------------|-------------------------------|

  e|------- ------- ------- -------|------- ------- ------- -------|
  B|-------------------------------|-------------------------------|
  G|-------------------------------|-------------------------------|
  D|10----------10----------10-----|12----------12----------12-----|
  A|10----------10----------10-----|12----------12----------12-----|
  E|-8-----------8-----------8-----|10----------10----------10-----|
        I   had a   dreadful    flight  I'm back  the
                                                in  U.  S.  S.  R.


    00:29
    A                               C
  e|------- ------- ------- -------|------- ------- ------- -------|
  B|-------------------------------|-------------------------------|
  G|-------------------------------|-------------------------------|
  D|7---7---7---7---7---7---7---7--|10--10--10--10--10--10--10--10-|
  A|7---7---7---7---7---7---7---7--|10--10--10--10--10--10--10--10-|
  E|5---5---5---5---5---5---5---5--|-8---8---8---8---8---8---8---8-|

  e|------- ------- ------- -------|------- ------- ------- -------|
  B|-------------------------------|-------------------------------|
  G|----2-------0------------------|---5--------3------------------|
  D|----2-------2-------4----------|---5--------5-------7----------|
  A|0-----------------------3H4P3H4|3-----------------------6--H--7|
  E|-------------------------------|-------------------------------|
                                         You     know        you are,
                                           don't   how
                                                    lucky

    D
  e|------- ------- ------- -------|------- ------- ------- -------|
  B|-------------------------------|-------------------------------|
  G|-------------------------------|-------------------------------|
  D|12--12--12--12--12--12--12--12-|12-----------------------------|
  A|12--12--12--12--12--12--12--12-|12-----------------------------|
  E|10--10--10--10--10--10--10--10-|10-\---------------------------|
                boy                     Back    in  U.  S.  S.  R.
                                                  the
  e|------- ------- ------- -------|------- ------- ------- -------|
  B|-------------------------------|-------------------------------|
  G|----7-------5------------------|-------------------------------|
  D|----7-------7-------9----------|-------------------------------|
  A|5-----------------------8--H--9|5------------------------------|
  E|-------------------------------|-------------------------------|

    A                                           E7
  e|------- ------- ------- -------|------- ------- ------- -------|
  B|-------------------------------|------------5-------5---5------|
  G|-------------------------------|------------7-------7---7------|
  D|7---7---7---7---7---7---7---7--|7---7--7----6-------6---6------|
  A|7---7---7---7---7---7---7---7--|7---7--7----7-------7---7------|
  E|5---5---5---5---5---5---5---5--|5---5--5-----------------------|
                                       D    D# E
  e|------- ------- ------- -------|---10-- 11--12- ------- -------|
  B|-------------------------------|---10---11--12-----------------|
  G|-------------------------------|---11---12--13-----------------|
  D|-------------------------------|-------------------------------|
  A|-------------------------------|-------------------------------|
  E|-------------------------------|-------------------------------|


    00:39
    A5      A6  A5          A6  A5  D5
  e|------- ------- ------- -------|------- ------- ------- -------|
  B|-------------------------------|-------------------------------|
  G|-------------------------------|7---7---7---7---7---7---7---7--|
  D|7---7---7---7---7---7---7---7--|7---7---7---7---7---7---7---7--|
  A|7---7---9---7---7---7---9---7--|5---5---5---5---5---5---5---5--|
  E|5---5---5---5---5---5---5---5-/|-------------------------------|
    Been        so  long    hardly  knew    the place           Gee
        away            I

    C5                              D5
  e|------- ------- ------- -------|------- ------- ------- -------|
  B|-------------------------------|-------------------------------|
  G|5---5---5---5---5---5---5---5--|7---7---7---7------------------|
  D|5---5---5---5---5---5---5---5--|7---7---7---7-------7----------|
  A|3---3---3---3---3---3---3---3--|5---5---5---5---9------\7---5--|
  E|-------------------------------|-------------------------------|
        it's    to  be  back    home                            Leave
            good

    A5                              D5
  e|------- ------- ------- -------|------- ------- ------- -------|
  B|-------------------------------|-------------------------------|
  G|-------------------------------|7---7---7---7------------------|
  D|7---7---7---7---7---7---7---7--|7---7---7---7-------7----------|
  A|7---7---9---7---7---7---9---7--|5---5---5---5---9------\7---5--|
  E|5---5---5---5---5---5---5---5--|-------------------------------|
        it  till            to  unpack  my      case            Honey
                tomorrow

    C5                              D5
  e|------- ------- ------- -------|------- ------- ------- -------|
  B|-------------------------------|-------------------------------|
  G|5---5---5---5---5---5---5---5--|7---7---7---7---7---7---7---7--|
  D|5---5---5---5---5---5---5---5--|7---7---7---7---7---7---7---7--|
  A|3---3---3---3---3---3---3---3--|5---5---5---5---5---5---5---5--|
  E|-------------------------------|-------------------------------|
            disconnect      the phone.  I'm back the
                                                in  U.  S.  S.  R.
    00:53
    A5                              C5
  e|------- ------- ------- -------|------- ------- ------- -------|
  B|-------------------------------|-------------------------------|
  G|-------------------------------|-------------------------------|
  D|7---7---7---7---7---7---7---7--|10--10--10--10--10--10--10--10-|
  A|7---7---7---7---7---7---7---7--|10--10--10--10--10--10--10--10-|
  E|5---5---5---5---5---5---5---5--|-8---8---8---8---8---8---8---8-|

  e|------- ------- ------- -------|------- ------- ------- -------|
  B|-------------------------------|-------------------------------|
  G|----2-------0------------------|---5--------3------------------|
  D|----2-------2-------4----------|---5--------5-------7----------|
  A|0-----------------------3H4P3H4|3-----------------------6--H--7|
  E|-------------------------------|-------------------------------|
                                       You       know        you are,
                                          don't   how
                                                     lucky

    D5
  e|------- ------- ------- -------|------- ------- ------- -------|
  B|-------------------------------|-------------------------------|
  G|-------------------------------|-------------------------------|
  D|12--12--12--12--12--12--12--12-|12--12------12------12------12-|
  A|12--12--12--12--12--12--12--12-|12--12------12------12------12-|
  E|10--10--10--10--10--10--10--10-|10-\10------10------10------10-|

  e|------- ------- ------- -------|------- ------- ------- -------|
  B|-------------------------------|-------------------------------|
  G|----7-------5------------------|-------------------------------|
  D|----7-------7-------9----------|-------------------------------|
  A|5-----------------------8--H--9|5------------------------------|
  E|-------------------------------|-------------------------------|
                boy                     Back    in  U.  S.      Back
                                                  the

  e|------- ------- ------- -------|------- -------|
  B|-------------------------------|---------------|
  G|-------------------------------|---------------|
  D|----10------10------10------10-|----10------10-|
  A|----12------12------12------12-|----12------12-|
  E|-------------------------------|---------------|
        in  U.  S.      Back    in  U.  S.  S.  R.
          the                     the


    A5      A6  A5
  e|------- ------- ------- -------|------- ------- ------- -------|
  B|-------------------------------|-------------------------------|
  G|-------------------------------|-------------------------------|
  D|7---7---7---7---7---7---7---7--|7---7---7---7---7---7---7---7--|
  A|7---7---9---7---7---7---7---7--|7---7---7---7---7---7---7---7--|
  E|5---5---5---5---5---5---5---5--|5---5---5---5---5---5---5---5--|
                                                        Well    the

    01:05
    D5
  e|------- ------- ------- -------|------- ------- ------- -------|
  B|-------------------------------|-------------------------------|
  G|-------------------------------|-------------------------------|
  D|12--12--12--12--12--12--12--12|12---12--12--12--12--12--12--12-|
  A|12--12--12--12--12--12--12--12|12---12--12--12--12--12--12--12-|
  E|10--10--10--10--10--10--10--10|10---10--10--10--10--10--10--10-|
    Ukraine         girls   really  knock   me  out             They


    A5
  e|------- ------- ------- -------|------- ------- ------- -------|
  B|-------------------------------|-------------------------------|
  G|-------------------------------|-------------------------------|
  D|7---7---7---7---7---7---7---7--|7---7---7---7---7---7---7---7--|
  A|7---7---9---7---7---7---7---7--|7---7---7---7---7---7---7---7--|
  E|5---5---5---5---5---5---5---5--|5---5---5---5---5---5---5---5--|
    leave   the     West    behind                              And


    D5              C#5             C5              B5
  e|------- ------- ------- -------|------- ------- ------- -------|
  B|-------------------------------|-------------------------------|
  G|-------------------------------|-------------------------------|
  D|12--12--12--12--11--11--11--11-|10--10--10--10--9---9---9---9--|
  A|12--12--12--12--11--11--11--11-|10--10--10--10--9---9---9---9--|
  E|10--10--10--10---9---9---9---9-|-8---8---8---8--7---7---7---7--|
     Moscow         girls  make me  sing and     shout          that


    E7                              D7
  e|------- ------- ------- -------|------- ------- ------- -------|
  B|5---5---5---5---5---5---5---5--|3---3---3---3---3---3---3---3--|
  G|7---7---7---7---7---7---7---7--|5---5---5---5---5---5---5---5--|
  D|6---6---6---6---6---6---6---6--|4---4---4---4---4---4---4---4--|
  A|7---7---7---7---7---7---7---7--|5---5---5---5---5---5---5---5--|
  E|-------------------------------|-------------------------------|
    Georgia's        on my  my  my  my  my  my  my  my  my      mind
            always

    A5                              E7
  e|------- ------- ------- -------|------- ------- ------- -------|
  B|-------------------------------|----5---5---5---5---5---5---5--|
  G|-------------------------------|----7---7---7---7---7---7---7--|
  D|7---7---7---7---7---7---7---7--|----6---6---6---6---6---6---6--|
  A|7---7---7---7---7---7---7---7--|----7---7---7---7---7---7---7--|
  E|5---5---5---5---5---5---5---5--|-------------------------------|

    01::22
    SOLO

    A5                              D5
  e|------- ------- ------- -------|------- ------- ------- -------|
  B|13B1515-13B1515-13B1515-13B1515|13B1513B1513B15---------1515R13|
  G|-------------------------------|-------------------------------|
  D|-------------------------------|-------------------------------|
  A|-------------------------------|-------------------------------|
  E|-------------------------------|-------------------------------|

    C5                              D5
  e|------- ------- ------- -------|------- ------- ------- -------|
  B|--------15B17R15---------------|-------------------------------|
  G|----------------14--14------14-|----------------------------14-|
  D|-------------------------------|-------------------------------|
  A|-------------------------------|-------------------------------|
  E|-------------------------------|-------------------------------|


    A5                              D5
  e|------- ------- ------- -------|------- ------- ------- -------|
  B|13B15-R-1313B15----R13--13B15-R|14-B15--R--14-B-15---R--13-----|
  G|-------------------------------|-------------------------------|
  D|-------------------------------|-------------------------------|
  A|-------------------------------|-------------------------------|
  E|-------------------------------|-------------------------------|


    C5                              D5
  e|------- ------- ------- -------|------- ------- ------- -------|
  B|--------15B17R15---------------|-------------------------------|
  G|----------------14---14-----14-\----14\------------------------|
  D|-------------------------------|-------\12-10B11---------------|
  A|-------------------------------|-------------------------------|
  E|-------------------------------|-------------------------------|
                                        I'm back  the
                                                in  U.  S.  S.  R.

    01:36
    A5                              C5
  e|------- ------- ------- -------|------- ------- ------- -------|
  B|-------------------------------|-------------------------------|
  G|-------------------------------|-------------------------------|
  D|7---7---7---7---7---7---7---7--|10--10--10--10--10--10--10--10-|
  A|7---7---7---7---7---7---7---7--|10--10--10--10--10--10--10--10-|
  E|5---5---5---5---5---5---5---5--|-8---8---8---8---8---8---8---8-|

  e|------- ------- ------- -------|------- ------- ------- -------|
  B|-------------------------------|-------------------------------|
  G|----2-------0------------------|---5--------3------------------|
  D|----2-------2-------4----------|---5--------5-------7----------|
  A|0-----------------------3H4P3H4|3-----------------------6--H--7|
  E|-------------------------------|-------------------------------|
                                       You       know        you are,
                                          don't   how
                                                     lucky

    D5
  e|------- ------- ------- -------|------- ------- ------- -------|
  B|-------------------------------|-------------------------------|
  G|-------------------------------|-------------------------------|
  D|12--12--12--12--12--12--12--12-|12-----------------------------|
  A|12--12--12--12--12--12--12--12-|12-----------------------------|
  E|10--10--10--10--10--10--10--10-|10-\---------------------------|

  e|------- ------- ------- -------|------- ------- ------- -------|
  B|-------------------------------|-------------------------------|
  G|----7-------5------------------|-------------------------------|
  D|----7-------7-------9----------|-------------------------------|
  A|5-----------------------8--H--9|5------------------------------|
  E|-------------------------------|-------------------------------|
                boy                     Back    in  U.  S.  S.  R.
                                                  the


    A5
  e|------- ------- ------- -------|------- ------- ------- -------|
  B|-------------------------------|-------------------------------|
  G|-------------------------------|-------------------------------|
  D|7---7---7---7---7---7---7---7--|7---7---7---7---7---7---7---7--|
  A|7---7---7---7---7---7---7---7--|7---7---7---7---7---7---7---7--|
  E|5---5---5---5---5---5---5---5--|5---5---5---5---5---5---5---5--|

  e|------- ------- ------- -------|------- ------- ------- -------|
  B|-------------------------------|-------------------------------|
  G|-------------------------------|-------------------------------|
  D|-------------------------------|-------------------------------|
  A|-------------------------------|0-------2-------3-------4------|
  E|-------------------------------|-------------------------------|
                                                        Well    the

    01:46
    D5
  e|------- ------- ------- -------|------- ------- ------- -------|
  B|-------------------------------|-------------------------------|
  G|-------------------------------|-------------------------------|
  D|12--12--12--12--12--12--12--12-|12--12--12--12--12--12--12--12-|
  A|12--12--12--12--12--12--12--12-|12--12--12--12--12--12--12--12-|
  E|10--10--10--10--10--10--10--10-|10--10--10--10--10--10--10--10-|

  e|------- ------- ------- -------|------- ------- ------- -------|
  B|-------------------------------|-------------------------------|
  G|-------------------------------|-------------------------------|
  D|12---12---------12---12--------|12---12---------12---12--------|
  A|12---12---------12---12--------|12---12---------12---12--------|
  E|10---10---------10---10--------|10---10---------10---10--------|
    Ukraine         girls   really  knock   me  out             They
    (Oooooooooooooooooooooooooooooooooooooooooooooooooooooooooooooo


    A5
  e|------- ------- ------- -------|------- ------- ------- -------|
  B|-------------------------------|-------------------------------|
  G|-------------------------------|-------------------------------|
  D|7---7---7---7---7---7---7---7--|7---7---7---7---7---7---7---7--|
  A|7---7---9---7---7---7---7---7--|7---7---7---7---7---7---7---7--|
  E|5---5---5---5---5---5---5---5--|5---5---5---5---5---5---5---5--|
    leave   the     West    behind                              and
    ooooooooooooooooooooooooooooooooooooooooooooohhhhhhhhhh)


    D5              C#5             C5              B5
  e|------- ------- ------- -------|------- ------- ------- -------|
  B|-------------------------------|-------------------------------|
  G|-------------------------------|-------------------------------|
  D|12--12--12--12--11-11---11--11-|10--10--10--10--9---9---9---9--|
  A|12--12--12--12--11-11---11--11-|10--10--10--10--9---9---9---9--|
  E|10--10--10--10---9--9----9---9-|-8---8---8---8--7---7---7---7--|
    Moscow          girls  make me  sing and     shout          that
    (Oooooooooooooooooooooooooooooooooooooooooooooooooooooooooooooo


    E7                              D7
  e|------- ------- ------- -------|------- ------- ------- -------|
  B|5---5---5---5---5---5---5---5--|3---3---3---3---3---3---3---3--|
  G|7---7---7---7---7---7---7---7--|5---5---5---5---5---5---5---5--|
  D|6---6---6---6---6---6---6---6--|4---4---4---4---4---4---4---4--|
  A|7---7---7---7---7---7---7---7--|5---5---5---5---5---5---5---5--|
  E|-------------------------------|-------------------------------|
    Georgia's       on  my  my  my  my  my  my  my  my  my      mind
            always
    ooooooooooooooooooooooooooooooooooooooooooooooooooooohhhhhh

    A5                              E7
  e|------- ------- ------- -------|------- ------- ------- -------|
  B|-------------------------------|----5---5---5---5---5---5---5--|
  G|-------------------------------|----7---7---7---7---7---7---7--|
  D|7---7---7---7---7---7---7---7--|----6---6---6---6---6---6---6--|
  A|7---7---7---7---7---7---7---7--|----7---7---7---7---7---7---7--|
  E|5---5---5---5---5---5---5---5--|-------------------------------|
                                Oh,                             Show

    02:03
    A5                              D5
  e|------- ------- ------- -------|------- ------- ------- -------|
  B|-------------------------------|-------------------------------|
  G|-------------------------------|7---7---7---7---7---7---7---7--|
  D|7---7---7---7---7---7---7---7--|7---7---7---7---7---7---7---7--|
  A|7---7---9---7---7---7---9---7--|5---5---5---5---5---5---5---5--|
  E|5---5---5---5---5---5---5---5--|-------------------------------|

  e|1717171717171717171717171717171717171717171717171717171717171717
  B|-------------------------------|-------------------------------|
  G|-------------------------------|-------------------------------|
  D|-------------------------------|-------------------------------|
  A|-------------------------------|-------------------------------|
  E|-------------------------------|-------------------------------|
        me  round   snow    mountains   down    South           take
                your    peaked      way


    C5                              D5
  e|------- ------- ------- -------|------- ------- ------- -------|
  B|-------------------------------|-------------------------------|
  G|5---5---5---5---5---5---5---5--|7---7---7---7---7---7---7---7--|
  D|5---5---5---5---5---5---5---5--|7---7---7---7---7---7---7---7--|
  A|3---3---3---3---3---3---3---3--|5---5---5---5---5---5---5---5--|
  E|-------------------------------|-------------------------------|

  e|1717171717171717171717171717171717171717171717171717171717171717
  B|-------------------------------|-------------------------------|
  G|-------------------------------|-------------------------------|
  D|-------------------------------|-------------------------------|
  A|-------------------------------|-------------------------------|
  E|-------------------------------|-------------------------------|
        me  to  your            farm                            Let
                    daddy's


    A5                              D5
  e|------- ------- ------- -------|------- ------- ------- -------|
  B|-------------------------------|-------------------------------|
  G|-------------------------------|7---7---7---7---7---7---7---7--|
  D|7---7---7---7---7---7---7---7--|7---7---7---7---7---7---7---7--|
  A|7---7---9---7---7---7---9---7--|5---5---5---5---5---5---5---5--|
  E|5---5---5---5---5---5---5---5--|-------------------------------|

  e|1717171717171717171717171717171717171717171717171717171717171717
  B|-------------------------------|-------------------------------|
  G|-------------------------------|-------------------------------|
  D|-------------------------------|-------------------------------|
  A|-------------------------------|-------------------------------|
  E|-------------------------------|-------------------------------|
        me  hear    balalaikas      ringing     out             Come
                your


    C5                              D5
  e|------- ------- ------- -------|------- ------- ------- -------|
  B|-------------------------------|-------------------------------|
  G|5---5---5---5---5---5---5---5--|7---7---7---7---7---7---7---7--|
  D|5---5---5---5---5---5---5---5--|7---7---7---7---7---7---7---7--|
  A|3---3---3---3---3---3---3---3--|5---5---5---5---5---5---5---5--|
  E|-------------------------------|-------------------------------|

  e|1717171717171717171717171717171717171717171717171717171717-\---|
  B|-------------------------------|-------------------------------|
  G|-------------------------------|-------------------------------|
  D|-------------------------------|-------------------------------|
  A|-------------------------------|-------------------------------|
  E|-------------------------------|-------------------------------|
        and keep    comrade     warm,   I'm back the U. S.  S.  R.
                your                            in

    02:16
    A5                              C5
  e|------- ------- ------- -------|------- ------- ------- -------|
  B|-------------------------------|-------------------------------|
  G|-------------------------------|-------------------------------|
  D|7---7---7---7---7---7---7---7--|10--10--10--10--10--10--10--10-|
  A|7---7---7---7---7---7---7---7--|10--10--10--10--10--10--10--10-|
  E|5---5---5---5---5---5---5---5--|-8---8---8---8---8---8---8---8-|

  e|------- ------- ------- -------|------- ------- ------- -------|
  B|-------------------------------|-------------------------------|
  G|----2-------0------------------|---5--------3------------------|
  D|----2-------2-------4----------|---5--------5-------7----------|
  A|0-----------------------3H4P3H4|3-----------------------6--H--7|
  E|-------------------------------|-------------------------------|
                Hey!                     You     know        you are,
                                          don't   how
                                                     lucky

    D5
  e|------- ------- ------- -------|------- ------- ------- -------|
  B|-------------------------------|-------------------------------|
  G|-------------------------------|-------------------------------|
  D|12--12--12--12--12--12--12--12-|12-----------------------------|
  A|12--12--12--12--12--12--12--12-|12-----------------------------|
  E|10--10--10--10--10--10--10--10-|10-\---------------------------|

  e|------- ------- ------- -------|------- ------- ------- -------|
  B|-------------------------------|-------------------------------|
  G|----7-------5------------------|-------------------------------|
  D|----7-------7-------9----------|-------------------------------|
  A|5-----------------------8--H--9|5------------------------------|
  E|-------------------------------|-------------------------------|
                boys                    Back    in  U.  S.  S.  R.
                                                  the


    A5                                  D5  D#5 E5
  e|------- ------- ------- -------|----10- 11--12- ------- -------|
  B|-------------------------------|----10--11--12-----------------|
  G|-------------------------------|----11--12--13-----------------|
  D|7---7---7---7---7---7---7---7--|----12--13--14-----------------|
  A|7---7---7---7---7---7---7---7--|----12--13--14-----------------|
  E|5---5---5---5---5---5---5---5--|----10--11--12-----------------|
                    Oh,                 Let me  tell  you honey


    02:27
    A5
  e|------- ------- ------- -------|------- ------- ------- -------|
  B|-------------------------------|-------------------------------|
  G|----2-------0--------------5/6-|----2-------0------------------|
  D|----2-------2-------4----------|----2-------2-------4----------|
  A|0----------------------/4------|0-----------------------3B4----|
  E|-------------------------------|-------------------------------|
              Yeah  back                I'm  back  in  the U. S. S.
                 I'm                               (Ooooooooooooooo


  e|------- ------- ------- -------|------- ------- ------- -------|
  B|-------------------------------|-------------------------------|
  G|----2-------0------------------|---2--------0------------------|
  D|----2-------2-------4----------|---2--------2-------4----------|
  A|0-----------------------3B4----|0-----------------------3B4----|
  E|-------------------------------|-------------------------------|
    R.                          Yeah,  souvenir
    ooooooooooooooooooooooooooooooooooooooooooooooooooooooooooooooo

  e|------- ------- ------- -------|------- ------- ------- -------|
  B|-------------------------------|-------------------------------|
  G|----2-------0------------------|----2-------0------------------|
  D|----2-------2-------4----------|----2-------2-------4----------|
  A|0-----------------------3B4----|0-----------------------3B4----|
  E|-------------------------------|-------------------------------|
                        Yeaaaaaaaaahhh         in the U. S. S. R.
    ooooooooooooooooooooooooooooooooooooooooooooooooooooooooooooooo

     ¨¨¨¨¨¨¨¨¨¨¨¨¨¨¨¨¨¨¨¨¨¨¨¨¨¨¨¨¨¨¨¨¨¨¨¨¨¨¨¨¨¨¨¨¨¨¨¨¨¨¨¨¨¨¨¨¨¨¨¨¨¨
  e|------- ------- ------- -------|------- ------- ------- -------|
  B|-------------------------------|-------------------------------|
  G|2------------------------------|-------------------------------|
  D|2------------------------------|-------------------------------|
  A|0------------------------------|-------------------------------|
  E|-------------------------------|-------------------------------|

        B  Bend
        R  Release
        /  slide up
        \  slide down
        H  hammer-on
        P  pull-off
        ~  vibrato
        +  harmonic
        x  Mute note
        . - play note like a dot in standard notation
        ^ - ties two notes together
        (. Pause

  ----------------------------------------------------------------

   THE BEATLES  - DEAR PRUDENCE (Lennon & McCartney)from the WHITE
                  ALBUM. Released on 22nd November 1968.

  ----------------------------------------------------------------

  Tabbed by:PJVillanueva


  Dear Prudence, won't you come out to play
  Dear Prudence, greet the brand new day
  The sun is up, the sky is blue
  It's beautiful and so are you
  Dear Prudence won't you come out and play

  Dear Prudence open up your eyes
  Dear Prudence see the sunny skies
  The wind is low the birds will sing
  that you are part of everything
  Dear Prudence won't you open up your eyes?

  Look around round
  Look around round round
  Look around

  Dear Prudence let me see you smile
  Dear Prudence like a little child
  The clouds will be a daisy chain
  So let me see you smile again
  Dear Prudence won't you let me see you smile?

                        (Tune low E string to D)


    INTRO


  e|------- ------- ------- -------|12----- ------- ------- -------|
  B|-------------------------------|-------------------10----------|
  G|-------------------------------|-----------12------------------|
  D|-------------------------------|--------0---------------0------|
  A|-------------------------------|0------------------------------|
  D|-------------------------------|---------------0---------------|
                                    ................Fade in........


  e|10----- ------- ------- -------|8------ ------- ------- -------|
  B|-------------------10----------|-------------------8-----------|
  G|-----------11------------------|------------9------------------|
  D|--------0---------------0------|--------0---------------0------|
  A|0------------------------------|0------------------------------|
  D|-----------------0-------------|---------------0---------------|
    ...............................................................


  e|7------ ------- ------- -------|5------ ------- ------- -------|
  B|-------------------8-----------|-------------------5-----------|
  G|-----------7-------------------|-----------6-------------------|
  D|--------0---------------0------|--------0---------------0------|
  A|0------------------------------|0------------------------------|
  D|----------------0--------------|---------------0---------------|
    ...............................


  e|3------ ------- ------- -------|3------ ------- ------- -------|
  B|-------------------5-----------|-------------------5-----------|
  G|-----------5-------------------|-----------5-------------------|
  D|--------0---------------0------|--------0---------------0------|
  A|0------------------------------|0------------------------------|
  D|----------------0--------------|---------------0---------------|


    ***


  e|2------ ------- ------- -------|2------ ------- ------- -------|
  B|-------------------3-----------|-------------------3-----------|
  G|------------2------------------|------------2------------------|
  D|--------0---------------0------|--------0---------------0------|
  A|0------------------------------|3------------------------------|
  D|----------------0--------------|----------------0--------------|


  e|2------ ------- ------- -------|2------ ------- ------- -------|
  B|--------------------3----------|-------------------3-----------|
  G|------------0------------------|------------0------------------|
  D|--------0---------------0------|--------0---------------0------|
  A|2------------------------------|1------------------------------|
  D|----------------0--------------|-----------------0-------------|
                                                       Dear
                                                       Dear


  e|2------ ------- ------- -------|2------ ------- ------- -------|
  B|-------------------3-----------|-------------------3-----------|
  G|------------2------------------|------------2------------------|
  D|--------0---------------0------|--------0---------------0------|
  A|0------------------------------|3------------------------------|
  D|----------------0--------------|----------------0--------------|
    Prudence
    Prudence


 e|2------ ------- ------- -------|2------ ------- ------- -------|
 B|--------------------3----------|-------------------3-----------|
 G|------------0------------------|------------0------------------|
 D|--------0---------------0------|--------0---------------0------|
 A|2------------------------------|1------------------------------|
 D|----------------0--------------|-----------------0-------------|
                                           Won't you come out  to
                                           Open    up  your


  e|2------ ------- ------- -------|2------ ------- ------- -------|
  B|-------------------3-----------|-------------------3-----------|
  G|------------2------------------|------------2------------------|
  D|--------0---------------0------|--------0---------------0------|
  A|0------------------------------|3------------------------------|
  D|----------------0--------------|----------------0--------------|
    play
    eyes


  e|2------ ------- ------- -------|2------ ------- ------- -------|
  B|--------------------3----------|-------------------3-----------|
  G|------------0------------------|------------0------------------|
  D|--------0---------------0------|--------0---------------0------|
  A|2------------------------------|1------------------------------|
  D|----------------0--------------|-----------------0-------------|
                                                       Dear
                                                       Dear


  e|2------ ------- ------- -------|2------ ------- ------- -------|
  B|-------------------3-----------|-------------------3-----------|
  G|------------2------------------|------------2------------------|
  D|--------0---------------0------|--------0---------------0------|
  A|0------------------------------|3------------------------------|
  D|----------------0--------------|----------------0--------------|
    Prudence
    Prudence


  e|2------ ------- ------- -------|2------ ------- ------- -------|
  B|--------------------3----------|-------------------3-----------|
  G|------------0------------------|------------0------------------|
  D|--------0---------------0------|--------0---------------0------|
  A|2------------------------------|1------------------------------|
  D|----------------0--------------|-----------------0-------------|
                                            Greet the brand new
                                            See the sunny


  e|2------ ------- ------- -------|2------ ------- ------- -------|
  B|-------------------3-----------|-------------------3-----------|
  G|------------2------------------|------------2------------------|
  D|--------0---------------0------|--------0---------------0------|
  A|0------------------------------|3------------------------------|
  D|----------------0--------------|----------------0--------------|
    day
    skies


  e|2------ ------- ------- -------|2------ ------- ------- -------|
  B|--------------------3----------|-------------------3-----------|
  G|------------0------------------|------------0------------------|
  D|--------0---------------0------|--------0---------------0------|
  A|2------------------------------|1------------------------------|
  D|----------------0--------------|-----------------0-------------|
                                                                The
                                                                The


  e|2------ ------- ------- -------|2------ ------- ------- -------|
  B|-------------------3-----------|-------------------3-----------|
  G|------------2------------------|------------2------------------|
  D|--------0---------------0------|--------0---------------0------|
  A|0------------------------------|3------------------------------|
  D|----------------0--------------|----------------0--------------|
    sun     is  up,             the sky     is  blue            It's
    wind    is  low             the birds   will sing           that


  e|2------ ------- ------- -------|2------ ------- ------- -------|
  B|--------------------3----------|-------------------3-----------|
  G|------------0------------------|------------0------------------|
  D|--------0---------------0------|--------0---------------0------|
  A|2------------------------------|1------------------------------|
  D|----------------0--------------|-----------------0-------------|
    beautiful                   and so      are you    Dear
    you     are part            of  everything         Dear

  e|2------ ------- ------- -------|2------ ------- ------- -------|
  B|-------------------3-----------|-------------------3-----------|
  G|------------2------------------|------------2------------------|
  D|--------0---------------0------|--------0---------------0------|
  A|0------------------------------|3------------------------------|
  D|----------------0--------------|----------------0--------------|
    Prudence
    Prudence


  e|0------ ------- ------- -------|3------ ------- ------- -------|
  B|-------------------1-----------|-------------------3-----------|
  G|-----------0-------------------|-----------0-------------------|
  D|--------2---------------2------|--------0---------------0------|
  A|3---------------3--------------|-------------------------------|
  D|-------------------------------|5---------------5--------------|
                    Won't   you     come out                to  play?  ***
                    Won't   you     open       up      your


  e|2------ ------- ------- -------|3------ ------- ------- -------|
  B|-------------------3-----------|-------------------3-----------|
  G|------------2------------------|------------4------------------|
  D|--------0---------------0------|--------0---------------0------|
  A|0------------------------------|0------------------------------|
  D|----------------0--------------|----------------0--------------|

    eyes?


  e|5------ ------- ------- -------|3------ ------- ------- -------|
  B|-------------------5-----------|-------------------3-----------|
  G|------------6------------------|------------4------------------|
  D|--------0---------------0------|--------0---------------0------|
  A|0------------------------------|0------------------------------|
  D|----------------0--------------|----------------0--------------|
                                                            Look a..

  e|2------ ------- ------- -------|3------ ------- ------- -------|
  B|-------------------3-----------|-------------------3-----------|
  G|------------2------------------|------------4------------------|
  D|--------0---------------0------|--------0---------------0------|
  A|0------------------------------|0------------------------------|
  D|----------------0--------------|----------------0--------------|
    round
   (Round       round       round       round       round
  e|------- ------- ------- -------|------- ------- ------- -------|
  B|------------------------6-H-8--|6B7----------------------------|
  G|--------------------7----------|--------7----------------------|
  D|-------------------------------|-------------------------------|
  A|-------------------------------|-------------------------------|
  E|-------------------------------|-------------------------------|


  e|5------ ------- ------- -------|3------ ------- ------- -------|
  B|-------------------5-----------|-------------------3-----------|
  G|------------6------------------|------------4------------------|
  D|--------0---------------0------|--------0---------------0------|
  A|0------------------------------|0------------------------------|
  D|----------------0--------------|----------------0--------------|
                                                            Look a..
    Round       round       round       round       round
  e|------- ------- ------- -------|------- ------- ------- -------|
  B|6-------8-------8-B-10--8------|-------------------------------|
  G|-------------------------------|-------------------------------|
  D|-------------------------------|--------5-------5-P-3----------|
  A|-------------------------------|------------------------5------|
  E|-------------------------------|-------------------------------|


  e|2------ ------- ------- -------|3------ ------- ------- -------|
  B|-------------------3-----------|-------------------3-----------|
  G|------------2------------------|------------4------------------|
  D|--------0---------------0------|--------0---------------0------|
  A|0------------------------------|0------------------------------|
  D|----------------0--------------|----------------0--------------|
    round
    round       round       round       round       round
  e|------- ------- ------- -------|------- ------- ------- -------|
  B|------------------------6B7----|-------------------------------|
  G|7------------------------------|-------------------------------|
  D|-------------------------------|-------------------------------|
  A|-------------------------------|-------------------------------|
  E|-------------------------------|-------------------------------|


  e|5------ ------- ------- -------|3------ ------- ------- -------|
  B|-------------------5-----------|-------------------3-----------|
  G|------------6------------------|------------4------------------|
  D|--------0---------------0------|--------0---------------0------|
  A|0------------------------------|0------------------------------|
  D|----------------0--------------|----------------0--------------|
                                                            Look a..
    Round       round       round       round       round


  e|------- ------- ------- -------|------- ------- ------- -------|
  B|6-------8-------8-B-10--8------|-------------------------------|
  G|-------------------------------|-------------------------------|
  D|-------------------------------|--------5-------5-P-3----------|
  A|-------------------------------|------------------------5------|
  E|-------------------------------|-------------------------------|


  e|1------ ------- ------- -------|4------ ------- ------- -------|
  B|-------------------1-----------|-------------------4-----------|
  G|------------2------------------|------------5------------------|
  D|--------0---------------0------|--------0---------------0------|
  A|0------------------------------|0------------------------------|
  D|----------------0--------------|----------------0--------------|
    round
    Round)


  e|3------ ------- ------- -------|
  B|-------------------3-----------|
  G|------------4------------------|
  D|--------0---------------0------|
  A|0------------------------------|
  D|----------------0--------------|

  e|2------ ------- ------- -------|2------ ------- ------- -------|
  B|-------------------3-----------|-------------------3-----------|
  G|------------2------------------|------------2------------------|
  D|--------0---------------0------|--------0---------------0------|
  A|0------------------------------|3------------------------------|
  D|----------------0--------------|----------------0--------------|


  e|2------ ------- ------- -------|2------ ------- ------- -------|
  B|--------------------3----------|-------------------3-----------|
  G|------------0------------------|------------0------------------|
  D|--------0---------------0------|--------0---------------0------|
  A|2------------------------------|1------------------------------|
  D|----------------0--------------|-----------------0-------------|
                                                       Dear

  e|2------ ------- ------- -------|2------ ------- ------- -------|
  B|-------------------3-----------|-------------------3-----------|
  G|------------2------------------|------------2------------------|
  D|--------0---------------0------|--------0---------------0------|
  A|0------------------------------|3------------------------------|
  D|----------------0--------------|----------------0--------------|
    Prudence
  e|------- ------- ------- -------|------- ------- ------- -------|
  B|------------------------7H8----|--------7----------------------|
  G|-------------------7-----------|----------------7--------------|
  D|-------------------------------|-------------------------------|
  A|-------------------------------|-------------------------------|
  E|-------------------------------|-------------------------------|


  e|2------ ------- ------- -------|2------ ------- ------- -------|
  B|--------------------3----------|-------------------3-----------|
  G|------------0------------------|------------0------------------|
  D|--------0---------------0------|--------0---------------0------|
  A|2------------------------------|1------------------------------|
  D|----------------0--------------|-----------------0-------------|
                                            Let me  see you
  e|------- ------- ------- -------|------- ------- ------- -------|
  B|------------------------7-H-8--|7-------0---------------0------|
  G|--------7-------7--------------|-------------------------------|
  D|-------------------------------|----------------4--------------|
  A|-------------------------------|-------------------------------|
  E|-------------------------------|-------------------------------|


  e|2------ ------- ------- -------|2------ ------- ------- -------|
  B|-------------------3-----------|-------------------3-----------|
  G|------------2------------------|------------2------------------|
  D|--------0---------------0------|--------0---------------0------|
  A|0------------------------------|3------------------------------|
  D|----------------0--------------|----------------0--------------|
    smile
  e|------- ------- ------- -------|------- ------- ------- -------|
  B|------------------------7-H-8--|--------7----------------------|
  G|--------------------7----------|----------------7--------------|
  D|-------------------------------|-------------------------------|
  A|-------------------------------|-------------------------------|
  E|-------------------------------|-------------------------------|


  e|2------ ------- ------- -------|2------ ------- ------- -------|
  B|--------------------3----------|-------------------3-----------|
  G|------------0------------------|------------0------------------|
  D|--------0---------------0------|--------0---------------0------|
  A|2------------------------------|1------------------------------|
  D|----------------0--------------|-----------------0-------------|
                                                       Dear
  e|------- ------- ------- -------|------- ------- ------- -------|
  B|------------------------7-H-8--|7------------------------------|
  G|----------------7--------------|-------------------------------|
  D|-------------------------------|--------0-------4--------------|
  A|-------------------------------|-------------------------------|
  E|-------------------------------|-------------------------------|


  e|2------ ------- ------- -------|2------ ------- ------- -------|
  B|-------------------3-----------|-------------------3-----------|
  G|------------2------------------|------------2------------------|
  D|--------0---------------0------|--------0---------------0------|
  A|0------------------------------|3------------------------------|
  D|----------------0--------------|----------------0--------------|
         Prudence
  e|------- ------- ------- -------|------- ------- ------- -------|
  B|----------------------7H8------|--------7----------------------|
  G|-------------------------------|----------------7--------------|
  D|-------------------------------|-------------------------------|
  A|-------------------------------|-------------------------------|
  E|-------------------------------|-------------------------------|


  e|2------ ------- ------- -------|2------ ------- ------- -------|
  B|--------------------3----------|-------------------3-----------|
  G|------------0------------------|------------0------------------|
  D|--------0---------------0------|--------0---------------0------|
  A|2------------------------------|1------------------------------|
  D|----------------0--------------|-----------------0-------------|
                                            Like a  litlle
  e|------- ------- ------- -------|------- ------- ------- -------|
  B|------------------------7-H-8--|7------------------------------|
  G|-------------------------------|-------------------------------|
  D|-------------------------------|--------0-------4--------------|
  A|-------------------------------|-------------------------------|
  E|-------------------------------|-------------------------------|


  e|2------ ------- ------- -------|2------ ------- ------- -------|
  B|-------------------3-----------|-------------------3-----------|
  G|------------2------------------|------------2------------------|
  D|--------0---------------0------|--------0---------------0------|
  A|0------------------------------|3------------------------------|
  D|----------------0--------------|----------------0--------------|
    child
  e|------- ------- ------- -------|------- ------- ------- -------|
  B|------------------------7-H-8--|--------7----------------------|
  G|-------------------------------|----------------7--------------|
  D|-------------------------------|-------------------------------|
  A|-------------------------------|-------------------------------|
  E|-------------------------------|-------------------------------|


  e|2------ ------- ------- -------|2------ ------- ------- -------|
  B|--------------------3----------|-------------------3-----------|
  G|------------0------------------|------------0------------------|
  D|--------0---------------0------|--------0---------------0------|
  A|2------------------------------|1------------------------------|
  D|----------------0--------------|-----------------0-------------|
                                                                The
  e|------- ------- ------- -------|------- ------- ------- -------|
  B|------------------------7-H-8--|7------------------------------|
  G|--------------------7----------|-------------------------------|
  D|-------------------------------|----------------4-------0------|
  A|-------------------------------|-------------------------------|
  E|-------------------------------|-------------------------------|


  e|2------ ------- ------- -------|2------ ------- ------- -------|
  B|-------------------3-----------|-------------------3-----------|
  G|------------2------------------|------------2------------------|
  D|--------0---------------0------|--------0---------------0------|
  A|0------------------------------|3------------------------------|
  D|----------------0--------------|----------------0--------------|
    clouds  will be             a   daisy       chain           So
  e|------- ------- ------- -------|------- ------- ------- -------|
  B|--------------------7-H-8------|7------------------------------|
  G|-------------------------------|-------------------------------|
  D|-------------------------------|-------------------------------|
  A|-------------------------------|-------------------------------|
  E|-------------------------------|-------------------------------|


  e|2------ ------- ------- -------|2------ ------- ------- -------|
  B|--------------------3----------|-------------------3-----------|
  G|------------0------------------|------------0------------------|
  D|--------0---------------0------|--------0---------------0------|
  A|2------------------------------|1------------------------------|
  D|----------------0--------------|-----------------0-------------|
    let     me  see             you smile    again     Dear
  e|------- ------- ------- -------|------- ------- ------- -------|
  B|------------------------7------|6---------------5--------------|
  G|----------------4--------------|-------------------------------|
  D|-------------------------------|-------------------------------|
  A|-------------------------------|-------------------------------|
  E|-------------------------------|-------------------------------|


  e|2------ ------- ------- -------|2------ ------- ------- -------|
  B|-------------------3-----------|-------------------3-----------|
  G|------------2------------------|------------2------------------|
  D|--------0---------------0------|--------0---------------0------|
  A|0------------------------------|3------------------------------|
  D|----------------0--------------|----------------0--------------|
    Prudence
  e|------- ------- ------- -------|------- ------- ------- -------|
  B|------------------------7-H-8--|--------7---------------7------|
  G|--------------------7----------|----------------7--------------|
  D|-------------------------------|-------------------------------|
  A|-------------------------------|-------------------------------|
  E|-------------------------------|-------------------------------|


  e|0------ ------- ------- -------|3------ ------- ------- -------|
  B|-------------------1-----------|-------------------3-----------|
  G|-----------0-------------------|-----------0-------------------|
  D|--------2---------------2------|--------0---------------0------|
  A|3---------------3--------------|-------------------------------|
  D|-------------------------------|5---------------5--------------|
                    Won't   you     let     me  see     you
  e|------- ------- ------- -------|------- ------- ------- -------|
  B|-------------------------------|8-------10------10-B-12--------|
  G|9---------------9--------------|-------------------------------|
  D|-------------------------------|-------------------------------|
  A|-------------------------------|-------------------------------|
  E|-------------------------------|-------------------------------|


  e|2------ ------- 2------ ----2--|2---2-- 2------ 2------ ----2--|
  B|3---------------3-----------3--|3---3---3-------3-----------3--|
  G|2---------------2-----------2--|2---2---2-------2-----------2--|
  D|0---------------0-----------0--|0---0---0-------0-----------0--|
  A|-------------------------------|3---3---3-------3-----------3--|
  D|-------------------------------|-------------------------------|
    smile?
  e|------- ------- ------- -------|------- ------- ------- -------|
  B|10-----------------------------|-------------------------------|
  G|-------------------------------|-------------------------------|
  D|-------------------------------|-------------------------------|
  A|-------------------------------|-------------------------------|
  E|-------------------------------|-------------------------------|


  e|2---2-- 2------ 2------ ----2--|2---2-- 2------ 2------ -------|
  B|3---3---3-------3-----------3--|3---3---3-------3--------------|
  G|0---0---0-------0-----------0--|0---0---0-------0--------------|
  D|0---0---0-------0-----------0--|0---0---0-------0--------------|
  A|2---2---2-------2-----------2--|1---1---1-------1--------------|
  D|-------------------------------|-------------------------------|
                                                    Dear


  e|2------ ------- 2------ ----2--|2---2-- 2------ 2------ ----2----|
  B|3---------------3-----------3--|3---3---3-------3-----------3----|
  G|2---------------2-----------2--|2---2---2-------2-----------2----|
  D|0---------------0-----------0--|0---0---0-------0-----------0----|
  A|-------------------------------|3---3---3-------3-----------3----|
 D|-------------------------------|----------------------------------|
    Prudence
  e|------- ------- ------- -------|------- ------- ------- -------|
  B|-------------------------------|-------------------------------|
  G|-------------------------------|-------------------------------|
  D|4------------------------------|4---B---5-------7------ 7-B-9--|
  A|-------------------------------|-------------------------------|
  E|-------------------------------|-------------------------------|

  e|------- ------- ------- -------|------- ------- ------- -------|
  B|-------------------------------|-------------------------------|
  G11------------------------------11---B--12------14------14-B-16-|
  D|-------------------------------|-------------------------------|
  A|-------------------------------|-------------------------------|
  E|-------------------------------|-------------------------------|

  e|2---2-- 2------ 2------ ----2--|2---2-- 2------ 2------ -------|
  B|3---3---3-------3-----------3--|3---3---3-------3--------------|
  G|0---0---0-------0-----------0--|0---0---0-------0--------------|
  D|0---0---0-------0-----------0--|0---0---0-------0--------------|
  A|2---2---2-------2-----------2--|1---1---1-------1--------------|
  D|-------------------------------|-------------------------------|
                                            won't you come out  to
  e|------- ------- ------- -------|------- ------- ------- -------|
  B|-------------------------------|-------------------------------|
  G|-------------------------------|7-------9---R---7--------------|
  D|-------------------------------|------------------------7------|
  A|-------------------------------|-------------------------------|
  E|-------------------------------|-------------------------------|

  e|------- ------- ------- -------|------- ------- ------- -------|
  B|-------------------------------|15------17---R--15-------------|
  G|-------------------------------|------------------------14-----|
  D|-------------------------------|-------------------------------|
  A|-------------------------------|-------------------------------|
  E|-------------------------------|-------------------------------|

  e|2------ ------- 2------ -------|2------
5 comments total. Showing first comments.
+2 reply
jman272 wrote on May 11 2009, 10:57 am

All the tabs are great...
But you have bungalow bill on there 3 times and the its missing the last 3 songs and most of rocky racoon
But by far the best tabs for any white album song

0 reply
revelatory john wrote on May 15 2009, 06:05 pm

Yep, apart from the points made by jman this is a brilliant, painstaking tab. Very helpful.

0 reply
nrrjw wrote on March 30 2010, 06:25 pm

Yeah, you should fix it if you can. 5 stars anyway!

I want to post or [tab]
guest
You may want to rate the tab now too:
select rating
Please do not post tabs as comments. Select "correction" instead!