Oops, an error
Loading. Please wait.

With The Beatles Tab

ver3
ver3

Album

More versions @911Tabs.com
3,248 views 6 this week
no commentswrite comment
1 2 3 4 5
excellent!
x 1
add to favorites launch autoscroll
font size
0
reset
Autoscroll
+/-
esc
set tempo
stop
Contributor
Difficulty
intermediate
WARNING: You are trying to view
                                    content from Ultimate-Guitar.com
                                    in an unauthorized application,
                                    which is prohibited.

                                    Please use an official Ultimate
                                    Guitar Tabs application for iPhone,
                                    iPad or Android to access legitimate
                                    chords, guitar, bass, and drum tabs
                                    from Ultimate-Guitar.com database.

                                    Type "ultimate guitar tabs" in Apple
                                    App Store's or Android Market's
                                    search to find the application.
I'm puttin' this out here 'cause, even if there already was two here, was one some
wrongs in and the other was only tabs, and I wanted a bit more chords... So here you are.

_____________________________________________________________________________

WITH THE BEATLES

1.	It won't be long
2.	All I've got to do
3.	All my loving
4.	Don't bother me
5.	Little child
6.	Till there was you
7.	Please mister postman
8.	Roll over Beethoven
9.	Hold me tight
10.	You've really got a hold on me
11.	I wanna be your man
12.	Devil in her heart
13.	Not a second time
14.	Money

_____________________________________________________________________________

Intro:

            C#m
It won't be long Yeah (yeah) Yeah (yeah) Yeah
             E
It won't be long Yeah (yeah) Yeah (yeah) Yeah
            C#m                   A            E
It won't be long Yeah (yeah) till I belong to you

Fill 1: (Played Twice)

   E
E|---------------------------------|
B|---------------------------------|
G|---------------------------------|
D|---------2---1-------------------|
A|-----------------2/4-2-----------|
E|-0-----------------------3-------|
   ^       ^       ^       ^

Verse 1:

A                 C             E
Every night when everybody has fun (Fill 1)
A          C                 E
Here I am sitting all on my own (Fill 1)

Fill 2:

   E
E|---------------------------------|
B|---------------------------------|
G|---------------------------------|
D|---------2---1-------------------|
A|-----------------2/4-2-------2---|
E|-0-----------------------4-------|
   ^       ^       ^       ^

Chorus:

            C#m
It won't be long Yeah (yeah) Yeah (yeah) Yeah
             E
It won't be long Yeah (yeah) Yeah (yeah) Yeah
            C#m                   A            E
It won't be long Yeah (yeah) till I belong to you (Fill 1 two times)


Bridge:

           E        D#
Since you left me  I'm so alone
            D              C#7
Now you're coming  you're coming on home
 A                   B7
I'll be good like I know I should
              F#m7                 B7
You're coming home  you're coming home


Verse 2:

A                 C                      E
Every night the tears come down from my eyes (Fill 1)
A          C                     E
Every day I've done nothing but cry (Fill 1) (Fill2)


Chorus:

            C#m
It won't be long Yeah (yeah) Yeah (yeah) Yeah
             E
It won't be long Yeah (yeah) Yeah (yeah) Yeah
            C#m                   A            E
It won't be long Yeah (yeah) till I belong to you (Fill 1 two times)


Bridge:

           E        D#
Since you left me  I'm so alone
            D              C#7
Now you're coming  you're coming on home
 A                   B7
I'll be good like I know I should
              F#m7                 B7
You're coming home  you're coming home


Verse 3:

A          C                E
Every day we'll be happy I know (Fill 1)
A                C                     E
Now I know that you won't leave me no more (Fill 1) (Fill2)


Chorus:

            C#m
It won't be long Yeah (yeah) Yeah (yeah) Yeah
             E
It won't be long Yeah (yeah) Yeah (yeah) Yeah
            C#m                   A
It won't be long Yeah (yeah) till I belong to you
G    F#7    Fmaj7    Emaj7
                     Woooo


_____________________________________________________________________________


All I've Got To Do
The Beatles

Verse1.
Whenever[C#m]I want you[E]around, yeah,
All I've got to[C#m]do, is[F#m]call you an the phone,
And you come running home,
yeah that's all I[E]gotta do.

Verse2.
And when I, I wanna[E]kiss you, yeah,
All I've got to do, is whisper in your ear,
The words you want to hear,
And I'll be kissing you.

Chorus.
And the same goes for[E]me, whenever you want me at all,
I'll be[F#m]here, yes i will, whenever you call,
You[A]just got to call on[E]me, yeah,
You[A]just got to call on me.

Verse 3.
And when I, I want to kiss you, yeah,
All i want to do, is call you on the phone,
And you'll come running home,
Yeah thats all i got to do.
M-m-[F#m]m-m-m-m-m- m-m-m-m-m-[E]m

_____________________________________________________________________________

All My Lovin'
The Beatles

CAPO 2ND FRET*


           Em            A7          D           Bm
Close your eyes and I´ll kiss you, tomorrow i´ll miss you,
  G           Em        C     A7
remember I´ll always be true.
         Em         A7             D         Bm
And then while I´m away I´ll write home everyday
         G           A         D
and I´ll send all my loving to you.

        Em            A7           D         Bm
I´ll pretend that I´m kissing, the lips I am missing
    G            Em               C     A7
and hope that my dreams will come true.
         Em         A7             D         Bm
And then while I´m away I´ll write home everyday
         G           A         D
and I´ll send all my loving to you.

       Bm     F#7            D
All my loving I will send to you.
       Bm      F#7             D
All my loving, darling I´ll be true.

           Em            A7          D           Bm
Close your eyes and I´ll kiss you, tomorrow I´ll miss you,
  G           Em        C     A7
remember I´ll always be true.
         Em         A7             D         Bm
And then while I´m away I´ll write home everyday
         G           A         D
and I´ll send all my loving to you.

       Bm     F#7               D
All my loving I´ll will send to you.
       Bm      F#7             D
All my loving, darling I´ll be true.

_____________________________________________________________________________

Don't Bother Me
The Beatles

Chords used:

D:  x5777x    A:  xx-11-9-10-9--|
Em: x79987    C:  8-10-10-9-8-8-|
Bm: 799777
Am: 577555
G:  355433

D Em

                 Bm             Am             G         Em
Since she's been gone I want no-one to talk to me
             Bm               Am                   G     n.C.
It's not the same but I am to blame, it's plain to see
       Em             A           Em
So go away, leave me alone, don't bother me

          Bm             Am                   G     Em
I can't believe that she would leave me on my own
              Bm               Am             G       n.C.
It's just not right when every night I'm all alone
            Em                 A                 Em
I've got no time for you right now, don't bother me

            D            Em
I know I'll never be the same
           D             Em
If I don't get her back again
          Bm                 Am
Because I know she'll always be
    C            Em
The only one for me

               Bm                     Am              G      Em
But 'til she's here please don't come near just stay away
             Bm                   Am              G       n.C.
I'll let you know when she's come home until that day
            Em               A                  Em
Don't come around, leave me alone, don't bother me

Bm Am G Em Bm Am G n.C.
(guitar solo)

            Em                 A                 Em
I've got no time for you right now, don't bother me

            D            Em
I know I'll never be the same
           D             Em
If I don't get her back again
          Bm                 Am
Because I know she'll always be
    C            Em
The only one for me

               Bm                     Am              G      Em
But 'til she's here please don't come near just stay away
             Bm                   Am              G       n.C.
I'll let you know when she's come home until that day
            Em               A                  Em
Don't come around, leave me alone, don't bother me

A                  Em
  Don't bother me      (rpt til fade)

_____________________________________________________________________________

Little Child
The Beatles

E    |A    |E7    |./.
=====================================================================CHORUS:

      |E7           |./.          |E7              A         |E7    |
LITTLE CHILD, LITTLE CHILD, LITTLE CHILD WON'T YOU DANCE WITH ME?

B7            |A      |F#7                    |B7
I'M SO SAD AND LONELY, BABY TAKE A CHANCE WITH ME.

      |E7           |./.          |E7              A         |E7    |
LITTLE CHILD, LITTLE CHILD, LITTLE CHILD WON'T YOU DANCE WITH ME?

B7            |A      |F#7         B7         |E
I'M SO SAD AND LONELY, BABY TAKE A CHANCE WITH ME.
--------------------------------------------------------------------------1:

      |E                       |B7                      |E
IF YOU WANT SOMEONE TO MAKE YOU FEEL SO FINE, THEN WE'LL HAVE SOME FUN

           |./.                   |F#7               |B7
WHEN YOU'RE MINE ALL MINE. SO COME ON, COME O-N, COME O-N.
=====================================================================CHORUS:

      |E7           |./.          |E7              A         |E7    |
LITTLE CHILD, LITTLE CHILD, LITTLE CHILD WON'T YOU DANCE WITH ME?

B7            |A      |F#7         B7         |E       |
I'M SO SAD AND LONELY, BABY TAKE A CHANCE WITH ME, WO-W.
***********************************************************************SOLO:

E7    |./.   |./.   |./.   |A     |./.    |

E7    |./.   |B7    |A     |F#7   |B7
--------------------------------------------------------------------------2:

           |E                    |B7                 |E
WHEN YOU'RE BY MY SIDE YOU'RE THE ONLY ONE, DON'T YOU RUN AND HIDE

         |./.                   |F#7               |B7
JUST COME ON, COME ON, YEAH COME ON, COME O-N, COME O-N.
=====================================================================CHORUS:

      |E7           |./.          |E7              A         |E7    |
LITTLE CHILD, LITTLE CHILD, LITTLE CHILD WON'T YOU DANCE WITH ME?

B7            |A      |F#7         B7         |E      C#7  |
I'M SO SAD AND LONELY, BABY TAKE A CHANCE WITH ME, OH YEA-H.
++++++++++++++++++++++++++++++++++++++++++++++++++++++++++++++++++++++OUTRO:

F#7         B7         |E      C#7  |
BABY TAKE A CHANCE WITH ME, OH YEA-H. (: Repeat and Fade Out)

_____________________________________________________________________________


Till There Was You
The Beatles

This is proably wrong...

Intro

-1-----|-----------|-------|------|
---1---|-----------|-3-----|------|
-----2-|-----------|---3---|------|
-------|-4---------|-----5-|------|
-------|-----------|-------|-3----|
-------|-----------|-------|------|
 F       B7          Gm      C7

            F          B7
There were bells on a hill
       Gm               Bbm
But I never heard them ringing
      F     Am     G#m   Gm  C7
No I never heard them at all
                 F Gm C7
Till there was you

            F             B7
There were birds in the sky
       Gm             Bbm
But I never saw them winging
      F     Am   G#m   Gm  C7
No I never saw them at all
                 F B7
Till there was you

                Bb   Bbm                F
Then there was music     and wonderful roses
     D              Gm  Gm7+           G7         C7 (2)    C7/5+
They   tell me in sweet      fragrant meadows of dawn and you

           F         B7
There was love all around
       Gm             Bbm
But I never heard it singing
      F     Am   G#m   Gm  C7
No I never heard it at all
                 F Gm C7
Till there was you


Then the solo. It's played by two guitars, so I tried to merge the lines

-----|---1-----|---------|-----------|---------|---3-5-3-|-5-3-5-3-|
-----|-1---3-1-|---------|-----1-4---|-3-1-----|---3-3-3-|-3-3-3-3-|
-2-3-|---------|-3-2-0---|---2-------|-----3-2-|-3-3-3-3-|-3-3-3-3-|
-----|---------|-------3-|-4---------|---------|---------|---------|
-----|---------|---------|-----------|---------|---------|---------|
-----|---------|---------|-----------|---------|---------|---------|
       F                   B7                    Gm

---6-8-6-|-8-6-8-6-|-- -10-|-8--7---|-6--|-5----|-1-1---|-----|
---6-6-6-|-6-6-6-6-|-- -10-|-5--4---|-3--|-5----|-----1-|-----|
-6-6-6-6-|-6-6-6-6-|-- -10-|-5--4---|-3--|-3----|-------|-2---|
---------|---------|-10-- -|-7--6---|-5--|-5----|-------|-----|
---------|---------|-------|--------|----|-3----|-------|---0-|
---------|---------|-------|--------|----|-3----|-------|-----|
 Bbm                 F       Am G#m   Gm   C7     F

-----------|-----1-|
-----------|---1---|
-----------|-2-----|
---1-4-----|-------|
-3---------|-------|
-----------|-------|
 B7          Then there was

 Bb   Bbm                F
music     and wonderful roses
     D              Gm  Gm7+           G7         C7       C7/5+
They   tell me in sweet      fragrant meadows of dawn and you

           F         B7
There was love all around
       Gm             Bbm
But I never heard it singing
      F     Am   G#m   Gm  C7/9
No I never heard it at all
                 F
Till there was you

 C E C7 (1)             F   C#  F     F7+
Tiiiiiill   there was youuuuuuuuuuuuu

_____________________________________________________________________________

Please Mr. Postman
The Beatles  (The Marvelettes)

Intro
-----
A
(Wait!) Oh yeah, wait a minute mister postman
F#m
(Wait!) Waa--aa-aaaaa----ait   mister postman

Chorus
------
A
Mister postman look and see (oh yeah)
F#m
Is there  a letter in your bag for me? (Please, please, mr postman)
D
I've been waiting such a long time (woah yeah)
E
Since I heard from that girlfriend of mine

Verse 1
-------
A
There must be some word today
F#m
>From my girlfriend so far away
D
Please Mr. Postman look and see
E
If there's a letter, a letter for me

Verse 2 (do you see a chord pattern emerging?....)
-------
I've been standing waiting mister postman
So  -   ooo --o ooo  so patiently
For just a card or just a letter
Saying she's returning home to me

Chorus
Verse 3
-------
So many days you pass me by
You saw the tear standing in my eye
You wouldn't stop to make me feel better
By leaving me a card or a letter

Chorus

Outro
You better wait a minute, wait a minute (oh yeah)
Wait a minute, wait a minute (You gotta)
Wait a minute, wait a minute
Check it and see one more time for me (You gotta)

Wait a minute, wait a minute (oh yeah)
Wait a minute, wait a minute (oh yeah)
Mister po-oo---ooo--stman,
Deliver the de letter the sooner the better

Wait a minute, wait a minute etc.....

_____________________________________________________________________________

Roll Over Beethoven
The Beatles (Chuck Berry)

E
I'm gonna write a little letter,
E
Gonna mail it to my local DJ.
       A
It's a rockin' rhythm record
                    E
I want my jockey to play.
     B                                       E
Roll over Beethoven, I gotta hear it again today.

You know, my temperature's risin'
And the jukebox blows a fuse.
My heart's beatin' rhythm
And my soul keeps on singin' the blues.
Roll over Beethoven and tell Tchaikovsky the news.

I got the rockin' pneumonia,
I need a shot of rhythm and blues.
I think I'm rollin' arthritis
Sittin' down by the rhythm review.
Roll over Beethoven rockin' in two by two.


BRIDGE
E
well, if you feel you like it
E
go get your lover, then reel and rock it.
E                A
roll it over and move on up just
A                    E
a trifle further and reel and rock it, roll it over,
E    B
roll over Beethoven rockin' in two by two.


Well, early in the mornin' I'm a-givin' you a warnin'
Don't you step on my blue suede shoes.
Hey diddle diddle, I am playin' my fiddle,
Ain't got nothin' to lose.
Roll over Beethoven and tell Tchaikovsky the news.

You know she wiggles like a glow worm,
Dance like a spinnin' top.
She got a crazy partner,
Oughta see 'em reel and rock.
Long as she got a dime the music will never stop.

Roll over Beethoven,
Roll over Beethoven,
Roll over Beethoven,
Roll over Beethoven,
Roll over Beethoven and dig these rhythm and blues.

_____________________________________________________________________________


Hold Me Tight
The Beatles

Intro:

F      C
  It feels so right now


Verse 1:

F        Bb
Hold me tight,

G               C
Tell me I'm the only one,

     F      Bb
And then I might,

 G            C
Never be the lonely one.

    F        F7      Bb       Bbm
So hold me tight, to-night, to-night,

     F           Bbm
It's you,

           F       C
 You you you


Bridge 1:

(Ab)   F    Ab                 F
Don't know what it means to hold you tight,

Bb           Gm                 G
Being here alone tonight with you,

C
It feels so right now.


Verse 3:

F       Bb
Hold me tight,

G                C
 Tell me I'm the only one,

      F     Bb
And then I might,

G            C
Never be the lonely one,

    F       F7        Bb        Bbm
So hold me tight, to-night, to-night,

      F    Bbm
It's you,
         F      Ab
You you you


Bridge 2:

(Ab)   F   Ab               F
Don't know what it means to hold you tight,

Bb            Gm                 G
Being here alone tonight with you,

C
It feels so right now.


Verse 4:

F        Bb
Hold me tight,

G            C
Let me go on loving you,

 F         Bb
To-night to-night,

 G              C
Making love to only you,

    F         F7       Bb       Bbm
So hold me tight, to-night, to-night,

     F     Bbm
It's you,

          F    Ab    F
You you you

Ab     F
You

_____________________________________________________________________________

You Really Got a Hold On Me
The Beatles   (Smokey Robinson and the Miracles)

"Riff" 1
e--------------------------|
B--------------------------|
G--------------------------|
D--------------------------|
A------------0--2--0-----0-|
E--0---0--2-----------2----|


"Riff" 2
  A                      F#m
e----------------------------|
B----------------------------|
G----------------------------|          x2
D----------------------------|
A--4---4---4---2---0---2-----|
E-------------------------2--|


I play the chords as a waltz. Down Up Up.

A
I don't like you, but I love you
F#m
Seems that I'm always thinking of you
A     A7               D                  B7
Though,oh,oh, you treat me badly, I love you madly,
     E7          A
you really got a hold on me (you really got a hold on me )
     F#m
you really got a hold on me (you really got a hold on me ) baby,

A
I don't want you, but I need you
F#m
Don't wanna kiss you, but I need to
A        A7           D                     B7
Though, oh, oh, you do me wrong now, my love is strong now,
    E7            A
you really got a hold on me (you really got a hold on me )
   F#m
you really got a hold on me (you really got a hold on me ) baby,
     A       A7            D
      I love you and all I want you to do is just
    A         A        A        E7
      Hold me, hold me, hold me, hold me...


A
I wanna leave you, don't wanna stay here
F#m
Don't wanna spend another day here
A       A7           D                    B7
Oh, oh, oh, I wanna split now, I just can quit now
    E7           A
you really got a hold on me (you really got a hold on me )
    F#m
you really got a hold on me (you really got a hold on me ) baby,
   A        A7             D
     I love you and all I want you to do is just
    A               A                A        E7
     Hold me please, hold me squeeze, hold me, hold me...

Guitar 1 riff

     A
You really got a hold on me (you really got a hold on me )
     F#m
You really got a hold on me (you really got a hold on me )

_____________________________________________________________________________

I Wanna Be Your Man
The Beatles

Opening Lick:

E|---------------------------------|
B|---------------------------------|
G|-2(4)hold--(4)release-2----------|
D|-------------------------0-------|
A|---------------------------------|
E|---------------------------------|
   ^       ^       ^       ^

Verse 1:

E7
I wanna be your lover baby  I wanna be your man

I wanna be your lover baby  I wanna be your man


Love you like no other baby  like no other can

Love you like no other baby  like no other can


Chorus:

E7                  F#7
I wanna be your man

Fill 1:
E|---------14-----13---12----11----|
B|---------------------------------|
G|---------11-----10----9-----8----|
D|---------------------------------|
A|---------------------------------|
E|---------------------------------|
   ^       ^       ^       ^

B7                  E
I wanna be your man

Fill 2:
E|---------12-----11---10-----9----|
B|---------------------------------|
G|----------9------8----7-----6----|
D|---------------------------------|
A|---------------------------------|
E|---------------------------------|
   ^       ^       ^       ^

C#7                 F#7
I wanna be your man      (Fill 1)
B7               E  D/E
I wanna be your man


Verse 2:

E7
Love you like no other baby  like no other can

Love you like no other baby  like no other can


Chorus:

E7                  F#7
I wanna be your man     (Fill 1)
B7                  E
I wanna be your man     (Fill 2)
C#7                 F#7
I wanna be your man     (Fill 1)
B7               E  D/E
I wanna be your man


Verse 3:

Tell me that you love me baby  Let me understand

Tell me that you love me baby  I wanna be your man


I wanna be your lover baby  I wanna be your man

I wanna be your lover baby  I wanna be your man


Chorus:

E7                  F#7
I wanna be your man     (Fill 1)
B7                  E
I wanna be your man     (Fill 2)
C#7                 F#7
I wanna be your man     (Fill 1)
B7               E  D/E
I wanna be your man


Solo:


   E7
E|---------------------------------|--------------------------------|
B|---------------------------------|--------------------------------|
G|---------2b(4)--------------2b(4)|------------2b(4)r2--0----------|
D|---------------------------------|-------------------------2------|
A|---------------------------------|--------------------------------|
E|---------------------------------|--------------------------------|
   ^       ^       ^       ^         ^       ^       ^       ^

E|---------------------------------|--------------------------------|
B|---------------------------------|--------------------------------|
G|-------------0-----------2-------|-2b(4)------2b(4)r2--0----------|
D|-2-------------------------------|-------------------------2------|
A|---------------------------------|--------------------------------|
E|---------------------------------|--------------------------------|
   ^       ^       ^       ^         ^       ^       ^       ^

E|---------------------------------|--------------------------------|
B|---------9-----------7-----------|-9----------12-----------9------|
G|---------9-----------7-----------|-9----------12-----------9------|
D|---------9-----------7-----------|-9----------12-----------9------|
A|---------------------------------|--------------------------------|
E|---------------------------------|--------------------------------|
   ^       ^       ^       ^         ^       ^       ^       ^

E|---------------------------------|--------------------------------|
B|---------9-----------7-----------|-9----------12------------------|
G|---------9-----------7-----------|-9----------12------------------|
D|---------9-----------7-----------|-9----------12------------------|
A|---------------------------------|--------------------------------|
E|---------------------------------|--------------------------------|
   ^       ^       ^       ^         ^       ^       ^       ^

E|---------------------------------|--------------------------------|
B|--------12---9-------------------|-7-----------9------------------|
G|--------12---9-------------------|-7-----------9------------------|
D|--------12---9-------------------|-7-----------9------------------|
A|---------------------------------|--------------------------------|
E|---------------------------------|--------------------------------|
   ^       ^       ^       ^         ^       ^       ^       ^

E|---------------------------------|--------------------------------|
B|--------12---9-------------------|-7-----------9------------------|
G|--------12---9-------------------|-7-----------9------------------|
D|--------12---9-------------------|-7-----------9------------------|
A|---------------------------------|--------------------------------|
E|---------------------------------|--------------------------------|
   ^       ^       ^       ^         ^       ^       ^       ^

Verse 4:

I wanna be your lover baby  I wanna be your man

I wanna be your lover baby  I wanna be your man


Love you like no other baby  like no other can

Love you like no other baby  like no other can


Chorus:

E7                  F#7
I wanna be your man     (Fill 1)
B7                  E
I wanna be your man     (Fill 2)
C#7                 F#7
I wanna be your man     (Fill 1)
B7               E  D/E
I wanna be your man


Coda:

E7
I wanna be your man   oh    I wanna be your man   oh

I wanna be your man   ho  ho

_____________________________________________________________________________


Devil In Her Heart
The Beatles  (Ricky Dee)

Intro:

   Am7                               D7
E|-------8----7----5-----------3---|-5----5----3--------------------|
B|-------10---8----7-----------5---|-7----7----5-----7----5----3----|
G|---------------------------------|-----------------7----5----4----|
D|---------------------------------|--------------------------------|
A|---------------------------------|--------------------------------|
E|---------------------------------|--------------------------------|
   ^       ^       ^       ^         ^       ^       ^       ^

   G
E|---------------------------------|
B|---------3---5---3---3---2---1---|
G|---------4---5---4---4---3---2---|
D|---------------------------------|
A|---------------------------------|
E|---------------------------------|
   ^       ^       ^       ^
Chorus:
                           Am7
She's got the devil in her heart
D7                        G
   But her eyes they tantalize
                            Am7
She's gonna tear your heart apart
D7                        G
   Oh her lips are really thrilling

Fill 1:

   G7
E|---------------------------------|
B|---------0---0---1---1---3---3---|
G|---------0---0---2---2---4---4---|
D|---------------------------------|
A|---------------------------------|
E|---------------------------------|
   ^       ^       ^       ^
Verse 1:

C                    Cm                G
I'll take my chances    for romance is
                G7
So important to me   (Fill 1)
C                    Cm                     A7
She'll never hurt me    she won't desert me
                       D7
She's an angel sent to me

Chorus:
                           Am7
She's got the devil in her heart     no
D7                 G
no this I can't believe
                            Am7
She's gonna tear your heart apart
D7                       G
   No no nay will she deceive  (Fill 1)

Verse 2:

C                           Cm
I can't believe that she'll ever ever go
G                      G7
Not when she hugs and says she loves me so  (Fill 1)
C                    Cm                     A7
She'll never hurt me    she won't desert me
                  D7
Listen can't you see?

Chorus:
                           Am7
She's got the devil in her heart  oh no no
D7                   G
no   this I can't believe
                            Am7
She's gonna tear your heart apart
D7                       G
   No no nay will she deceive  (Fill 1)

Verse 3:

C                  Cm
Don't take chances    if your romance is
G               G7
So important to you (Fill 1)
C                    Cm                     A7
She'll never hurt me    she won't desert me
                       D7
She's an angel sent to me

Chorus:
                           Am7
She's got the devil in her heart  oh no no
D7                    G
no no this I can't believe
                            Am7
She's gonna tear your heart apart
D7                       G
   No no nay will she deceive

Coda:

(Play intro figure over the Am7 D7 and G chords)

                           Am7
She's got the devil in her heart
D7                        G
No she's an angel sent to me
                           Am7
She's got the devil in her heart
D7                        G
No she's an angel sent to me

Finish the song by strumming this chord:

   G10
E|----10---------------------------|
B|----10---------------------------|
G|----9----------------------------|
D|----9----------------------------|
A|----10---------------------------|
E|---------------------------------|

_____________________________________________________________________________


Not A Second Time
The Beatles

Verse:
G                    Em
You know you made me cry
G                         Em
I see no use in wonderin' why
   D       G        D7
I cry for you
G                          Em
And now you've changed you mind
G                          Em
I see no reason to change mine
   D        Am7       D7
I cry it's through

Chorus:
Am7                  Bm7
You're giving me the same old line
G             Em
I'm wondering why
Am
You hurt me then  You're back again
Bm       D7               Em
No    no no, not a second time

Solo:
Am7      Bm7
G        Em
Am
Bm       D7
Em

Verse:
G                    Em
You know you made me cry
G                         Em
I see no use in wonderin' why
   D       G        D7
I cry for you
G                          Em
And now you've changed you mind
G                          Em
I see no reason to change mine
   D        Am7       D7
I cry it's through

Chorus:
Am7                  Bm7
You're giving me the same old line
G             Em
I'm wondering why
Am
You hurt me then  You're back again
Bm       D7               Em
No    no no, not a second time
              G         Em
Not a second time
                G         Em
Not the second time
            G           Em
No no no no no    no no no

_____________________________________________________________________________


Money (That's what I Want)
The Beatles  (Barrett Strong)

A---------------------------------|
E---0-0-3-0-5-3-0-3-0-5---5-5-3---|

e---------7-7-7-------5-5-5---------------|
B---------7-7-7-------5-5-5---------------|
G---------8-8-8-------6-6-6---------------|
D---9-9-9-9-9-9-7-7-7-7-7-7---------------|
A---9-9-9-9-9-9-7-7-7-7-7-7---------------|
E---7-7-7-7-7-7-5-5-5-5-5-5-0-0-3-0-5-3-0-|  B5


E5                               A5 E5
The best thing in life are free
                                         B5
You can keep them for the birds and bees      Now give me

Chorus:
A5
Money (that's what I want)
                  E5
That's what I want  (that's what I want)
               B5  A5
That's what I want  (that's what I want)
E5       A5    E5  B5
That's what I want

E5                         A5 E5
You never give me a thrill
                              B5
No lovin' don't pay me bills      Now give me

Chorus:
A5
Money (that's what I want)
                  E5
That's what I want  (that's what I want)
               B5  A5
That's what I want  (that's what I want)
E5       A5    E5  B5
That's what I want


A---------------------------------|
E---0-0-3-0-5-3-0-3-0-5---5-5-3---|

e---------7-7-7-------5-5-5---------------|
B---------7-7-7-------5-5-5---------------|
G---------8-8-8-------6-6-6---------------|
D---9-9-9-9-9-9-7-7-7-7-7-7---------------|
A---9-9-9-9-9-9-7-7-7-7-7-7---------------|
E---7-7-7-7-7-7-5-5-5-5-5-5-0-0-3-0-5-3-0-|  B5


E5                         A5 E5
You never give me a thrill
                              B5
No lovin' don't pay me bills      Now give me


Chorus:
A5
Money (that's what I want)
                  E5
That's what I want  (that's what I want)
               B5  A5
That's what I want  (that's what I want)
E5       A5    E5  B5
That's what I want


Repeat chorus till you get blue in the face

_____________________________________________________________________________

Hope you'll enjoy it!
comments
We did not receive enough feedback on this tab! Please rate:
print report bad tab
1 2 3 4 5
I want to post or [tab]
guest
You may want to rate the tab now too:
select rating
Please do not post tabs as comments. Select "correction" instead!