Oops, an error
Loading. Please wait.

Yer Blues Bass Tab

ver1
ver1

Whole song

Interactive

More versions @911Tabs.com
20,258 views 50 this week
no commentswrite comment
1 2 3 4 5
excellent!
x 4
Autoscroll
+/-
esc
set tempo
stop
Contributor
Hey! There's an official Ultimate Guitar app which is ideal
for learning songs when you're away from computer. Get the app
WARNING: You are trying to view
                                    content from Ultimate-Guitar.com
                                    in an unauthorized application,
                                    which is prohibited.

                                    Please use an official Ultimate
                                    Guitar Tabs application for iPhone,
                                    iPad or Android to access legitimate
                                    chords, guitar, bass, and drum tabs
                                    from Ultimate-Guitar.com database.

                                    Type "ultimate guitar tabs" in Apple
                                    App Store's or Android Market's
                                    search to find the application.
YER BLUES

Written by John Lennon

VERSE
  t=77
  12/8
G|-------------------------------------------------|
D|-------------------------------------------------|
A|-------------------------------------------------|
E|-0-----------------------0-------0---0-----------|

G|-------------------------------------------------|
D|-------------------------------------------------|
A|-------------------------------------------------|
E|-0-----------------------0-------0---0-----------|

G|-------------------------------------------------|
D|-------------------------------------------------|
A|-------------------------------------------------|
E|-5-----------------------5-------5---5---6---7---|

G|-------------------------------------------------|
D|-------------------------------------------------|
A|-------------------------------------------------|
E|-0-----------0-----------0-----------0-------2---|

  6/8                       8/8
G|-------------------------|---------------------------------|
D|-------------------------|---------------------------------|
A|-------------------------|---------------------------------|
E|-3-----------3-------5---|-7\------------------------------|

  12/8
G|-------------------------------------------------|
D|-------------------------------------------------|
A|-------------------------------------------------|
E|-0-------4---5-------6---7---0---7---7---7---7---|

VERSE

G|-------------------------------------------------|
D|-------------------------------------------------|
A|-7-----------7-----------7-----------777-7-5-----|
E|---------------------------------------------7-3-|

G|-------------------------------------------------|
D|-------------------------------------------------|
A|---------7---7-------7---7-------7---75----------|
E|-0-------------------------------------7-0---3---|

G|-------------------------------------------------|
D|-------------------------------------------------|
A|-------------------------------------------------|
E|-5-------5---5-------5---5-------5---5---6---7---|

G|-------------------------------------------------|
D|-------------------------------------------------|
A|-7-------7---7-------7---7-------7---7-----------|
E|-----------------------------------------0---2---|

  6/8                       8/8
G|-------------------------|---------------------------------|
D|-------------------------|---------------------------------|
A|-------------------------|---------------------------------|
E|-3-------3---3---4---5---|-7\------------------------------|

  12/8
G|-------------------------------------------------|
D|-------------------------------------------------|
A|-7-----------------------------------2---2---2---|
E|---------3---5-------7---0---0---0---------------|

BRIDGE
  t=105
  4/4
G|---------------------------------|---------------------------------|
D|---------------------------------|---------------------------------|
A|---------------------------------|---------------------------------|
E|-0-----------------------7-------|-0-----------------------7-------|

                                    6/8
G|---------------------------------|-------------999-9-9-9---|
D|---------------------------------|-------------------------|
A|---------------------------------|-------------------------|
E|-0-------------------------------|-----------------------4-|

VERSE
  t=77
  12/8
G|-------------------------------------------------|
D|-------------------------------------------------|
A|-------------------------------------------------|
E|-5---5---5---5---5---5-5-5---5---5---5---6---7---|

G|-------------------------------------------------|
D|-------------------------------------------------|
A|-------------------------7-------7---7-------5---|
E|-0-----------0---5---3---------------------------|

  6/8                       8/8
G|-------------------------|---------------------------------|
D|-------------------------|---------------------------------|
A|-------------------------|---------------------------------|
E|-3-------3---3---5---6---|-7-------------------------------|

  12/8
G|-------------------------------------------------|
D|-------------------------------------------------|
A|-------------------------------------------------|
E|-0-------4---5-------6---7---0---7---7---7---7---|

BRIDGE
  t=105
  4/4
G|---------------------------------|---------------------------------|
D|---------------------------------|---------------------------------|
A|-7-------------------------------|---------------------------------|
E|-------------------------7-------|-0-----------------------7-------|

                                    6/8
G|---------------------------------|-------------999-9-9-9---|
D|---------------------------------|-------------------------|
A|---------------------------------|-------------------------|
E|-0-------------------------------|-----------------------4-|

VERSE
  t=77
  12/8
G|-------------------------------------------------|
D|-------------------------------------------------|
A|-------------------------------------------------|
E|-5---5---5---5---5---5-5-5---5---5---5---6---7---|

G|-------------------------------------------------|
D|-------------------------------------------------|
A|-7---7---7---7---7---6---7---7---7---7-----------|
E|-----------------------------------------0---2---|

  6/8                       8/8
G|-------------------------|---------------------------------|
D|-------------------------|---------------------------------|
A|-------------------------|---------------------------------|
E|-3-------3---3---5---6---|-7-------------------------------|

  12/8
G|-------------------------------------------------|
D|-------------------------------------------------|
A|-------------------------------------------------|
E|-0-------4---5-------6---7---0---7---7---7---7---|

BRIDGE
  t=105
  4/4
G|---------------------------------|---------------------------------|
D|---------------------------------|---------------------------------|
A|-7-------------------------------|---------------------------------|
E|-------------------------7-------|-0-----------------------7-------|

G|---------------------------------|---------------------------------|
D|---------------------------------|---------------------------------|
A|---------------------------------|---------------------------------|
E|-0-------------------------------|-0-------2-------3-------4-------|

VERSE

G|---------------------------------|---------------------------------|
D|---------------------------------|---------------------------------|
A|---------4-------5-------6----7--|---------4-------7-------4----7--|
E|-5-------------------------------|-5-------------------------------|

G|---------------------------------|---------------------------------|
D|---------------------------------|---------------------------------|
A|-----------------2------------2--|-----------------2------------2--|
E|-0-------4---------------4-------|-0-------4---------------4-------|

G|---------------------------------|---------------------------------|
D|---------------------------------|---------1-------4---------------|
A|---------2-------5-------2----5--|-2-----------------------2-------|
E|-3-------------------------------|---------------------------------|

G|---------------------------------|---------------------------------|
D|---------------------------------|---------------------------------|
A|---------------------------------|---------------------------------|
E|-0-------4-------5-------6-------|-7-------7-------7-------7-------|

GUITAR SOLO

G|---------------------------------|---------------------------------|
D|---------------------------------|---------------------------------|
A|-7-------7-------7-------7-------|-7-------7-------7-------7-------|
E|------7-------7-------7-------7--|------7-------7-------7-------7--|

G|---------------------------------|---------------------------------|
D|---------------------------------|---------------------------------|
A|-7-------7-------7-------7-------|-7-------7-------7-------7-------|
E|------7-------7-------7-------7--|------7-------7-------7-------7--|

G|---------------------------------|---------------------------------|
D|---------------------------------|---------------------------------|
A|---------------------------------|---------------------------------|
E|-5----5--5----5--5----5--5----3--|-5----5--5----3--5----3--5----3--|

G|---------------------------------|---------------------------------|
D|---------------------------------|---------------------------------|
A|-7----7--7-------7-------7-------|-7-------7-------7---------------|
E|--------------7-------7-------7--|------7-------7-------7--1----2--|

G|---------------------------------|---------------------------------|
D|---------------------------------|---------1-------4---------------|
A|-----------------2---------------|-2-----------------------2-------|
E|-3-------3---------------3-------|---------------------------------|

G|---------------------------------|---------------------------------|
D|---------------------------------|---------------------------------|
A|---------------------------------|---------4-------5-------6-------|
E|-0-------4-------5-------6-------|-7-------------------------------|

GUITAR SOLO

G|---------------------------------|---------------------------------|
D|---------------------------------|---------------------------------|
A|-7-------7-------7-------7-------|-7-------7-------7---------------|
E|------------------------------7--|----------------------4--5----7--|

G|---------------------------------|---------------------------------|
D|---------------------------------|---------------------------------|
A|-7-------7-------7---------------|-7-------7-------7---------------|
E|----------------------4--5----7--|----------------------0--2----4--|

G|---------------------------------|---------------------------------|
D|---------------------------------|---------------------------------|
A|---------------------------------|---------------------------------|
E|-5-------5-------5----0--2----4--|-5-------5-------5----0--2----0--|

G|---------------------------------|---------------------------------|
D|---------------------------------|-2----2--2----2--2---------------|
A|-----------------2----2--2----2--|---------------------------------|
E|-0-------0-----------------------|----------------------0--1----2--|

G|---------------------------------|---------------------------------|
D|---------------------------------|------------------------------0--|
A|---------------------------------|-2-------2-------2----2--2-------|
E|-3-------3-------3----3--3----5--|--------------2------------------|

                    t=77
  4/8               12/8
G|-----------------|-------------------------------------------------|
D|-2---------------|-------------------------------------------------|
A|-----------------|-------------------------------------------------|
E|-----------------|-0-----------------------0-------0---0-----------|

G|-------------------------------------------------|
D|-------------------------------------------------|
A|-------------------------------------------------|
E|-0-----------------------0-------0---0-----------|

G|-------------------------------------------------|
D|-------------------------------------------------|
A|-------------------------------------------------|
E|-5-----------------------5-------5---5---6---7---|

G|-------------------------------------------------|
D|-------------------------------------------------|
A|-------------------------------------------------|
E|-0-----------0-----------0-----------0-------2---|

  6/8                       8/8
G|-------------------------|---------------------------------|
D|-------------------------|---------------------------------|
A|-------------------------|---------------------------------|
E|-3-----------3-------5---|-7\------------------------------|

  12/8
G|-------------------------------------------------|
D|-------------------------------------------------|
A|-------------------------------------------------|
E|-0-------4---5-------6---7---0---7---7---7---7---|

G|-------------------------------------------------|
D|-------------------------------------------------|
A|-7-----------7-----------7-----------777-7-5-----|
E|---------------------------------------------7-3-|

G|-------------------------------------------------|
D|-------------------------------------------------|
A|---------7---7-------7---7-------7---75----------|
E|-0-------------------------------------7-0---3---|FADE OUT
comments
print report bad tab
I want to post or [tab]
guest
You may want to rate the tab now too:
select rating
Please do not post tabs as comments. Select "correction" instead!