Oops, an error
Loading. Please wait.

Deadweight Tab

by Beck
ver2
ver2

Whole song

More versions @911Tabs.com
1,962 views 3 this week
no commentswrite comment
1 2 3 4 5
excellent!
x 1
Autoscroll
+/-
esc
set tempo
stop
Contributor
Difficulty
Tabbers playing skills
novice
intermediate ++
WARNING: You are trying to view
                                    content from Ultimate-Guitar.com
                                    in an unauthorized application,
                                    which is prohibited.

                                    Please use an official Ultimate
                                    Guitar Tabs application for iPhone,
                                    iPad or Android to access legitimate
                                    chords, guitar, bass, and drum tabs
                                    from Ultimate-Guitar.com database.

                                    Type "ultimate guitar tabs" in Apple
                                    App Store's or Android Market's
                                    search to find the application.
-------------------------------------------------------------------------------
                             DEADWEIGHT - Beck
-------------------------------------------------------------------------------
Tabbed by: metallhead
Email: homesticky@gmail.com

Tuning: E A D G B E


Gtr I (E A D G B E) - 'Voice'
Gtr II (E A D G B E) - 'Guitar'

  Q=130
 4/4
  Gtr I
  E E E E +Q   Q    +E  E +Q   Q  Q    E E E E +Q   Q    +E  E +Q   Q  Q
|-1-4-------------|------------------|-1-4-------------|-------------------|
|-----6-----------|------------------|-----6-----------|-------------------|
|-------6-(6)--4--|-(4)-3-(3)--2--1--|-------6-(6)--4--|-(4)-3-(3)--2--1---|
|-----------------|------------------|-----------------|-------------------|
|-----------------|------------------|-----------------|-------------------|
|-----------------|------------------|-----------------|-------------------|


  E E E E +Q   Q    +E  E +Q   Q  Q    E E E E +Q   Q    +E  E +Q   Q  Q
|-1-4-------------|------------------|-1-4-------------|------------------|
|-----6-----------|------------------|-----6-----------|------------------|
|-------6-(6)--4--|-(4)-3-(3)--2--1--|-------6-(6)--4--|-(4)-3-(3)--2--1--|
|-----------------|------------------|-----------------|------------------|
|-----------------|------------------|-----------------|------------------|
|-----------------|------------------|-----------------|------------------|


  E E E E +Q    Q     +E  E +Q    Q    Q
|-1-4---------------|----------------------|
|-----6-------------|----------------------|
|-------6-(6)---4---|-(4)-3-(3)---2----1---|
|-------------------|----------------------|
|-------------------|----------------------|
|-------------------|----------------------|
|
| Gtr II
| Q   E E  E  E E E    E  E  E  E E E +Q
|-------------------|----------------------|
|-----5-5--5--5---5-|-----4-----4---3-(3)--|
|-----6-6--6--6---5-|---------------2-(2)--|
|-------------------|-----4-----4----------|
|-------------------|----------------------|
|-------------------|----------------------|


  E E E E +Q    Q     +E  E +Q    Q    Q
|-1-4---------------|----------------------|
|-----6-------------|----------------------|
|-------6-(6)---4---|-(4)-3-(3)---2----1---|
|-------------------|----------------------|
|-------------------|----------------------|
|-------------------|----------------------|
|
| Q   E E  E  E E E    E  E  E  E E E +Q
|-----0-0--0--0---0-|----------------------|
|-----2-2--2--2---1-|-----4-----4---3-(3)--|
|-------------------|---------------2-(2)--|
|-------------------|-----4-----4----------|
|-------------------|----------------------|
|-------------------|----------------------|


  E E E E +Q    Q     +E  E +Q    Q    Q
|-1-4---------------|----------------------|
|-----6-------------|----------------------|
|-------6-(6)---4---|-(4)-3-(3)---2----1---|
|-------------------|----------------------|
|-------------------|----------------------|
|-------------------|----------------------|
|
| Q   E E  E  E E E    E  E  E  E E E +Q
|-----0-0--0--0---0-|----------------------|
|-----2-2--2--2---1-|-----4-----4---3-(3)--|
|-------------------|---------------2-(2)--|
|-------------------|-----4-----4----------|
|-------------------|----------------------|
|-------------------|----------------------|


  E E E E +Q    Q     +E  E +Q    Q    Q
|-1-4---------------|----------------------|
|-----6-------------|----------------------|
|-------6-(6)---4---|-(4)-3-(3)---2----1---|
|-------------------|----------------------|
|-------------------|----------------------|
|-------------------|----------------------|
|
| Q   E E  E  E E E    E  E  E  E E E +Q
|-----0-0--0--0---0-|----------------------|
|-----2-2--2--2---1-|-----4-----4---3-(3)--|
|-------------------|---------------2-(2)--|
|-------------------|-----4-----4----------|
|-------------------|----------------------|
|-------------------|----------------------|


  W          W          E E E E H      W
|----------|----------|-1-4----------|------|
|----------|----------|-----6--------|------|
|----------|----------|-------6------|------|
|----------|----------|--------------|------|
|----------|----------|--------------|------|
|----------|----------|--------------|------|


  W          W          E E E E H      W
|----------|----------|---4----------|------|
|----------|----------|-6---6--------|------|
|----------|----------|-------6------|------|
|----------|----------|--------------|------|
|----------|----------|--------------|------|
|----------|----------|--------------|------|


  E E E E +Q   Q    +E  E +Q   Q  Q    E E E E +Q   Q    +E  E +Q   Q  Q
|---4-------------|------------------|-1-4-------------|------------------|
|-6---6-----------|------------------|-----6-----------|------------------|
|-------6-(6)--4--|-(4)-3-(3)--2--1--|-------6-(6)--4--|-(4)-3-(3)--2--1--|
|-----------------|------------------|-----------------|------------------|
|-----------------|------------------|-----------------|------------------|
|-----------------|------------------|-----------------|------------------|


  E E E E +Q    Q     +E  E +Q    Q    Q
|-1-4---------------|----------------------|
|-----6-------------|----------------------|
|-------6-(6)---4---|-(4)-3-(3)---2----1---|
|-------------------|----------------------|
|-------------------|----------------------|
|-------------------|----------------------|
|
| Gtr II
| Q   E E  E  E E E    E  E  E  E E E +Q
|-----0-0--0--0---0-|----------------------|
|-----2-2--2--2---1-|-----4-----4---3-(3)--|
|-------------------|---------------2-(2)--|
|-------------------|-----4-----4----------|
|-------------------|----------------------|
|-------------------|----------------------|


  E E E E +Q    Q     +E  E +Q    Q    Q
|-1-4---------------|----------------------|
|-----6-------------|----------------------|
|-------6-(6)---4---|-(4)-3-(3)---2----1---|
|-------------------|----------------------|
|-------------------|----------------------|
|-------------------|----------------------|
|
| Q   E E  E  E E E    E  E  E  E E E +Q
|-----0-0--0--0---0-|----------------------|
|-----2-2--2--2---1-|-----4-----4---3-(3)--|
|-------------------|---------------2-(2)--|
|-------------------|-----4-----4----------|
|-------------------|----------------------|
|-------------------|----------------------|


  E E E E +Q    Q     +E  E +Q    Q    Q
|-1-4---------------|----------------------|
|-----6-------------|----------------------|
|-------6-(6)---4---|-(4)-3-(3)---2----1---|
|-------------------|----------------------|
|-------------------|----------------------|
|-------------------|----------------------|
|
| Q   E E  E  E E E    E  E  E  E E E +Q
|-----0-0--0--0---0-|----------------------|
|-----2-2--2--2---1-|-----4-----4---3-(3)--|
|-------------------|---------------2-(2)--|
|-------------------|-----4-----4----------|
|-------------------|----------------------|
|-------------------|----------------------|


  E E E E +Q    Q     +E  E +Q    Q    Q
|-1-4---------------|----------------------|
|-----6-------------|----------------------|
|-------6-(6)---4---|-(4)-3-(3)---2----1---|
|-------------------|----------------------|
|-------------------|----------------------|
|-------------------|----------------------|
|
| Q   E E  E  E E E    E  E  E  E E E +Q
|-----0-0--0--0---0-|----------------------|
|-----2-2--2--2---1-|-----4-----4---3-(3)--|
|-------------------|---------------2-(2)--|
|-------------------|-----4-----4----------|
|-------------------|----------------------|
|-------------------|----------------------|


  E E E E +Q    Q     +E  E +Q    Q    Q
|-1-4---------------|----------------------|
|-----6-------------|----------------------|
|-------6-(6)---4---|-(4)-3-(3)---2----1---|
|-------------------|----------------------|
|-------------------|----------------------|
|-------------------|----------------------|
|
| Q   E E  E  E E E    E  E  E  E E E +Q
|-----0-0--0--0---0-|----------------------|
|-----2-2--2--2---1-|-----4-----4---3-(3)--|
|-------------------|---------------2-(2)--|
|-------------------|-----4-----4----------|
|-------------------|----------------------|
|-------------------|----------------------|


  E E E E E E E E   E E E E E E S S S S
|-1-4-------4-----|---4---4-------------|
|-----6---6---6---|-6---6---6-6-6-6-6-6-|
|-------6-------6-|---------------------|
|-----------------|---------------------|
|-----------------|---------------------|
|-----------------|---------------------|
|
| W                 W
|-----------------|---------------------|
|-----------------|---------------------|
|-----------------|---------------------|
|-----------------|---------------------|
|-----------------|---------------------|
|-----------------|---------------------|


  W          W          W          W
|----------|----------|----------|------|
|----------|----------|----------|------|
|----------|----------|----------|------|
|----------|----------|----------|------|
|----------|----------|----------|------|
|----------|----------|----------|------|


  W          W          W          W
|----------|----------|----------|------|
|----------|----------|----------|------|
|----------|----------|----------|------|
|----------|----------|----------|------|
|----------|----------|----------|------|
|----------|----------|----------|------|


  Gtr II
  Q  E E E E Q    W          Q  E E E E Q    W
|----0-0-0-0----|----------|----0-0-0-0----|------|
|----2-2-2-2----|----------|----2-2-2-2----|------|
|---------------|----------|---------------|------|
|---------------|----------|---------------|------|
|---------------|----------|---------------|------|
|---------------|----------|---------------|------|


  Q  E E E E E E   E E E E E E +Q     W          W
|----0-0-0-0---0-|------------------|----------|------|
|----2-2-2-2---1-|---4---4---3-(3)--|----------|------|
|----------------|-----------2-(2)--|----------|------|
|----------------|---4---4----------|----------|------|
|----------------|------------------|----------|------|
|----------------|------------------|----------|------|


  Gtr I
  E E E E +Q    Q     +E  E +Q    Q    Q
|---4---------------|----------------------|
|-6---6-------------|----------------------|
|-------6-(6)---4---|-(4)-3-(3)---2----1---|
|-------------------|----------------------|
|-------------------|----------------------|
|-------------------|----------------------|
|
| Gtr II
| Q   E E  E  E E E    E  E  E  E E E +Q
|-----0-0--0--0---0-|----------------------|
|-----2-2--2--2---1-|-----4-----4---3-(3)--|
|-------------------|---------------2-(2)--|
|-------------------|-----4-----4----------|
|-------------------|----------------------|
|-------------------|----------------------|


  E E E E +Q    Q     +E  E +Q    Q    Q
|-1-4---------------|----------------------|
|-----6-------------|----------------------|
|-------6-(6)---4---|-(4)-3-(3)---2----1---|
|-------------------|----------------------|
|-------------------|----------------------|
|-------------------|----------------------|
|
| Q   E E  E  E E E    E  E  E  E E E +Q
|-----0-0--0--0---0-|----------------------|
|-----2-2--2--2---1-|-----4-----4---3-(3)--|
|-------------------|---------------2-(2)--|
|-------------------|-----4-----4----------|
|-------------------|----------------------|
|-------------------|----------------------|


  E E E E +Q    Q     +E  E +Q    Q    Q
|-1-4---------------|----------------------|
|-----6-------------|----------------------|
|-------6-(6)---4---|-(4)-3-(3)---2----1---|
|-------------------|----------------------|
|-------------------|----------------------|
|-------------------|----------------------|
|
| Q   E E  E  E E E    E  E  E  E E E +Q
|-----0-0--0--0---0-|----------------------|
|-----2-2--2--2---1-|-----4-----4---3-(3)--|
|-------------------|---------------2-(2)--|
|-------------------|-----4-----4----------|
|-------------------|----------------------|
|-------------------|----------------------|


  E E E E +Q    Q     +E  E +Q    Q    Q
|-1-4---------------|----------------------|
|-----6-------------|----------------------|
|-------6-(6)---4---|-(4)-3-(3)---2----1---|
|-------------------|----------------------|
|-------------------|----------------------|
|-------------------|----------------------|
|
| Q   E E  E  E E E    E  E  E  E E E +Q
|-----0-0--0--0---0-|----------------------|
|-----2-2--2--2---1-|-----4-----4---3-(3)--|
|-------------------|---------------2-(2)--|
|-------------------|-----4-----4----------|
|-------------------|----------------------|
|-------------------|----------------------|


  W          W          W          W
|----------|----------|----------|------|
|----------|----------|----------|------|
|----------|----------|----------|------|
|----------|----------|----------|------|
|----------|----------|----------|------|
|----------|----------|----------|------|


  Gtr II
  Q  E E E E +E  E   +E  E +E  E +E  E +Q     E E E E E E +Q     W
|----0-0-0-0-(0)-0-|-(0)--------------------|-----0-0-0-0-(0)--|------|
|----2-2-2-2-(2)-1-|-(1)-4-(4)-4-(4)-3-(3)--|-2-2-2-2-2-2-(2)--|------|
|------------------|-----------------2-(2)--|------------------|------|
|------------------|-----4-(4)-4-(4)--------|------------------|------|
|------------------|------------------------|------------------|------|
|------------------|------------------------|------------------|------|


  Gtr I
  E E E E +Q   Q    +E  E +Q   Q  Q    E E E E +Q   Q    +E  E +Q   Q  Q
|-1-4-------------|------------------|-1-4-------------|------------------|
|-----6-----------|------------------|-----6-----------|------------------|
|-------6-(6)--4--|-(4)-3-(3)--2--1--|-------6-(6)--4--|-(4)-3-(3)--2--1--|
|-----------------|------------------|-----------------|------------------|
|-----------------|------------------|-----------------|------------------|
|-----------------|------------------|-----------------|------------------|


  E E E E +Q   Q    +E  E +Q   Q  Q    E E E E +Q   Q    +E  E +Q   Q  Q
|-1-4-------------|------------------|-1-4-------------|------------------|
|-----6-----------|------------------|-----6-----------|------------------|
|-------6-(6)--4--|-(4)-3-(3)--2--1--|-------6-(6)--4--|-(4)-3-(3)--2--1--|
|-----------------|------------------|-----------------|------------------|
|-----------------|------------------|-----------------|------------------|
|-----------------|------------------|-----------------|------------------|


  E E E E +Q    Q     +E  E +Q    Q    Q
|-1-4---------------|----------------------|
|-----6-------------|----------------------|
|-------6-(6)---4---|-(4)-3-(3)---2----1---|
|-------------------|----------------------|
|-------------------|----------------------|
|-------------------|----------------------|
|
| Gtr II
| Q   E E  E  E E E    E  E  E  E E E +Q
|-----0-0--0--0---0-|----------------------|
|-----2-2--2--2---1-|-----4-----4---3-(3)--|
|-------------------|---------------2-(2)--|
|-------------------|-----4-----4----------|
|-------------------|----------------------|
|-------------------|----------------------|


  E E E E +Q    Q     +E  E +Q    Q    Q
|-1-4---------------|----------------------|
|-----6-------------|----------------------|
|-------6-(6)---4---|-(4)-3-(3)---2----1---|
|-------------------|----------------------|
|-------------------|----------------------|
|-------------------|----------------------|
|
| Q   E E  E  E E E    E  E  E  E E E +Q
|-----0-0--0--0---0-|----------------------|
|-----2-2--2--2---1-|-----4-----4---3-(3)--|
|-------------------|---------------2-(2)--|
|-------------------|-----4-----4----------|
|-------------------|----------------------|
|-------------------|----------------------|


  E E E E +Q    Q     +E  E +Q    Q    Q
|-1-4---------------|----------------------|
|-----6-------------|----------------------|
|-------6-(6)---4---|-(4)-3-(3)---2----1---|
|-------------------|----------------------|
|-------------------|----------------------|
|-------------------|----------------------|
|
| Q   E E  E  E E E    E  E  E  E E E +Q
|-----0-0--0--0---0-|----------------------|
|-----2-2--2--2---1-|-----4-----4---3-(3)--|
|-------------------|---------------2-(2)--|
|-------------------|-----4-----4----------|
|-------------------|----------------------|
|-------------------|----------------------|


  E E E E +Q    Q     +E  E +Q    Q    Q
|-1-4---------------|----------------------|
|-----6-------------|----------------------|
|-------6-(6)---4---|-(4)-3-(3)---2----1---|
|-------------------|----------------------|
|-------------------|----------------------|
|-------------------|----------------------|
|
| Q   E E  E  E E E    E  E  E  E E E +Q
|-----0-0--0--0---0-|----------------------|
|-----2-2--2--2---1-|-----4-----4---3-(3)--|
|-------------------|---------------2-(2)--|
|-------------------|-----4-----4----------|
|-------------------|----------------------|
|-------------------|----------------------|


  E E E E +Q    Q     +E  E +Q    Q    Q
|-1-4---------------|----------------------|
|-----6-------------|----------------------|
|-------6-(6)---4---|-(4)-3-(3)---2----1---|
|-------------------|----------------------|
|-------------------|----------------------|
|-------------------|----------------------|
|
| Q   E E  E  E E E    E  E  E  E E E +Q
|-----0-0--0--0---0-|----------------------|
|-----2-2--2--2---1-|-----4-----4---3-(3)--|
|-------------------|---------------2-(2)--|
|-------------------|-----4-----4----------|
|-------------------|----------------------|
|-------------------|----------------------|


  E E E E +Q    Q     +E  E +Q    Q    Q
|-1-4---------------|----------------------|
|-----6-------------|----------------------|
|-------6-(6)---4---|-(4)-3-(3)---2----1---|
|-------------------|----------------------|
|-------------------|----------------------|
|-------------------|----------------------|
|
| Q   E E  E  E E E    E  E  E  E E E +Q
|-----0-0--0--0---0-|----------------------|
|-----2-2--2--2---1-|-----4-----4---3-(3)--|
|-------------------|---------------2-(2)--|
|-------------------|-----4-----4----------|
|-------------------|----------------------|
|-------------------|----------------------|


  E E E E +Q    Q     +E  E +Q    Q    Q
|-1-4---------------|----------------------|
|-----6-------------|----------------------|
|-------6-(6)---4---|-(4)-3-(3)---2----1---|
|-------------------|----------------------|
|-------------------|----------------------|
|-------------------|----------------------|
|
| Q   E E  E  E E E    E  E  E  E E E +Q
|-----0-0--0--0---0-|----------------------|
|-----2-2--2--2---1-|-----4-----4---3-(3)--|
|-------------------|---------------2-(2)--|
|-------------------|-----4-----4----------|
|-------------------|----------------------|
|-------------------|----------------------|


  E E E E +Q    Q     +E  E +Q    Q    Q
|-1-4---------------|----------------------|
|-----6-------------|----------------------|
|-------6-(6)---4---|-(4)-3-(3)---2----1---|
|-------------------|----------------------|
|-------------------|----------------------|
|-------------------|----------------------|
|
| Q   E E  E  E E E    E  E  E  E E E +Q
|-----0-0--0--0---0-|----------------------|
|-----2-2--2--2---1-|-----4-----4---3-(3)--|
|-------------------|---------------2-(2)--|
|-------------------|-----4-----4----------|
|-------------------|----------------------|
|-------------------|----------------------|


  E E E E +Q    Q     +E  E +Q    Q    Q
|-1-4---------------|----------------------|
|-----6-------------|----------------------|
|-------6-(6)---4---|-(4)-3-(3)---2----1---|
|-------------------|----------------------|
|-------------------|----------------------|
|-------------------|----------------------|
|
| Q   E E  E  E E E    E  E  E  E E E +Q
|-----0-0--0--0---0-|----------------------|
|-----2-2--2--2---1-|-----4-----4---3-(3)--|
|-------------------|---------------2-(2)--|
|-------------------|-----4-----4----------|
|-------------------|----------------------|
|-------------------|----------------------|


  E E E E +Q    Q     +E  E +Q    Q    Q
|-1-4---------------|----------------------|
|-----6-------------|----------------------|
|-------6-(6)---4---|-(4)-3-(3)---2----1---|
|-------------------|----------------------|
|-------------------|----------------------|
|-------------------|----------------------|
|
| Q   E E  E  E E E    E  E  E  E E E +Q
|-----0-0--0--0---0-|----------------------|
|-----2-2--2--2---1-|-----4-----4---3-(3)--|
|-------------------|---------------2-(2)--|
|-------------------|-----4-----4----------|
|-------------------|----------------------|
|-------------------|----------------------|


  E E E E +Q    Q     +E  E +Q    Q    Q
|-1-4---------------|----------------------|
|-----6-------------|----------------------|
|-------6-(6)---4---|-(4)-3-(3)---2----1---|
|-------------------|----------------------|
|-------------------|----------------------|
|-------------------|----------------------|
|
| Q   E E  E  E E E    E  E  E  E E E +Q
|-----0-0--0--0---0-|----------------------|
|-----2-2--2--2---1-|-----4-----4---3-(3)--|
|-------------------|---------------2-(2)--|
|-------------------|-----4-----4----------|
|-------------------|----------------------|
|-------------------|----------------------|


  E E E E +Q    Q     +E  E +Q    Q   Q
|-1-4---------------|---------------------|
|-----6-------------|---------------------|
|-------6-(6)---4---|-(4)-3-(3)---2---1---|
|-------------------|---------------------|
|-------------------|---------------------|
|-------------------|---------------------|
|
| Q   E E  E  E E E    E  E  E  E E E E E
|-----0-0--0--0---0-|---------------------|
|-----2-2--2--2---1-|-----4-----4---3-3-3-|
|-------------------|---------------2-2-2-|
|-------------------|-----4-----4---------|
|-------------------|---------------------|
|-------------------|---------------------|


  Gtr II
  E E E E E E Q
|------------------*|
|-3-3-3-3-3--------*|
|-2-2-2-2-2--------*|
|------------------*|
|------------------*|
|------------------*|


Duration Legend
---------------
W - whole; H - half; Q - quarter; E - 8th; S - 16th; T - 32nd; X - 64th; a - acciaccatura
+ - note tied to previous; . - note dotted; .. - note double dotted
Uncapitalized letters represent notes that are staccato (1/2 duration)
Irregular groupings are notated above the duration line
Duration letters will always appear directly above the note/fret number it represents the
duration for.  Duration letters with no fret number below them represent rests.  Multi-
bar rests are notated in the form Wxn, where n is the number of bars to rest for.  Low
melody durations appear below the staff

Tablature Legend
----------------
 h   - hammer-on
 p   - pull-off
 b   - bend
 pb  - pre-bend
 r   - bend release (if no number after the r, then release immediately)
 /\  - slide into or out of (from/to "nowhere")
 s   - legato slide
 S   - shift slide
  - natural harmonic
[n]  - artificial harmonic
n(n) - tapped harmonic
 ~   - vibrato
 tr  - trill
 T   - tap
 TP  - trem. picking
 PM  - palm muting
\n/  - tremolo bar dip; n = amount to dip
 \n  - tremolo bar down
 n/  - tremolo bar up
/n\  - tremolo bar inverted dip
 =   - hold bend; also acts as connecting device for hammers/pulls
 <>  - volume swell (louder/softer)
 x   - on rhythm slash represents muted slash
 o   - on rhythm slash represents single note slash

Misc Legend
-----------
 |  - bar
||  - double bar
||o - repeat start
o|| - repeat end
*|  - double bar (ending)
 :  - bar (freetime)
 $  - Segno
 &  - Coda
Tempo markers -  = BPM(8/16=s8/s16), where s8 = swing 8ths, s16 = swing 16ths
comments
We did not receive enough feedback on this tab! Please rate:
print report bad tab
1 2 3 4 5
I want to post or [tab]
guest
You may want to rate the tab now too:
select rating
Please do not post tabs as comments. Select "correction" instead!