Oops, an error
Loading. Please wait.

E-Pro Tab

by Beck
ver2
ver2

Interactive

More versions @911Tabs.com
3,317 views 12 this week
no commentswrite comment
1 2 3 4 5
accurate
x 3
Autoscroll
+/-
esc
set tempo
stop
Contributor
Hey! There's an official Ultimate Guitar app which is ideal
for learning songs when you're away from computer. Get the app
WARNING: You are trying to view
                                    content from Ultimate-Guitar.com
                                    in an unauthorized application,
                                    which is prohibited.

                                    Please use an official Ultimate
                                    Guitar Tabs application for iPhone,
                                    iPad or Android to access legitimate
                                    chords, guitar, bass, and drum tabs
                                    from Ultimate-Guitar.com database.

                                    Type "ultimate guitar tabs" in Apple
                                    App Store's or Android Market's
                                    search to find the application.
intro/chorus(na na na na na na na): listen to song for strum beat

e-------------------------------------------------|
B-------------------------------------------------|
G-------7----5------------------------------------|
D-------7----5----7----5----7---5-----------------|
A--2----5----3----7----5----7---5-----------------|
E--0--------------5----3----5---3-----------------|


after you play this for the 3rd time he immediatly starts playing this during the main 
part

e----------------------------------|
B----3/5---------------------------|
G----------------------------------|
D----------------------------------|
A----------------------------------|
E----------------------------------|

after the fourth time through the main part he just play the bass notes but then he goes 
to the top


e---------------------------------------|
B---------------------------------------|
G---------------------------------------|
D---------------------------------------|
A---------5----3------------------------|
E---0---------------5----3----5-----3---|


he plays this a few times then he goes back to the chorus way of playing it

order of song

intro/chorus
bass part(dont play
intro chorus
bass part(dont play)
intro/chorus
the 3/5 part
intro/chorus

the bass notes on the guitar start somewhere around herethen just go back to the 
and end on that

listen to song for timing and when to play all of this its really easy

this is my 1st tab hope you like it
comments
We did not receive enough feedback on this tab! Please rate:
print report bad tab
1 2 3 4 5
I want to post or [tab]
guest
You may want to rate the tab now too:
select rating
Please do not post tabs as comments. Select "correction" instead!