Oops, an error
Loading. Please wait.

Dance Like A Volcano Bass Tab

138 views 1 this week
no commentswrite comment
1 2 3 4 5
please rate
Autoscroll
+/-
esc
set tempo
stop
Contributor
Difficulty
intermediate
WARNING: You are trying to view
                                    content from Ultimate-Guitar.com
                                    in an unauthorized application,
                                    which is prohibited.

                                    Please use an official Ultimate
                                    Guitar Tabs application for iPhone,
                                    iPad or Android to access legitimate
                                    chords, guitar, bass, and drum tabs
                                    from Ultimate-Guitar.com database.

                                    Type "ultimate guitar tabs" in Apple
                                    App Store's or Android Market's
                                    search to find the application.
Beehoover - Dance Like A Volcano (Heavy Zooo) (Website: http://www.beehoover.com/)
145 BPM - 4/4
4-string bass - Standard tuning (EADG)
Tabbed by ear by Krakenbrau
Please send questions, comments, corrections to krakenbrau@gmail.com.

Legend:                 Timing:
\ - slide/bend down     W - whole note          W. - dotted whole note
/ - slide/bend up       H - half note           H. - dotted half note
b - bend                Q - quarter note        Q. - dotted quarter note
h - hammer-on           E - eighth note         E. - dotted eighth note
p - pull-off            S - sixteenth note      S. - dotted sixteenth note
~ - sustain             N - thirty-second note  N. - dotted thirty-second note
X - ghost note          ' - thirty-second note triplet (3/S)
                        t - sixteenth note triplet (3/E)
                        T - eighth note triplet (3/Q)
                        T.- quarter note triplet (3/H)

Notes:
The bass is distorted, I believe.
Lots that I'm not totally sure about here.  If you think you know better,
please let me know.


Intro
G|-----------------|-----------------|----------------|--------------------|
D|-----------------|-----------------|----------------|--------------------|
A|-------0-3-0---0-|-----0-3-0-5-0---|------0-3-0---0-|-3-3-3-3------------|
E|---3-5-------5---|-3-5-----------5\|~-3-5-------5---|---------3-3-3-5\\\-|
     E E E E E E E   E E E E E E E Q~~~ E E E E E E E   E E E E E E E Q

G|-----------------|-----------------|-------------------------------------|
D|-----------------|-----------------|-------------------------------------|
A|-------0-3-0---0-|-----0-3-0-5-0---|------0-3\\\~------------------------|
E|---3-5-------5---|-3-5-----------5\|~-3-5--------------------------------|
     E E E E E E E   E E E E E E E Q~~~ E E E Q

G|-----------------|-----------------|----------------|--------------------|
D|-----------------|-----------------|----------------|--------------------|
A|-------0-3-0---0-|-----0-3-0-5-0---|------0-3-0---0-|-3-3-3-3------------|
E|---3-5-------5---|-3-5-----------5\|~-3-5-------5---|---------3-3-3-5\\\-|
     E E E E E E E   E E E E E E E Q~~~ E E E E E E E   E E E E E E E Q

G|-----------------|-----------------|----------------|--------------------|
D|-----------------|-----------------|----------------|--------------------|
A|-------0-3-0---0-|-----0-3-0-5-0---|------0-3-0---0-|-3-3-3-3------------|
E|---3-5-------5---|-3-5-----------5\|~-3-5-------5---|---------3-3-3-3\\\-|
     E E E E E E E   E E E E E E E Q~~~ E E E E E E E   E E E E E E E Q

-No bass through verse-

G|-----------------|-----------------|----------------|--------------------|
D|-----------------|-----------------|----------------|--------------------|
A|-------0-3-0---0-|-----0-3-0-5-0---|------0-3-0---0-|-3-3-3-3------------|
E|---3-5-------5---|-3-5-----------5\|~-3-5-------5---|---------3-3-3-5\\\-|
     E E E E E E E   E E E E E E E Q~~~ E E E E E E E   E E E E E E E Q

G|-----------------|-----------------|-------------------------------------|
D|-----------------|-----------------|-------------------------------------|
A|-------0-3-0---0-|-----0-3-0-5-0---|------0-3\\\~------------------------|
E|---3-5-------5---|-3-5-----------5\|~-3-5--------------------------------|
     E E E E E E E   E E E E E E E Q~~~ E E E Q

G|-----------------|-----------------|----------------|--------------------|
D|-----------------|-----------------|----------------|--------------------|
A|-------0-3-0---0-|-----0-3-0-5-0---|------0-3-0---0-|-3-3-3-3------------|
E|---3-5-------5---|-3-5-----------5\|~-3-5-------5---|---------3-3-3-5\\\-|
     E E E E E E E   E E E E E E E Q~~~ E E E E E E E   E E E E E E E Q

G|-----------------|-----------------|----------------|------------------| --|
D|-----------------|-----------------|----------------|------------------|   |
A|-------0-3-0---0-|-----0-3-0-5-0---|------0-3-0---0-|-3-3-3-3----------|   |
E|---3-5-------5---|-3-5-----------5\|~-3-5-------5---|---------3-3-3-3--|   |
     E E E E E E E   E E E E E E E Q~~~ E E E E E E E   E E E E E E E E      | x2
                                                                             |
G|-----------------|-----------------|-----------------|-----------------|   |
D|-----------------|-----------------|-----------------|-----------------|   |
A|-3-3-3-3-3-3-3-3-|-3-3-3-3-3-3-3-3-|-5-5-5-5-5-5-5-5-|-5-5-5-5-5-5-5\~-|   |
E|-----------------|-----------------|-----------------|-----------------| --|
   E E E E E E E E   E E E E E E E E   E E E E E E E E   E E E E E E Q*    *<-- 2nd time, 5/\~

G|-----------------|-----------------|----------------|--------------------|
D|-----------------|-----------------|----------------|--------------------|
A|-------0-3-0---0-|-----0-3-0-5-0---|------0-3-0---0-|-3-3-3-3------------|
E|---3-5-------5---|-3-5-----------5\|~-3-5-------5---|---------3-3-3-5\\\-|
     E E E E E E E   E E E E E E E Q~~~ E E E E E E E   E E E E E E E Q

G|-----------------|-----------------|----------------|--------------------|
D|-----------------|-----------------|----------------|--------------------|
A|-------0-3-0---0-|-----0-3-0-5-0---|------0-3-0-----|--------------------|
E|---3-5-------5---|-3-5-----------5\|~-3-5-------5-5\|~-------------------|
     E E E E E E E   E E E E E E E Q~~~ E E E E E E Q~~~

G|-----------------|-----------------|----------------|--------------------|
D|-----------------|-----------------|----------------|--------------------|
A|-------0-3-0---0-|-0-----0-3-0-----|------0-3-0---0-|-3-3-3-3------------|
E|---3-5-------5---|---3-5-------5-5\|~-3-5-------5---|---------3-3-3-5\\\-|
     E E E E E E E   E E E E E E E Q~~~ E E E E E E E   E E E E E E E Q

G|-----------------|-----------------|----------------|--------------------|
D|-----------------|-----------------|----------------|--------------------|
A|-------0-3-0---0-|-0-----0-3-0---0-|------0-3-0---0-|-3-3-3-3------------|
E|---3-5-------5---|---3-5-------5---|--3-5-------5---|---------3-3-3------|
     E E E E E E E   E E E E E E E E    E E E E E E E   E E E E E E E

G|------------------|------------------|------------------|----------------| --|
D|------------------|------------------|------------------|----------------|   |
A|------------------|------------------|------------------|----------------|   |
E|-7\\\~-0---00-7\\\|~-0---00-7\\~-0-0-|-8\\\~-0---00-8\\\|~-0---00-8\\~---|   |
   Q.~~~ E   SS Q.~~~~ E   SS Q~~~ E E   Q.~~~ E   SS Q.~~~~ E   SS Q~~~       |
                                                                               |
G|---------------------------|---------------------------|                     |
D|--0h12-12-12-12-12-12-1212-|/14-14-14-14-14-14-14-1414-|                     | x2
A|---------------------------|---------------------------|                     |
E|---------------------------|---------------------------|                     |
    E  E  E  E  E  E  E  S S    E  E  E  E  E  E  E  S S                       |
                                                                               |
G|---------------------------|---------------------------|                     |
D|/15-15-15-15-15-15-15-1515-|/17-17-17-17-17-17-17------|                     |
A|---------------------------|---------------------------|                     |
E|---------------------------|---------------------------|                   --|
    E  E  E  E  E  E  E  S S    E  E  E  E  E  E* E*       *<-- 2nd time only

G|------------------|------------------|------------------|----------------|
D|------------------|------------------|------------------|----------------|
A|------------------|------------------|------------------|----------------|
E|-7\\\~-0---00-7\\\|~-0---00-7\\~-0-0-|-8\\\~-0---00-8\\\|~-0---00-8\\~---|
   Q.~~~ E   SS Q.~~~~ E   SS Q~~~ E E   Q.~~~ E   SS Q.~~~~ E   SS Q~~~

G|---------------------------|---------------------------| --|
D|--0h12-12-12-12-12-12-1212-|-12/14-14-14-14-14-14-1414-|   |
A|---------------------------|---------------------------|   |
E|---------------------------|---------------------------|   |
    E  E  E  E  E  E  E  S S    E  E  E  E  E  E  E  S S     | x6
                                                             |
G|---------------------------|---------------------------|   |
D|-14/15-15-15-15-15-15-1515-|-15/17-17-17-17-17-17-1717-|   |
A|---------------------------|---------------------------|   |
E|---------------------------|---------------------------| --|
    E  E  E  E  E  E  E  S S    E  E  E  E* E* E* E* S*S*   *<-- Omit 4th time

G|-------------------|
D|-------0-----------| x3
A|---3/5---5-5555555-|
E|-------------------|
     E E E E SSSSSSS

G|-----------------|
D|-------0---------| x1
A|---3/5---5-5-5-5-|
E|-----------------|
     E E E E E E E

G|-------------------|
D|-------0-----------| x2
A|---3/5---5-5555555-|
E|-------------------|
     E E E E SSSSSSS

G|-----------------|
D|-------0---------| x2
A|---3/5---5-5-5-5-|
E|-----------------|
     E E E E E E E

G|------------------|-----------------|-----------------|
D|------------------|-----------------|-----------------| x2
A|-5-5---888-8-12\~-|-0-0--/5-5-5---88|8-8-12\~-0-0--/5-|
E|------------------|-----------------|-----------------|
   E E   SSE E Q~~~   E E   E E E   SS E E Q~~~ E E   E*  *<-- 1st time only

G|---------------------------|---------------------------|
D|--0h12-12-12-12-12-12-1212-|-12/14-14-14-14-14-14-1414-|
A|---------------------------|---------------------------|
E|---------------------------|---------------------------|
    E  E  E  E  E  E  E  S S    E  E  E  E  E  E  E  S S

G|---------------------------|---------------------------|
D|-15-15-15-15-15-15-15-1515-|-15/17-17-17-17-17-17-1717-|
A|---------------------------|---------------------------|
E|---------------------------|---------------------------|
    E  E  E  E  E  E  E  S S    E  E  E  E  E  E  E  S S

G|---------------------------|----17-17-17-17-17-17-1717-|
D|-17/19-19-19-19-19-19-1919-|-19------------------------|
A|---------------------------|---------------------------|
E|---------------------------|---------------------------|
    E  E  E  E  E  E  E  S S    E  E  E  E  E  E  E  S S

G|---------------------------|---------------------------|
D|-17\15-15-15-15-15-15-1515-|-15/17-17-17-17-17-17------|
A|---------------------------|---------------------------|
E|---------------------------|---------------------------|
    E  E  E  E  E  E  E  S S    E  E  E  E  E  E  E

G|-------------------|
D|-------0-----------| x3
A|---3/5---5-5555555-|
E|-------------------|
     E E E E SSSSSSS

G|-----------------|
D|-------0---------| x1
A|---3/5---5-5-5-5-|
E|-----------------|
     E E E E E E E

G|-------------------|
D|-------0-----------| x2
A|---3/5---5-5555555-|
E|-------------------|
     E E E E SSSSSSS

G|-----------------|
D|-------0---------| x2
A|---3/5---5-5-5-5-|
E|-----------------|
     E E E E E E E

G|------------------|-----------------|-----------------|
D|------------------|-----------------|-----------------|
A|-5-5---888-8-12\~-|-0-0--/5-5-5---88|8-8-12\~-0-0--/5-|
E|------------------|-----------------|-----------------|
   E E   SSE E Q~~~   E E   E E E   SS E E Q~~~ E E   E

G|-----------------|    G|-----------------|
D|-----------------| x3 D|-----------------|
A|-3-0--/5-3-0--/5-|    A|-3-0--/5-3-0-----|
E|-----------------|    E|-----------------|
   E E   E E E   E         E E   E E E

G|------------------|-----------------|-----------------|
D|------------------|-----------------|-----------------|
A|-5-5---888-8-12\~-|-0-0--/5-5-5---88|8-8-12\~-0-0--/5-|
E|------------------|-----------------|-----------------|
   E E   SSE E Q~~~   E E   E E E   SS E E Q~~~ E E   E

G|-----------------|
D|-----------------| x2
A|-3-0--/5-3-0--/5-|
E|-----------------|
   E E   E E E   E

G|------------------------|------------------|
D|-10-10---101010-10-12\~-|-9-9---999-9-12\~-| x4
A|------------------------|------------------|
E|------------------------|------------------|
    E  E    S S E  E  Q     E E   SSE E  Q*    *<-- omit 4th time

-Feedback Break-

G|-------------------------|    G|-------------------------|-------------------------|
D|-------------------------| x4 D|-------------------------|-10-10-10-10-10-10-10-10-|
A|-12-12-12-12-12-12-12-12-|    A|-11-11-11-11-11-11-11-11-|-------------------------|
E|-------------------------|    E|-------------------------|-------------------------|
    E  E  E  E  E  E  E  E          E  E  E  E  E  E  E  E    E  E  E  E  E  E  E  E

G|-------------------------|-----------------------|
D|-------------------------|-----------------------|
A|-12-12-12-12-12-12-12-12-|-12-12-12-12/\\\~~~----|
E|-------------------------|-----------------------|
    E  E  E  E  E  E  E  E    E  E  E  H

G|-----------------------|-----------------------|                         --|
D|---12121212-12---------|---15151515-15---------|                           |
A|-0-------------0-10-12-|-0-------------0-10-12-|                           |
E|-----------------------|-----------------------|                           |
   E  S S S E  E E  E  E   E  S S S E  E E  E  E                             |
                                                                             |
G|-----------------------||-----------------------||-----------------|       |
D|---12121212-12---------||---15151515-15---------||-----------------|       | x2
A|-0-------------0-10-12-||-0-------------0-12\\~-||-----------------|       |
E|-----------------------||-----------------------||-888-8-8-7-7\\~--|       |
   E  S S S E  E E  E  E  1.E  S S S E  E E  Q     2.SSE E E E Q             |
                                                                             |
G|-----------------|-----------------|-----------------|-----------------|   |
D|-----------------|-----------------|-----------------|-----------------|   |
A|-------0-3-0---0-|-------0-3-0---0-|-------0-3-0---0-|-------0-3-0---0-|   |
E|-X-3-5-------5---|-X-3-5-------5---|-X-3-5-------5---|-X-3-5-------5---| --|
   E E E E E E E E   E E E E E E E E   E E E E E E E E   E E E E E E E*E*  <-- 2nd time replace with
                                                                                   A|-5\\-|
G|-----------------|-----------------|-----------------|-----------------|            Q
D|-----------------|-----------------|-----------------|-----------------|
A|-------0-3-0---0-|-------0-3-0---0-|-------0-3-0---0-|-------0-3-0-5\\-|
E|-X-3-5-------5---|-X-3-5-------5---|-X-3-5-------5---|-X-3-5-----------|
   E E E E E E E E   E E E E E E E E   E E E E E E E E   E E E E E E Q

G|-----------------|
D|-----------------| x8
A|-------0-3-5-0---|
E|-X-335---------5-|\\\~~
   E SSE E E E E E
comments
We did not receive enough feedback on this tab! Please rate:
print report bad tab
1 2 3 4 5
I want to post or [tab]
guest
You may want to rate the tab now too:
select rating
Please do not post tabs as comments. Select "correction" instead!