Oops, an error
Loading. Please wait.

Life Was All A Dream Tab

ver1
ver1

Intro

Whole song

Interactive

More versions @911Tabs.com
4,979 views 6 this week
1 commentread comment
1 2 3 4 5
excellent!
x 4
Autoscroll
+/-
esc
set tempo
stop
Contributor
Hey! There's an official Ultimate Guitar app which is ideal
for learning songs when you're away from computer. Get the app
WARNING: You are trying to view
                                    content from Ultimate-Guitar.com
                                    in an unauthorized application,
                                    which is prohibited.

                                    Please use an official Ultimate
                                    Guitar Tabs application for iPhone,
                                    iPad or Android to access legitimate
                                    chords, guitar, bass, and drum tabs
                                    from Ultimate-Guitar.com database.

                                    Type "ultimate guitar tabs" in Apple
                                    App Store's or Android Market's
                                    search to find the application.
Guitar 1
      Q     E  E  E   E     Q    Q    Q       Q     E  E  E   E
D#||---------------------|-----------------|---------------------|
A#||-------10--8---------|-----------------|-------10--8---------|
F#||--------------9--10--|-----------------|--------------9--10--|
C#||--0------------------|--0--------------|--0------------------|
G#||--0------------------|--0--------------|--0------------------|
C#||--0------------------|--0--------------|--0------------------|


  Q    Q    Q         Q     E  E  E   E     Q     E  E  E   E
-----------------||----------------------|---------------------|
-----------------||--------10--8---------|-------10--8---------|
-----------------||*--------------9--10--|--------------9--10--|
--8----8----8----||*--0------------------|--0------------------|
--8----8----8----||---0------------------|--0------------------|
--8----8----8----||---0------------------|--0------------------|


                                                              PM   PM PM PM PM
  Q     E  E  E   E     Q    Q    Q         Q    Q    Q       Q    E  E  E  E
---------------------|------------------||-----------------|-------------------|
-------10--8---------|------------------||-----------------|-------------------|
--------------9--10--|-----------------*||-----------------|-------------------|
--0------------------|--8----8----8----*||--8----8----8----|-------------------|
--0------------------|--8----8----8-----||--8----8----8----|--0----0--0--0--0--|
--0------------------|--8----8----8-----||--8----8----8----|--0----0--0--0--0--|


  PM   PM PM PM PM    PM   PM PM PM PM    PM   PM   PM      PM   PM PM PM PM
  Q    E  E  E  E     Q    E  E  E  E     Q    Q    Q       Q    E  E  E  E
-------------------|-------------------|-----------------|-------------------|
-------------------|-------------------|-----------------|-------------------|
-------------------|-------------------|-----------------|-------------------|
-------------------|-------------------|-----------------|-------------------|
--0----0--0--0--0--|--0----0--0--0--0--|--0----0----0----|--0----0--0--0--0--|
--0----0--0--0--0--|--0----0--0--0--0--|--0----0----0----|--0----0--0--0--0--|


  PM   PM PM PM PM    PM   PM PM PM PM    PM   PM   PM      PM   PM PM PM PM
  Q    E  E  E  E     Q    E  E  E  E     Q    Q    Q       Q    E  E  E  E
-------------------|-------------------|-----------------|-------------------|
-------------------|-------------------|-----------------|-------------------|
-------------------|-------------------|-----------------|-------------------|
-------------------|-------------------|-----------------|-------------------|
--0----0--0--0--0--|--0----0--0--0--0--|--0----0----0----|--0----0--0--0--0--|
--0----0--0--0--0--|--0----0--0--0--0--|--0----0----0----|--0----0--0--0--0--|


  PM   PM PM PM PM    PM   PM PM PM PM    PM   PM   PM      PM   PM PM PM PM
  Q    E  E  E  E     Q    E  E  E  E     Q    Q    Q       Q    E  E  E  E
-------------------|-------------------|-----------------|-------------------|
-------------------|-------------------|-----------------|-------------------|
-------------------|-------------------|-----------------|-------------------|
-------------------|-------------------|-----------------|-------------------|
--0----0--0--0--0--|--0----0--0--0--0--|--0----0----0----|--0----0--0--0--0--|
--0----0--0--0--0--|--0----0--0--0--0--|--0----0----0----|--0----0--0--0--0--|


  PM   PM PM PM PM    PM   PM PM PM PM    PM   PM   PM
  Q    E  E  E  E     Q    E  E  E  E     Q    Q    Q       Q     Q     Q
-------------------|-------------------|-----------------|-------------------|
-------------------|-------------------|-----------------|-------10----10----|
-------------------|-------------------|-----------------|-------------------|
-------------------|-------------------|-----------------|--0-----7-----7----|
--0----0--0--0--0--|--0----0--0--0--0--|--0----0----0----|--0----------------|
--0----0--0--0--0--|--0----0--0--0--0--|--0----0----0----|--0----------------|


  Q    Q    Q       Q    Q    Q       Q    Q    Q       E  Q    Q    E
-----------------|-----------------|-----------------|------------------|
-------8----8----|-------6----6----|-------5----5----|------------------|
-----------------|-----------------|-----------------|------------------|
--0----5----5----|--0----3----3----|--0----2----2----|--8--8----8----8--|
--0--------------|--0--------------|--0--------------|--8--8----8----8--|
--0--------------|--0--------------|--0--------------|--8--8----8----8--|


  Q    E  E  E  E     E  Q    Q    E     Q    E  E  E  E     E  E  E  E  E  E
-------------------|------------------|-------------------|--------------------|
-------------------|------------------|-------------------|--------------------|
-------------------|------------------|-------------------|--------------------|
--8----------------|--8--8----8----8--|--8----------------|--0--0--0--0--0--0--|
--8----------------|--8--8----8----8--|--8----------------|--0--0--0--0--0--0--|
--8----------------|--8--8----8----8--|--8----------------|--0--0--0--0--0--0--|


  E  E  E  E  E  E     E  E  E  E  E  E      Q    Q    Q       E  Q    Q    E
--------------------|--------------------|------------------|------------------|
--------------------|--------------------|------------------|------------------|
--------------------|--------------------|------------------|------------------|
--0--0--0--0--0--0--|--5--5--5--5--5--5--|--10----8----7----|--8--8----8----8--|
--0--0--0--0--0--0--|--5--5--5--5--5--5--|--10----8----8----|--8--8----8----8--|
--0--0--0--0--0--0--|--5--5--5--5--5--5--|--10----8----7----|--8--8----8----8--|


  Q    E  E  E  E     E  Q    Q    E     Q    E  E  E  E     E  E  E  E  E  E
-------------------|------------------|-------------------|--------------------|
-------------------|------------------|-------------------|--------------------|
-------------------|------------------|-------------------|--------------------|
--8----------------|--8--8----8----8--|--8----------------|--0--0--0--0--0--0--|
--8----------------|--8--8----8----8--|--8----------------|--0--0--0--0--0--0--|
--8----------------|--8--8----8----8--|--8----------------|--0--0--0--0--0--0--|


  E  E  E  E  E  E     E  E  E  E  E  E      Q    Q    Q
--------------------|--------------------|------------------|
--------------------|--------------------|------------------|
--------------------|--------------------|------------------|
--0--0--0--0--0--0--|--5--5--5--5--5--5--|--10----8----7----|
--0--0--0--0--0--0--|--5--5--5--5--5--5--|--10----8----8----|
--0--0--0--0--0--0--|--5--5--5--5--5--5--|--10----8----7----|


   Q     Q     Q        Q     Q     Q        Q     Q     Q
--------------------|--10----------------|--------------------|
--------------10----|--------10----------|--------------10----|
--------10----------|--------------10----|--------10----------|
--12----------------|--------------------|--12----------------|
--------------------|--------------------|--------------------|
--------------------|--------------------|--------------------|


   Q     Q     Q        Q     Q     Q        Q     Q     Q
--10----------------|--------------------|--10----------------|
--------10----------|--------------10----|--------10----------|
--------------10----|--------10----------|--------------10----|
--------------------|--11----------------|--------------------|
--------------------|--------------------|--------------------|
--------------------|--------------------|--------------------|


   Q     Q     Q        Q     Q     Q       Q     Q     Q
--------------------|--10----------------|-------------------|
--------------10----|--------10----------|-------------10----|
--------10----------|--------------10----|-------10----------|
--11----------------|--------------------|--8----------------|
--------------------|--------------------|-------------------|
--------------------|--------------------|-------------------|


   Q     Q     Q       Q     Q     Q        Q     Q     Q
--10----------------|-------------------|--10----------------|
--------10----------|-------------10----|--------10----------|
--------------10----|-------10----------|--------------10----|
--------------------|--8----------------|--------------------|
--------------------|-------------------|--------------------|
--------------------|-------------------|--------------------|


  Q    Q     Q       Q    Q     Q       Q    Q    Q       Q    Q    Q
------------------|------------------|------------5----|-----------------|
------------10----|------------10----|-------3---------|-----------------|
-------7----------|-------7----------|--0--------------|-----------------|
--7---------------|--7---------------|-----------------|-------0----2----|
------------------|------------------|-----------------|--4--------------|
------------------|------------------|-----------------|-----------------|


   Q     Q     Q        Q     Q     Q        Q     Q     Q
--------------------|--10----------------|--------------------|
--------------10----|--------10----------|--------------10----|
--------10----------|--------------10----|--------10----------|
--12----------------|--------------------|--12----------------|
--------------------|--------------------|--------------------|
--------------------|--------------------|--------------------|


   Q     Q     Q        Q     Q     Q        Q     Q     Q
--10----------------|--------------------|--10----------------|
--------10----------|--------------10----|--------10----------|
--------------10----|--------10----------|--------------10----|
--------------------|--11----------------|--------------------|
--------------------|--------------------|--------------------|
--------------------|--------------------|--------------------|


   Q     Q     Q        Q     Q     Q       Q     Q     Q
--------------------|--10----------------|-------------------|
--------------10----|--------10----------|-------------10----|
--------10----------|--------------10----|-------10----------|
--11----------------|--------------------|--8----------------|
--------------------|--------------------|-------------------|
--------------------|--------------------|-------------------|


   Q     Q     Q       Q     Q     Q        Q     Q     Q
--10----------------|-------------------|--10----------------|
--------10----------|-------------10----|--------10----------|
--------------10----|-------10----------|--------------10----|
--------------------|--8----------------|--------------------|
--------------------|-------------------|--------------------|
--------------------|-------------------|--------------------|


  Q    Q     Q       Q    Q     Q       Q    Q    Q       Q    H
------------------|------------------|------------5----|-------5--------|
------------10----|------------10----|-------3---------|----------------|
-------7----------|-------7----------|--0--------------|--0-------------|
--7---------------|--7---------------|-----------------|----------------|
------------------|------------------|-----------------|----------------|
------------------|------------------|-----------------|----------------|


  Q    Q    Q       Q    Q    Q       Q    Q    Q       Q    Q    Q
-----------------|-----------------|-----------------|-----------------|
-----------------|-----------------|-----------------|-----------------|
-----------------|-----------------|-----------------|-----------------|
--0--------------|--0--------------|--0--------------|--0----0----0----|
--0--------------|--0--------------|--0--------------|--0----0----0----|
--0--------------|--0--------------|--0--------------|--0----0----0----|


  Q    Q    Q       Q    Q    Q       Q    Q    Q       Q    Q    Q
-----------------|-----------------|-----------------|-----------------|
-----------------|-----------------|-----------------|-----------------|
-----------------|-----------------|-----------------|-----------------|
--0--------------|--0--------------|--0----0---------|-------0---------|
--0--------------|--0--------------|--0----0---------|-------0---------|
--0--------------|--0--------------|--0----0---------|-------0---------|


  Q    Q    Q       Q    E  E  E  E     E  E  E  E  E  E     Q    Q    E  E
-----------------|-------------------|--------------------|------------------|
-----------------|-------------------|--------------------|------------------|
-----------------|-------------------|--------------------|------------------|
-------0----0----|--0----------------|--0-----------------|--0----0----------|
-------0----0----|--0----------------|--0-----------------|--0----0----------|
-------0----0----|--0----0--1--3--1--|--0--1--3--1--0--1--|--0----0----0--1--|


  E  E  E  E  E  E     E  E  Q    Q       Q     Q     Q       Q    Q    Q
--------------------|------------------|-------------------|-----------------|
--------------------|------------------|-------10----10----|-------8----8----|
--------------------|------------------|-------------------|-----------------|
--------0-----------|--------0----0----|--0-----7-----7----|--0----5----5----|
--------0-----------|--------0----0----|--0----------------|--0--------------|
--3--1--0--1--3--1--|--0--1--0----0----|--0----------------|--0--------------|


  Q    Q    Q       Q    Q    Q       Q     Q     Q       Q    Q    Q
-----------------|-----------------|-------------------|-----------------|
-------6----6----|-------5----5----|-------10----10----|-------8----8----|
-----------------|-----------------|-------------------|-----------------|
--0----3----3----|--0----2----2----|--0-----7-----7----|--0----5----5----|
--0--------------|--0--------------|--0----------------|--0--------------|
--0--------------|--0--------------|--0----------------|--0--------------|


  Q    Q    Q       Q    Q    Q       E  Q    Q    E     Q    E  E  E  E
-----------------|-----------------|------------------|-------------------|
-------6----6----|-------5----5----|------------------|-------------------|
-----------------|-----------------|------------------|-------------------|
--0----3----3----|--0----2----2----|--8--8----8----8--|--8----------------|
--0--------------|--0--------------|--8--8----8----8--|--8----------------|
--0--------------|--0--------------|--8--8----8----8--|--8----------------|


  E  Q    Q    E     Q    E  E  E  E     E  E  E  E  E  E
------------------|-------------------|--------------------|
------------------|-------------------|--------------------|
------------------|-------------------|--------------------|
--8--8----8----8--|--8----------------|--0--0--0--0--0--0--|
--8--8----8----8--|--8----------------|--0--0--0--0--0--0--|
--8--8----8----8--|--8----------------|--0--0--0--0--0--0--|


  E  E  E  E  E  E     E  E  E  E  E  E      Q    Q    Q       E  Q    Q    E
--------------------|--------------------|------------------|------------------|
--------------------|--------------------|------------------|------------------|
--------------------|--------------------|------------------|------------------|
--0--0--0--0--0--0--|--5--5--5--5--5--5--|--10----8----7----|--8--8----8----8--|
--0--0--0--0--0--0--|--5--5--5--5--5--5--|--10----8----8----|--8--8----8----8--|
--0--0--0--0--0--0--|--5--5--5--5--5--5--|--10----8----7----|--8--8----8----8--|


  Q    E  E  E  E     E  Q    Q    E     Q    E  E  E  E     E  E  E  E  E  E
-------------------|------------------|-------------------|--------------------|
-------------------|------------------|-------------------|--------------------|
-------------------|------------------|-------------------|--------------------|
--8----------------|--8--8----8----8--|--8----------------|--0--0--0--0--0--0--|
--8----------------|--8--8----8----8--|--8----------------|--0--0--0--0--0--0--|
--8----------------|--8--8----8----8--|--8----------------|--0--0--0--0--0--0--|


  E  E  E  E  E  E     E  E  E  E  E  E      Q    Q    Q       H.
--------------------|--------------------|------------------|---------------|
--------------------|--------------------|------------------|---------------|
--------------------|--------------------|------------------|---------------|
--0--0--0--0--0--0--|--5--5--5--5--5--5--|--10----8----7----|--0------------|
--0--0--0--0--0--0--|--5--5--5--5--5--5--|--10----8----8----|--0------------|
--0--0--0--0--0--0--|--5--5--5--5--5--5--|--10----8----7----|--0------------|


  H.              H.              H.              Q     Q     Q
---------------|---------------|---------------|--------------------|
---------------|---------------|---------------|--------------------|
---------------|---------------|---------------|--------------------|
--L------------|--L------------|--L------------|--------------------|
--L------------|--L------------|--L------------|--------------------|
--L------------|--L------------|--L------------|--5b----5b----5b----|


  Q     Q     Q        Q     Q     Q        Q     Q     Q        H.
--------------------|--------------------|--------------------|---------------|
--------------------|--------------------|--------------------|---------------|
--------------------|--------------------|--------------------|---------------|
--------------------|--------------------|--------------------|--0------------|
--------------------|--------------------|--------------------|--0------------|
--5b----5b----5b----|--7b----7b----7b----|--7b----7b----7b----|--0------------|


  H.              H.              H.              Q     Q     Q
---------------|---------------|---------------|--------------------|
---------------|---------------|---------------|--------------------|
---------------|---------------|---------------|--------------------|
--L------------|--L------------|--L------------|--------------------|
--L------------|--L------------|--L------------|--------------------|
--L------------|--L------------|--L------------|--5b----5b----5b----|


  Q     Q     Q        Q     Q     Q        Q     Q     Q
--------------------|--------------------|--------------------|
--------------------|--------------------|--------------------|
--------------------|--------------------|--------------------|
--------------------|--------------------|--------------------|
--------------------|--------------------|--------------------|
--5b----5b----5b----|--7b----7b----7b----|--7b----7b----7b----|


       PM PM PM PM         PM PM PM PM         PM PM PM PM
  Q    E  E  E  E     Q    E  E  E  E     Q    E  E  E  E     Q    Q    Q
-------------------|-------------------|-------------------|-----------------|
-------------------|-------------------|-------------------|-----------------|
-------------------|-------------------|-------------------|-----------------|
--0----------------|--0----------------|--0----------------|--8----7----5----|
--0----0--0--0--0--|--0----0--0--0--0--|--0----0--0--0--0--|--8----7----5----|
--0----0--0--0--0--|--0----0--0--0--0--|--0----0--0--0--0--|--8----7----5----|


       PM PM PM PM         PM PM PM PM         PM PM PM PM
  Q    E  E  E  E     Q    E  E  E  E     Q    E  E  E  E     Q    Q    Q
-------------------|-------------------|-------------------|-----------------|
-------------------|-------------------|-------------------|-----------------|
-------------------|-------------------|-------------------|-----------------|
--0----------------|--0----------------|--0----------------|--8----7----5----|
--0----0--0--0--0--|--0----0--0--0--0--|--0----0--0--0--0--|--8----7----5----|
--0----0--0--0--0--|--0----0--0--0--0--|--0----0--0--0--0--|--8----7----5----|


       PM PM PM PM         PM PM PM PM         PM PM PM PM
  Q    E  E  E  E     Q    E  E  E  E     Q    E  E  E  E     Q    Q    Q
-------------------|-------------------|-------------------|-----------------|
-------------------|-------------------|-------------------|-----------------|
-------------------|-------------------|-------------------|-----------------|
--0----------------|--0----------------|--0----------------|--8----7----5----|
--0----0--0--0--0--|--0----0--0--0--0--|--0----0--0--0--0--|--8----7----5----|
--0----0--0--0--0--|--0----0--0--0--0--|--0----0--0--0--0--|--8----7----5----|


       PM PM PM PM         PM PM PM PM         PM PM PM PM
  Q    E  E  E  E     Q    E  E  E  E     Q    E  E  E  E     Q    Q    Q
-------------------|-------------------|-------------------|-----------------|
-------------------|-------------------|-------------------|-----------------|
-------------------|-------------------|-------------------|-----------------|
--0----------------|--0----------------|--0----------------|--8----7----5----|
--0----0--0--0--0--|--0----0--0--0--0--|--0----0--0--0--0--|--8----7----5----|
--0----0--0--0--0--|--0----0--0--0--0--|--0----0--0--0--0--|--8----7----5----|


  E  E  E  E  E  E  E  E     E  E  E  E  E  E  E  E
--------------------------|--------------------------|
--------------------------|--------------------------|
--------------------------|--------------------------|
--0--0--0--0--0--0--0--0--|--0--0--0--0--0--0--0--0--|
--0--0--0--0--0--0--0--0--|--0--0--0--0--0--0--0--0--|
--0--0--0--0--0--0--0--0--|--0--0--0--0--0--0--0--0--|


  E  E  E  E  E  E  E  E     E  E  E  E  E  E  E  E
--------------------------|--------------------------|
--------------------------|--------------------------|
--5--5--5--5--5--5--5--5--|--5--5--5--5--5--5--5--5--|
--5--5--5--5--5--5--5--5--|--5--5--5--5--5--5--5--5--|
--3--3--3--3--3--3--3--3--|--3--3--3--3--3--3--3--3--|
--------------------------|--------------------------|


  E  E  E  E  E  E  E  E     E  E  E  E  E  E  E  E
--------------------------|--------------------------|
--------------------------|--------------------------|
--3--3--3--3--3--3--3--3--|--3--3--3--3--3--3--3--3--|
--3--3--3--3--3--3--3--3--|--3--3--3--3--3--3--3--3--|
--1--1--1--1--1--1--1--1--|--1--1--1--1--1--1--1--1--|
--------------------------|--------------------------|


  E  E  E  E  E  E  E  E     E  E  E  E  E  E  E  E
--------------------------|--------------------------|
--------------------------|--------------------------|
--------------------------|--------------------------|
--7--7--7--7--7--7--7--7--|--7--7--7--7--7--7--7--7--|
--7--7--7--7--7--7--7--7--|--7--7--7--7--7--7--7--7--|
--7--7--7--7--7--7--7--7--|--7--7--7--7--7--7--7--7--|


  E  E  E  E  E  E  E  E     E  E  E  E  E  E  E  E
--------------------------|--------------------------|
--------------------------|--------------------------|
--------------------------|--------------------------|
--0--0--0--0--0--0--0--0--|--0--0--0--0--0--0--0--0--|
--0--0--0--0--0--0--0--0--|--0--0--0--0--0--0--0--0--|
--0--0--0--0--0--0--0--0--|--0--0--0--0--0--0--0--0--|


  E  E  E  E  E  E  E  E     E  E  E  E  E  E  E  E
--------------------------|--------------------------|
--------------------------|--------------------------|
--5--5--5--5--5--5--5--5--|--5--5--5--5--5--5--5--5--|
--5--5--5--5--5--5--5--5--|--5--5--5--5--5--5--5--5--|
--3--3--3--3--3--3--3--3--|--3--3--3--3--3--3--3--3--|
--------------------------|--------------------------|


  E  E  E  E  E  E  E  E     E  E  E  E  E  E  E  E
--------------------------|--------------------------|
--------------------------|--------------------------|
--3--3--3--3--3--3--3--3--|--3--3--3--3--3--3--3--3--|
--3--3--3--3--3--3--3--3--|--3--3--3--3--3--3--3--3--|
--1--1--1--1--1--1--1--1--|--1--1--1--1--1--1--1--1--|
--------------------------|--------------------------|


  E  E  E  E  E  E  E  E     E  E  E  E  E  E  E  E      W
--------------------------|--------------------------|--------------------|
--------------------------|--------------------------|--------------------|
--------------------------|--------------------------|--11----------------|
--7--7--7--7--7--7--7--7--|--7--7--7--7--7--7--7--7--|--------------------|
--7--7--7--7--7--7--7--7--|--7--7--7--7--7--7--7--7--|---9----------------|
--7--7--7--7--7--7--7--7--|--7--7--7--7--7--7--7--7--|--------------------|


  W                   W                   W                   W
-------------------|-------------------|-------------------|-------------------|
-------------------|-------------------|-------------------|-------------------|
--L----------------|--L----------------|--L----------------|-------------------|
-------------------|-------------------|-------------------|-------------------|
--L----------------|--L----------------|--L----------------|-------------------|
-------------------|-------------------|-------------------|-------------------|


  W                   W                   W
-------------------|-------------------|-------------------|
-------------------|-------------------|-------------------|
-------------------|-------------------|-------------------|
-------------------|-------------------|-------------------|
-------------------|-------------------|-------------------|
-------------------|-------------------|-------------------|


   E   E   E   E   E   E   E   E      E   E   E   E   E   E   E   E
----------------------------------|----------------------------------|
----------------------------------|----------------------------------|
--10--10--10--10--10--10--10--10--|--10--10--10--10--10--10--10--10--|
----------------------------------|----------------------------------|
---8---8---8---8---8---8---8---8--|---8---8---8---8---8---8---8---8--|
----------------------------------|----------------------------------|


   E   E   E   E   E   E   E   E      E   E   E   E   E   E   E   E
----------------------------------|----------------------------------|
----------------------------------|----------------------------------|
--10--10--10--10--10--10--10--10--|--10--10--10--10--10--10--10--10--|
----------------------------------|----------------------------------|
---8---8---8---8---8---8---8---8--|---8---8---8---8---8---8---8---8--|
----------------------------------|----------------------------------|


   E   E   E   E   E   E   E   E      E   E   E   E   E   E   E   E
----------------------------------|----------------------------------|
----------------------------------|----------------------------------|
--10--10--10--10--10--10--10--10--|--10--10--10--10--10--10--10--10--|
----------------------------------|----------------------------------|
---8---8---8---8---8---8---8---8--|---8---8---8---8---8---8---8---8--|
----------------------------------|----------------------------------|


   E   E   E   E   E   E   E   E      E   E   E   E   E   E   E   E
----------------------------------|----------------------------------|
----------------------------------|----------------------------------|
--10--10--10--10--10--10--10--10--|--10--10--10--10--10--10--10--10--|
----------------------------------|----------------------------------|
---8---8---8---8---8---8---8---8--|---8---8---8---8---8---8---8---8--|
----------------------------------|----------------------------------|


  H.              H.              E  Q    Q    E     Q    E  E  E  E
---------------|---------------|------------------|-------------------|
---------------|---------------|------------------|-------------------|
---------------|---------------|------------------|-------------------|
---------------|---------------|--8--8----8----8--|--8----------------|
---------------|---------------|--8--8----8----8--|--8----------------|
---------------|---------------|--8--8----8----8--|--8----------------|


  E  Q    Q    E     Q    E  E  E  E     E  E  E  E  E  E
------------------|-------------------|--------------------|
------------------|-------------------|--------------------|
------------------|-------------------|--------------------|
--8--8----8----8--|--8----------------|--0--0--0--0--0--0--|
--8--8----8----8--|--8----------------|--0--0--0--0--0--0--|
--8--8----8----8--|--8----------------|--0--0--0--0--0--0--|


  E  E  E  E  E  E     E  E  E  E  E  E      Q    Q    Q       E  Q    Q    E
--------------------|--------------------|------------------|------------------|
--------------------|--------------------|------------------|------------------|
--------------------|--------------------|------------------|------------------|
--0--0--0--0--0--0--|--5--5--5--5--5--5--|--10----8----7----|--8--8----8----8--|
--0--0--0--0--0--0--|--5--5--5--5--5--5--|--10----8----8----|--8--8----8----8--|
--0--0--0--0--0--0--|--5--5--5--5--5--5--|--10----8----7----|--8--8----8----8--|


  Q    E  E  E  E     E  Q    Q    E     Q    E  E  E  E     E  E  E  E  E  E
-------------------|------------------|-------------------|--------------------|
-------------------|------------------|-------------------|--------------------|
-------------------|------------------|-------------------|--------------------|
--8----------------|--8--8----8----8--|--8----------------|--0--0--0--0--0--0--|
--8----------------|--8--8----8----8--|--8----------------|--0--0--0--0--0--0--|
--8----------------|--8--8----8----8--|--8----------------|--0--0--0--0--0--0--|


  E  E  E  E  E  E     E  E  E  E  E  E      Q    Q    Q
--------------------|--------------------|------------------|
--------------------|--------------------|------------------|
--------------------|--------------------|------------------|
--0--0--0--0--0--0--|--5--5--5--5--5--5--|--10----8----7----|
--0--0--0--0--0--0--|--5--5--5--5--5--5--|--10----8----8----|
--0--0--0--0--0--0--|--5--5--5--5--5--5--|--10----8----7----|


  E  E  E  E  E  E     E  E  E  E  E  E     E  E  E  E  E  E
--------------------|--------------------|--------------------|
--------------------|--------------------|--------------------|
--------------------|--------------------|--------------------|
--8--8--8--8--8--8--|--8--8--8--8--8--8--|--0--0--0--0--0--0--|
--8--8--8--8--8--8--|--8--8--8--8--8--8--|--0--0--0--0--0--0--|
--8--8--8--8--8--8--|--8--8--8--8--8--8--|--0--0--0--0--0--0--|


  E  E  E  E  E  E     E  E  E  E  E  E     E  E  E  E  E  E
--------------------|--------------------|--------------------|
--------------------|--------------------|--------------------|
--------------------|--------------------|--------------------|
--0--0--0--0--0--0--|--5--5--5--5--5--5--|--5--5--5--5--5--5--|
--0--0--0--0--0--0--|--5--5--5--5--5--5--|--5--5--5--5--5--5--|
--0--0--0--0--0--0--|--5--5--5--5--5--5--|--5--5--5--5--5--5--|


  E  E  E  E  E  E      Q    Q    Q       E  E  E  E  E  E
--------------------|------------------|--------------------|
--------------------|------------------|--------------------|
--------------------|------------------|--------------------|
--5--5--5--5--5--5--|--10----8----7----|--8--8--8--8--8--8--|
--5--5--5--5--5--5--|--10----8----8----|--8--8--8--8--8--8--|
--5--5--5--5--5--5--|--10----8----7----|--8--8--8--8--8--8--|


  E  E  E  E  E  E     E  E  E  E  E  E     E  E  E  E  E  E
--------------------|--------------------|--------------------|
--------------------|--------------------|--------------------|
--------------------|--------------------|--------------------|
--8--8--8--8--8--8--|--0--0--0--0--0--0--|--0--0--0--0--0--0--|
--8--8--8--8--8--8--|--0--0--0--0--0--0--|--0--0--0--0--0--0--|
--8--8--8--8--8--8--|--0--0--0--0--0--0--|--0--0--0--0--0--0--|


  E  E  E  E  E  E     E  E  E  E  E  E     E  E  E  E  E  E
--------------------|--------------------|--------------------|
--------------------|--------------------|--------------------|
--------------------|--------------------|--------------------|
--5--5--5--5--5--5--|--5--5--5--5--5--5--|--5--5--5--5--5--5--|
--5--5--5--5--5--5--|--5--5--5--5--5--5--|--5--5--5--5--5--5--|
--5--5--5--5--5--5--|--5--5--5--5--5--5--|--5--5--5--5--5--5--|


                            PM PM PM PM         PM PM PM PM
  E  E  E  E  E  E     Q    E  E  E  E     Q    E  E  E  E
--------------------|-------------------|-------------------|
--------------------|-------------------|-------------------|
--------------------|-------------------|-------------------|
--5--5--5--5--5--5--|--0----------------|--0----------------|
--5--5--5--5--5--5--|--0----0--0--0--0--|--0----0--0--0--0--|
--5--5--5--5--5--5--|--0----0--0--0--0--|--0----0--0--0--0--|


       PM PM PM PM                           PM PM PM PM         PM PM PM PM
  Q    E  E  E  E     Q    Q    Q       Q    E  E  E  E     Q    E  E  E  E
-------------------|-----------------|-------------------|-------------------|
-------------------|-----------------|-------------------|-------------------|
-------------------|-----------------|-------------------|-------------------|
--0----------------|--0----0----0----|--0----------------|--0----------------|
--0----0--0--0--0--|--0----0----0----|--0----0--0--0--0--|--0----0--0--0--0--|
--0----0--0--0--0--|--1----1----1----|--0----0--0--0--0--|--0----0--0--0--0--|


       PM PM PM PM
  Q    E  E  E  E     Q    Q    Q       Q    Q    Q       Q    Q    Q
-------------------|-----------------|-----------------|-----------------|
-------------------|-----------------|-----------------|-----------------|
-------------------|-----------------|-----------------|-----------------|
--0----------------|--0----0----0----|--0--------------|--0--------------|
--0----0--0--0--0--|--0----0----0----|--0--------------|--0--------------|
--0----0--0--0--0--|--1----1----1----|--0--------------|--0--------------|


  Q    Q    Q       Q    Q    Q       H.              H.
-----------------|-----------------|---------------|---------------|
-----------------|-----------------|---------------|---------------|
-----------------|-----------------|---------------|---------------|
--0--------------|--0----0----0----|---------------|---------------|
--0--------------|--0----0----0----|---------------|---------------|
--0--------------|--1----1----1----|---------------|---------------|


  H.
---------------||
---------------||
---------------||
---------------||
---------------||
---------------||


Duration Legend
---------------
W - whole
H - half
Q - quarter
E - 8th
S - 16th
T - 32nd
X - 64th
. - note dotted
|-n-|  - n-tuplets


Tablature Legend
----------------
L - tied note
x - dead note
g - grace note
(n) - ghost note
> - accentuded note
NH - natural harmonic
AH - artificial harmonic
TH - tapped harmonic
SH - semi harmonic
PH - pitch harmonic
h - hammer on
p - pull off
b - bend
br - bendRelease
pb - preBend
pbr - preBendRelease
brb - bendReleaseBend
\n/ - tremolo bar dip
\n - tremolo bar dive
-/n - tremolo bar Release up
/n\ - tremolo bar inverted dip
/n - tremolo bar return
-\n - tremolo bar Release down
S - shift slide
s - legato slide
/ -  slide into from below or out of upwards
\ -  slide into from above or out of downwards
~ - vibrato
W - wide vibrato
tr - trill
TP - tremolo picking
T - tapping
S - slap
P - pop
< - fade in
^ - brush up
v - brush down
comments
print report bad tab
1 comment total.
-1 reply
andres1 wrote on April 23 2009, 08:36 pm

FICHIER GUITAR PRO v5.10�- ��������������&#
65533;�������������ᦙ
3;��������������ʏ
33;��������������&#
65533;��������������
������d���������
;���������Ò���)�� ��� ������ ���d���ÿ���%TITLE% ��� %SUBTITLE% ���%ARTIST%���%ALBUM%���Words by %WORDS%���Music by %MUSIC%���Words & Music by %WORDSMUSIC%���Copyright %COPYRIGHT%6���5All Rights Reserved - International Copyright Secured ��� Page %N%/%P% ���Moderate–����������ʏ
33;� ��������� ��������� ��������� ��������� ��������� ��������� ��������� ��������� ���������� ��������� ��������� ��������� ��������� ��������� ��������� ��������� ��������� ��������� ��������� ��������� ��������� ��������� ��������� ��������� ���������� ��������� ��������� ��������� ��������� ��������� ��������� ��������� ��������� ��������� ��������� ��������� ��������� ��������� ��������� ��������� ���������� ��������� ��������� ��������� ��������� ��������� ��������� &#

I want to post or [tab]
guest
You may want to rate the tab now too:
select rating
Please do not post tabs as comments. Select "correction" instead!