Oops, an error
Loading. Please wait.

Redemption Tab

ver1
ver1

Album

Whole song

More versions @911Tabs.com
136 views 2 this week
no commentswrite comment
1 2 3 4 5
excellent!
x 1
Autoscroll
+/-
esc
set tempo
stop
Contributor
Difficulty
intermediate
Hey! There's an official Ultimate Guitar app which is ideal
for learning songs when you're away from computer. Get the app
WARNING: You are trying to view
                                    content from Ultimate-Guitar.com
                                    in an unauthorized application,
                                    which is prohibited.

                                    Please use an official Ultimate
                                    Guitar Tabs application for iPhone,
                                    iPad or Android to access legitimate
                                    chords, guitar, bass, and drum tabs
                                    from Ultimate-Guitar.com database.

                                    Type "ultimate guitar tabs" in Apple
                                    App Store's or Android Market's
                                    search to find the application.
Tabbed by: Joshua Garcia (joshuag523@aol.com)

Tabs for the album: Redemption by Before Their Eyes
Please rate and let me know if you have any corrections. Thank you.


* To skip to a certain song, hold Ctrl + F, type T followed by the track 
number in the box and click Next.*


Tracklist:

T01.  Intro
T02.  Lies
T03.  Dream
T04.  Find
T05.  Everything
T06.  Redemption
T07.  Revenge
T08.  Revival
T09.  Surrender
T10.  Backstabber
T11.  Faith
T12.  Alive





____________________________________________________________________________________________________

                                            T01.   INTRO
____________________________________________________________________________________________________





Tuning: Drop C (C G C F A D)


Intro
Guitar 1:
D||--------------------------------------------------------------13~-----------------|
A||--15~-------15~-------15~-------15~-------14~-------14~-----------------14~-------|
F||----------------------------------------------------------------------------------|
C||-------12~-------12~-------12~-------12~-------12~-------12~-------12~-------12~--|
G||----------------------------------------------------------------------------------|
C||----------------------------------------------------------------------------------|


D||-------------------------------------------------------------------12~-------13~--|
A||--15~-------15~-------15~-------15~-------14~-------14~---------------------------|
F||----------------------------------------------------------------------------------|
C||----------------------------------------------------------------------------------| x2
G||-------13~-------13~-------13~-------13~-------13~-------13~--10~-------12~-------|
C||----------------------------------------------------------------------------------|





____________________________________________________________________________________________________

                                           T02.   LIES
____________________________________________________________________________________________________





Tuning: Drop C (C G C F A D)


Intro
Guitar 1:
D||-------------------------------------------------------------------|
A||-------------------------------------------------------------------|
F||-------------------------------------------------------------------|
C||-------------------------------------------------------------------|
G||------------8-8-8-----------8-8-8-----------8-8-8-----------8-8-8--|
C||--0-0-0-0-----------0-0-0---------0-0-0-0-----------0-0-0----------|


D||-------------------------------------------------------------------|
A||-------------------------------------------------------------------|
F||-------------------------------------------------------------------|
C||-------------------------------------------------------------------| x2
G||------------7-7-7-----------7-7-7----------------------------------|
C||--8-8-8-8-----------8-8-8---------5-5-5-5-5-5-5-5-8-8-8-8-3-3-1-1--|


Guitar 2:
D||-------------------------------------------------------------------------------|
A||-------------------------------------------------------------------------------|
F||-------------------------------------------------------------------------------|
C||------------11-11-11-----------12-12-12-----------14-14-14-----------15-15-15--|
G||-------------------------------------------------------------------------------|
C||--0-0-0-0--------------0-0-0------------0-0-0-0--------------0-0-0-------------|


D||-----------------------------------------------------------------------------------------|
A||-----------------------------------------------------------------------------------------|
F||-----------------------------------------------------------------------------------------|
C||------------11-11-11-----------12-12-12-14-14-14-14-14-14-14-14-15-15-15-15-11-11-12-12--| x2
G||-----------------------------------------------------------------------------------------|
C||--8-8-8-8--------------8-8-8-------------------------------------------------------------|



Verse
Guitar 1:
D||------|
A||------|
F||------|
C||--0~--|
G||--0~--|
C||--0~--|
     .


Guitar 1:
D||--------------------------------------------------------------13~-----------------|
A||--15~-------15~-------15~-------15~-------14~-------14~-----------------14~-------|
F||----------------------------------------------------------------------------------|
C||-------12~-------12~-------12~-------12~-------12~-------12~-------12~-------12~--|
G||----------------------------------------------------------------------------------|
C||----------------------------------------------------------------------------------|


D||-------------------------------------------------------------------12~-------13~--|
A||--15~-------15~-------15~-------15~-------14~-------14~---------------------------|
F||----------------------------------------------------------------------------------|
C||----------------------------------------------------------------------------------| x2
G||-------13~-------13~-------13~-------13~-------13~-------13~--10~-------12~-------|
C||----------------------------------------------------------------------------------|



Guitar 1:
D||------------------------------------|-----------------------------------------|
A||------------------------------------|-----------------------------------------|
F||--3/15~-----14~-----12----10~---7~--|--14~---12~---15~-----14~-----12~---10~--|
C||--x/x-------x-------x-----x-----x---|--x-----x-----x-------x-------x-----x----|
G||--1/13~-----12~-----10~---8~----5~--|--12~---10~---13~-----12~-----10~---8~---|
C||------------------------------------|-----------------------------------------|



Pre-Chorus
Guitar 1/2:
D||-----------------------------------------------------|
A||-----------------------------------------------------|
F||-----------------------------------------------------|
C||--0~---0-0-0~---0-0~---0-0-0~---0-0-0-0-0-0-0-0-0-0--|
G||--0~---0-0-0~---0-0~---0-0-0~---0-0-0-0-0-0-0-0-0-0--|
C||--0~---0-0-0~---0-0~---0-0-0~---0-0-0-0-0-0-0-0-0-0--|
     .    . . .    . .    . . .    . . . . . . . . . .



Chorus
Guitar 1:
D||-------------------------------------------------|-----------------------------------------|
A||-------------------------------------------------|-----------------------------------------|
F||--77777777~-7777777--1010101010101010-9999-5555--|---77777777~-7777777-66666666-7777-9999--|
C||--xxxxxxxx--xxxxxxx--x-x-x-x-x-x-x-x--xxxx-xxxx--|---xxxxxxxx--xxxxxxx-xxxxxxxx-xxxx-xxxx--| x2
G||--55555555~-5555555--8-8-8-8-8-8-8-8--7777-3333--|---55555555~-5555555-44444444-5555-7777--|
C||-------------------------------------------------|-----------------------------------------|


Guitar 2:
D||-----------------------------------------------------------------|
A||-----------------------------------------------------------------|
F||-----------------------------------------------------------------|
C||-----------------------------------------------------------------|
G||-----------------------------------------------------------------|
C||--0-0-0-0-0-0-0-0~-0-0-0-0-0-0-0-0-0-0-0-0-0-0-0~-0-0-0-0-0-0-0--|


D||------------------------------------------------------------------|
A||------------------------------------------------------------------|
F||------------------------------------------------------------------|
C||------------------------------------------------------------------| x2
G||------------------------------------------------------------------|
C||--8-8-8-8-8-8-8-8~-8-8-8-8-8-8-8-5-5-5-5-5-5-5-5-8-8-8-8-3-3-1-1--|



Pre-Verse
Guitar 1:
D||-------------------------------------------------------------------|
A||-------------------------------------------------------------------|
F||-------------------------------------------------------------------|
C||-------------------------------------------------------------------|
G||------------8-8-8-----------8-8-8-----------8-8-8-----------8-8-8--|
C||--0-0-0-0-----------0-0-0---------0-0-0-0-----------0-0-0----------|


D||-------------------------------------------------------------------|
A||-------------------------------------------------------------------|
F||-------------------------------------------------------------------|
C||-------------------------------------------------------------------|
G||------------7-7-7-----------7-7-7----------------------------------|
C||--8-8-8-8-----------8-8-8---------5-5-5-5-5-5-5-5-8-8-8-8-3-3-1-1--|


Guitar 2:
D||-------------------------------------------------------------------------------|
A||-------------------------------------------------------------------------------|
F||-------------------------------------------------------------------------------|
C||------------11-11-11-----------12-12-12-----------14-14-14-----------15-15-15--|
G||-------------------------------------------------------------------------------|
C||--0-0-0-0--------------0-0-0------------0-0-0-0--------------0-0-0-------------|


D||-----------------------------------------------------------------------------------------|
A||-----------------------------------------------------------------------------------------|
F||-----------------------------------------------------------------------------------------|
C||------------11-11-11-----------12-12-12-14-14-14-14-14-14-14-14-15-15-15-15-11-11-12-12--|
G||-----------------------------------------------------------------------------------------|
C||--8-8-8-8--------------8-8-8-------------------------------------------------------------|



Verse
Guitar 1:
D||------|
A||------|
F||------|
C||--0~--|
G||--0~--|
C||--0~--|
     .


Guitar 1:
D||--------------------------------------------------------------13~-----------------|
A||--15~-------15~-------15~-------15~-------14~-------14~-----------------14~-------|
F||----------------------------------------------------------------------------------|
C||-------12~-------12~-------12~-------12~-------12~-------12~-------12~-------12~--|
G||----------------------------------------------------------------------------------|
C||----------------------------------------------------------------------------------|


D||-------------------------------------------------------------------12~-------13~--|
A||--15~-------15~-------15~-------15~-------14~-------14~---------------------------|
F||----------------------------------------------------------------------------------|
C||----------------------------------------------------------------------------------| x2
G||-------13~-------13~-------13~-------13~-------13~-------13~--10~-------12~-------|
C||----------------------------------------------------------------------------------|



Guitar 1:
D||------------------------------------|-----------------------------------------|
A||------------------------------------|-----------------------------------------|
F||--3/15~-----14~-----12----10~---7~--|--14~---12~---15~-----14~-----12~---10~--|
C||--x/x-------x-------x-----x-----x---|--x-----x-----x-------x-------x-----x----|
G||--1/13~-----12~-----10~---8~----5~--|--12~---10~---13~-----12~-----10~---8~---|
C||------------------------------------|-----------------------------------------|



Pre-Chorus
Guitar 1/2:
D||-----------------------------------------------------|
A||-----------------------------------------------------|
F||-----------------------------------------------------|
C||--0~---0-0-0~---0-0~---0-0-0~---0-0-0-0-0-0-0-0-0-0--|
G||--0~---0-0-0~---0-0~---0-0-0~---0-0-0-0-0-0-0-0-0-0--|
C||--0~---0-0-0~---0-0~---0-0-0~---0-0-0-0-0-0-0-0-0-0--|
     .    . . .    . .    . . .    . . . . . . . . . .



Chorus
Guitar 1:
D||-------------------------------------------------|-----------------------------------------|
A||-------------------------------------------------|-----------------------------------------|
F||--77777777~-7777777--1010101010101010-9999-5555--|---77777777~-7777777-66666666-7777-9999--|
C||--xxxxxxxx--xxxxxxx--x-x-x-x-x-x-x-x--xxxx-xxxx--|---xxxxxxxx--xxxxxxx-xxxxxxxx-xxxx-xxxx--| x2
G||--55555555~-5555555--8-8-8-8-8-8-8-8--7777-3333--|---55555555~-5555555-44444444-5555-7777--|
C||-------------------------------------------------|-----------------------------------------|


Guitar 2:
D||-----------------------------------------------------------------|
A||-----------------------------------------------------------------|
F||-----------------------------------------------------------------|
C||-----------------------------------------------------------------|
G||-----------------------------------------------------------------|
C||--0-0-0-0-0-0-0-0~-0-0-0-0-0-0-0-0-0-0-0-0-0-0-0~-0-0-0-0-0-0-0--|


D||------------------------------------------------------------------|
A||------------------------------------------------------------------|
F||------------------------------------------------------------------|
C||------------------------------------------------------------------| x2
G||------------------------------------------------------------------|
C||--8-8-8-8-8-8-8-8~-8-8-8-8-8-8-8-5-5-5-5-5-5-5-5-8-8-8-8-3-3-1-1--|



Bridge
Guitar 1:
D||-------------------------------------------------------|
A||-------------------------------------------------------|
F||--7~--7-7-7~--7-7~--7-7-7~--7-9~--9-9-9~--9-9~--9-12~--|
C||--x---x-x-x---x-x---x-x-x---x-x---x-x-x---x-x---x-x----|
G||--5~--5-5-5~--5-5~--5-5-5~--5-7~--7-7-7~--7-7~--7-10~--|
C||-------------------------------------------------------|


D||--------------------------------------------------------------------|
A||--------------------------------------------------------------------|
F||--11-11~--11-11~--11b12r11--11--------11-11~--11-11~--11b12r11--11--|
C||--x--x----x--x----x-----x---x---------x--x----x--x----x-----x---x---| x2
G||--9--9-~--9--9-~--9-----9---9---------9--9-~--9--9-~--9-----9---9---|
C||--------------------------------------------------------------------|


Guitar 2:
D||-----------------------------------------------------------|
A||-----------------------------------------------------------|
F||-----------------------------------------------------------|
C||--8~--8-8-8~--8-8~--8-8-8~--8-5~--5-5-5~--5-5~--5-5-5~--5--|
G||--8~--8-8-8~--8-8~--8-8-8~--8-5~--5-5-5~--5-5~--5-5-5~--5--|
C||--8~--8-8-8~--8-8~--8-8-8~--8-5~--5-5-5~--5-5~--5-5-5~--5--|


D||----------------------------------------------------------------|
A||----------------------------------------------------------------|
F||----------------------------------------------------------------|
C||--0-0---0-0---00000--0--------0-0---0-0---00000--0--------------|
G||--0-0---0-0---00000--0--------0-0---0-0---00000--0--------------|
C||--0-0---0-0---00000--0--------0-0---0-0---00000--0---12-8-11-7--|
     . .   . .   .....  .        . .   . .   .....  .



Guitar 1:
D||---------------------------------------------------------|
A||---------------------------------------------------------|
F||--7~--7-7-7~--7-7~--7-7-7~--7-10-10-10-10-10-10-10-10-9--|
C||--x---x-x-x---x-x---x-x-x---x-x--x--x--x--x--x--x--x--x--|
G||--5~--5-5-5~--5-5~--5-5-5~--5-8--8--8--8--8--8--8--8--7--|
C||---------------------------------------------------------|


Guitar 2:
D||-------------------------------------------------|
A||-------------------------------------------------|
F||-------------------------------------------------|
C||--8~--8-8-8~--8-8~--8-8-8~--8-5-5-5-5-5-5-5-5-5--|
G||--8~--8-8-8~--8-8~--8-8-8~--8-5-5-5-5-5-5-5-5-5--|
C||--8~--8-8-8~--8-8~--8-8-8~--8-5-5-5-5-5-5-5-5-5--|
                                 . . . . . . . .



Interlude
Guitar 1:
D||-------------------------------------------------------------------|
A||-------------------------------------------------------------------|
F||-------------------------------------------------------------------|
C||-------------------------------------------------------------------|
G||------------8-8-8-----------8-8-8-----------8-8-8-----------8-8-8--|
C||--0-0-0-0-----------0-0-0---------0-0-0-0-----------0-0-0----------|



Chorus
Guitar 1:
D||-----------------------------------------|
A||-----------------------------------------|
F||---77777777~-7777777-66666666-7777-9999--|
C||---xxxxxxxx--xxxxxxx-xxxxxxxx-xxxx-xxxx--|
G||---55555555~-5555555-44444444-5555-7777--|
C||-----------------------------------------|


Guitar 2:
D||------------------------------------------------------------------|
A||------------------------------------------------------------------|
F||------------------------------------------------------------------|
C||------------------------------------------------------------------|
G||------------------------------------------------------------------|
C||--8-8-8-8-8-8-8-8~-8-8-8-8-8-8-8-5-5-5-5-5-5-5-5-8-8-8-8-3-3-1-1--|


Guitar 1:
D||-------------------------------------------------|-----------------------------------------|
A||-------------------------------------------------|-----------------------------------------|
F||--77777777~-7777777--1010101010101010-9999-5555--|---77777777~-7777777-66666666-7777-9999--|
C||--xxxxxxxx--xxxxxxx--x-x-x-x-x-x-x-x--xxxx-xxxx--|---xxxxxxxx--xxxxxxx-xxxxxxxx-xxxx-xxxx--|
G||--55555555~-5555555--8-8-8-8-8-8-8-8--7777-3333--|---55555555~-5555555-44444444-5555-7777--|
C||-------------------------------------------------|-----------------------------------------|


Guitar 2:
D||-----------------------------------------------------------------|
A||-----------------------------------------------------------------|
F||-----------------------------------------------------------------|
C||-----------------------------------------------------------------|
G||-----------------------------------------------------------------|
C||--0-0-0-0-0-0-0-0~-0-0-0-0-0-0-0-0-0-0-0-0-0-0-0~-0-0-0-0-0-0-0--|


D||------------------------------------------------------------------|
A||------------------------------------------------------------------|
F||------------------------------------------------------------------|
C||------------------------------------------------------------------|
G||------------------------------------------------------------------|
C||--8-8-8-8-8-8-8-8~-8-8-8-8-8-8-8-5-5-5-5-5-5-5-5-8-8-8-8-3-3-1-1--|



Pre-Verse
Guitar 1:
D||-------------------------------------------------------------------|
A||-------------------------------------------------------------------|
F||-------------------------------------------------------------------|
C||-------------------------------------------------------------------|
G||------------8-8-8-----------8-8-8-----------8-8-8-----------8-8-8--|
C||--0-0-0-0-----------0-0-0---------0-0-0-0-----------0-0-0----------|


D||-------------------------------------------------------------------|
A||-------------------------------------------------------------------|
F||-------------------------------------------------------------------|
C||-------------------------------------------------------------------|
G||------------7-7-7-----------7-7-7----------------------------------|
C||--8-8-8-8-----------8-8-8---------5-5-5-5-5-5-5-5-8-8-8-8-3-3-1-1--|


Guitar 2:
D||-------------------------------------------------------------------------------|
A||-------------------------------------------------------------------------------|
F||-------------------------------------------------------------------------------|
C||------------11-11-11-----------12-12-12-----------14-14-14-----------15-15-15--|
G||-------------------------------------------------------------------------------|
C||--0-0-0-0--------------0-0-0------------0-0-0-0--------------0-0-0-------------|


D||-----------------------------------------------------------------------------------------|
A||-----------------------------------------------------------------------------------------|
F||-----------------------------------------------------------------------------------------|
C||------------11-11-11-----------12-12-12-14-14-14-14-14-14-14-14-15-15-15-15-11-11-12-12--|
G||-----------------------------------------------------------------------------------------|
C||--8-8-8-8--------------8-8-8-------------------------------------------------------------|



Outro
Guitar 1/2:
D||--------------------------------------------------------------------|
A||--------------------------------------------------------------------|
F||--------------------------------------------------------------------|
C||--0-0---0-0---00000--0--------0-0---0-0---00000--0--------------0~--|
G||--0-0---0-0---00000--0--------0-0---0-0---00000--0--------------0~--|
C||--0-0---0-0---00000--0--------0-0---0-0---00000--0---12-8-11-7--0~--|
     . .   . .   .....  .        . .   . .   .....  .              .





____________________________________________________________________________________________________

                                            T03.   DREAM
____________________________________________________________________________________________________





Tuning: Drop C (C G C F A D)


Intro
Guitar 1/2:
D||-----------------------------------|------------------------------|
A||-----------------------------------|------------------------------|
F||-----------------------------------|------------------------------|
C||--0--7\----3~--3~-----10--10\-5/7--|--0--7\----3~--3~-----3--1-1--|
G||--0--5\--3-3~--3~---0-7---8-\-3/5--|--0--5\--3-3~--3~---0-3--1-1--|
C||--0------3-3~--3~---0--------------|--0------3-3~--3~---0-3--1-1--|
            .          .                        .          .


D||-----------------------------------------|
A||-----------------------------------------|
F||-----------------------------------------|
C||--0--7\----3~--3~-----10-10-10-10-10-10--|
G||--0--5\--3-3~--3~---0-7--7--7--7--7--7---|
C||--0------3-3~--3~---0--------------------|
            .          .


Guitar 1:
D||---------------------------------------|
A||---------------------------------------|
F||------------------10-10-10-10-5-5-5-5--|
C||--8-8-8-8-8-8-8\7-10-10-10-10-5-5-5-5--|
G||--8-8-8-8-8-8-8\7-8--8--8--8--3-3-3-3--|
C||--8-8-8-8-8-8-8\7----------------------|


Guitar 2:
D||-----------------------------------|
A||-----------------------------------|
F||-----------------------------------|
C||--8-8-8-8-8-8-8\7-7-7-7-7-5-5-5-5--|
G||--8-8-8-8-8-8-8\7-8-8-8-8-3-3-3-3--|
C||--8-8-8-8-8-8-8\7------------------|



Verse
Guitar 1/2:
D||--------------------------------------------------------------------------------|
A||--------------------------------------------------------------------------------|
F||--------------------------------------------------------------------------------|
C||--------------------------------------------------------------------------------|
G||--------------------------------------------------------------------------------|
C||--0-0-----0-0---0-0---0-0-0-8-8-8----8---8----8-8-8-8\3-3-3----3-3---3-3---3-3--|


D||---------------------------------------|
A||---------------------------------------|
F||---------------------------------------|
C||---------------------------------------| x2
G||--------------5------------------------|
C||--8-0-0-3-0-0---0-0-3-0-0-10-10-10-10--|



Chorus
Guitar 1:
D||-----------------------------------|-----------------------------------|
A||----5~---6~---5~--------3~---------|-----------------------------------|
F||--7~-------------0~5~--------------|--5-5-5----------------------------|
C||-----------------------------------|--------3-3-3-2-2-2-0-0-0-2-2-3-3--|
G||-----------------------------------|-----------------------------------|
C||-----------------------------------|-----------------------------------|


D||-----------------------------------|--8-8-8----------------------------|
A||----5~---6~---5~--------3~---------|--------6-6-6-5-5-5\3-3-3/5-5-6-6--|
F||--7~-------------0~5~--------------|-----------------------------------|
C||-----------------------------------|-----------------------------------|
G||-----------------------------------|-----------------------------------|
C||-----------------------------------|-----------------------------------|


D||-----------------------------------|-----------------------------------|
A||----5~---6~---5~--------3~---------|-----------------------------------|
F||--7~-------------0~5~--------------|--5-5-5----------------------------|
C||-----------------------------------|--------3-3-3-2-2-2-0-0-0-2-2-3-3--|
G||-----------------------------------|-----------------------------------|
C||-----------------------------------|-----------------------------------|


D||-----------------------------------|--8-8-8----------------------------|
A||----5~---6~---5~--------3~---------|--------6-6-6-5-5-5-6-6-6/8~----\--|
F||--7~-------------0~5~--------------|-----------------------------------|
C||-----------------------------------|-----------------------------------|
G||-----------------------------------|-----------------------------------|
C||-----------------------------------|-----------------------------------|


Guitar 2:
D||---------------------------------------------------------------------------|
A||---------------------------------------------------------------------------|
F||---------------------------------------------------------------------------|
C||--0-0-0-0-0-0-0-0-10-10-10-10-10-10-10-10-8-8-8-8-8-8-8-8-8-8-8-8-8-8-8-8--| x2
G||--0-0-0-0-0-0-0-0-10-10-10-10-10-10-10-10-8-8-8-8-8-8-8-8-8-8-8-8-8-8-8-8--|
C||--0-0-0-0-0-0-0-0-10-10-10-10-10-10-10-10-8-8-8-8-8-8-8-8-8-8-8-8-8-8-8-8--|


D||-------------------------------------------------|
A||-------------------------------------------------|
F||-------------------------------------------------|
C||--00~--000~--022~--222~--233~--333~--333~--333~--| x2
G||--00~--000~--022~--222~--233~--333~--333~--333~--|
C||--00~--000~--022~--222~--233~--333~--333~--333~--|



Pre-Verse
Guitar 1/2:
D||-----------------------------------|-------------------------------|
A||-----------------------------------|-------------------------------|
F||-----------------------------------|-------------------------------|
C||--0--7\----3~--3~-----10--10\-5/7--|--0--7\----3~--3~-----3--1-/8--|
G||--0--5\--3-3~--3~---0-7---8-\-3/5--|--0--5\--3-3~--3~---0-3--1-/8--|
C||--0------3-3~--3~---0--------------|--0------3-3~--3~---0-3--1-/8--|
            .          .                        .          .


D||-----------------------------------------|
A||-----------------------------------------|
F||-----------------------------------------|
C||--0--7\----3~--3~-----10-10-10-10-10-10--|
G||--0--5\--3-3~--3~---0-7--7--7--7--7--7---|
C||--0------3-3~--3~---0--------------------|
            .          .


Guitar 1:
D||---------------------------------------|
A||---------------------------------------|
F||------------------10-10-10-10-5-5-5-5--|
C||--8-8-8-8-8-8-8\7-10-10-10-10-5-5-5-5--|
G||--8-8-8-8-8-8-8\7-8--8--8--8--3-3-3-3--|
C||--8-8-8-8-8-8-8\7----------------------|


Guitar 2:
D||-----------------------------------|
A||-----------------------------------|
F||-----------------------------------|
C||--8-8-8-8-8-8-8\7-7-7-7-7-5-5-5-5--|
G||--8-8-8-8-8-8-8\7-8-8-8-8-3-3-3-3--|
C||--8-8-8-8-8-8-8\7------------------|



Verse
Guitar 1:
     T              T                T
D||----------------------------------------------|
A||----------------------------------------------|
F||--14~--5~/7~-----14~--5~/7\2~-----14~--5~/7~--|
C||----------------------------------------------|
G||----------------------------------------------|
C||----------------------------------------------|


     T      T      T      T     T
D||----------------------------------|
A||----------------------------------|
F||--14-5h7-12-5h7-10-5h7-9-5h7-10~--|
C||----------------------------------|
G||----------------------------------|
C||----------------------------------|


Guitar 2:
D||----------------------------------------------------------------------------------|
A||----------------------------------------------------------------------------------|
F||----------------------------------------------------------------------------------|
C||--0-0-----0-0---0-0~--0-0-0-8-8-8----8---8----8-8-8-8\3-3-3----3-3---3-3---3-3-3--|
G||--0-0-----0-0---0-0~--0-0-0-8-8-8----8---8----8-8-8-8\3-3-3----3-3---3-3---3-3-3--|
C||--0-0-----0-0---0-0~--0-0-0-8-8-8----8---8----8-8-8-8\3-3-3----3-3---3-3---3-3-3--|
     . .     . .   . .   . . . . . .    .   .    . . . . . . .    . .   . .   . . .

D||---------------------------------------|
A||---------------------------------------|
F||---------------------------------------|
C||---------------------------------------|
G||--------------5------------------------|
C||--8-0-0-3-0-0---0-0-3-0-0-10-10-10-10--|



Guitar 1:
     T        T                             T        T
D||--------------------------------------|--------------------------------------|
A||--------------------------------------|--------------------------------------|
F||--14p0-5/7-12p0-7h10p0-7h9p0-5p0-5/7--|--14p0-5/7-12p0-7h10p0-7h9p0-5p0-5/7--|
C||--------------------------------------|--------------------------------------|
G||--------------------------------------|--------------------------------------|
C||--------------------------------------|--------------------------------------|


     T        T                             T      T      T      T     T
D||--------------------------------------|--------------------------------------|
A||--------------------------------------|--------------------------------------|
F||--14p0-5/7-12p0-7h10p0-7h9p0-5p0-5/7--|--14-5h7-12-5h7-10-5h7-9-5h7-9-5h7~---|
C||--------------------------------------|--------------------------------------|
G||--------------------------------------|--------------------------------------|
C||--------------------------------------|--------------------------------------|


Guitar 2:
D||--------------------------------------------------------------------------------|
A||--------------------------------------------------------------------------------|
F||--------------------------------------------------------------------------------|
C||--------------------------------------------------------------------------------|
G||--------------------------------------------------------------------------------|
C||--0-0-----0-0---0-0---0-0-0-8-8-8----8---8----8-8-8-8\3-3-3----3-3---3-3---3-3--|


D||---------------------------|
A||---------------------------|
F||---------------------------|
C||---------------------------|
G||--------------5------------|
C||--8-0-0-3-0-0---0-0-3-0-0--|



Chorus
Guitar 1:
D||-----------------------------------|-----------------------------------|
A||----5~---6~---5~--------3~---------|-----------------------------------|
F||--7~-------------0~5~--------------|--5-5-5----------------------------|
C||-----------------------------------|--------3-3-3-2-2-2-0-0-0-2-2-3-3--|
G||-----------------------------------|-----------------------------------|
C||-----------------------------------|-----------------------------------|


D||-----------------------------------|--8-8-8----------------------------|
A||----5~---6~---5~--------3~---------|--------6-6-6-5-5-5\3-3-3/5-5-6-6--|
F||--7~-------------0~5~--------------|-----------------------------------|
C||-----------------------------------|-----------------------------------|
G||-----------------------------------|-----------------------------------|
C||-----------------------------------|-----------------------------------|


D||-----------------------------------|-----------------------------------|
A||----5~---6~---5~--------3~---------|-----------------------------------|
F||--7~-------------0~5~--------------|--5-5-5----------------------------|
C||-----------------------------------|--------3-3-3-2-2-2-0-0-0-2-2-3-3--|
G||-----------------------------------|-----------------------------------|
C||-----------------------------------|-----------------------------------|


D||-----------------------------------|--8-8-8----------------------------|
A||----5~---6~---5~--------3~---------|--------6-6-6-5-5-5-6-6-6/8~----\--|
F||--7~-------------0~5~--------------|-----------------------------------|
C||-----------------------------------|-----------------------------------|
G||-----------------------------------|-----------------------------------|
C||-----------------------------------|-----------------------------------|


Guitar 2:
D||---------------------------------------------------------------------------|
A||---------------------------------------------------------------------------|
F||---------------------------------------------------------------------------|
C||--0-0-0-0-0-0-0-0-10-10-10-10-10-10-10-10-8-8-8-8-8-8-8-8-8-8-8-8-8-8-8-8--| x2
G||--0-0-0-0-0-0-0-0-10-10-10-10-10-10-10-10-8-8-8-8-8-8-8-8-8-8-8-8-8-8-8-8--|
C||--0-0-0-0-0-0-0-0-10-10-10-10-10-10-10-10-8-8-8-8-8-8-8-8-8-8-8-8-8-8-8-8--|


D||-------------------------------------------------|
A||-------------------------------------------------|
F||-------------------------------------------------|
C||--00~--000~--022~--222~--233~--333~--333~--333~--| x2
G||--00~--000~--022~--222~--233~--333~--333~--333~--|
C||--00~--000~--022~--222~--233~--333~--333~--333~--|



Breakdown
Guitar 1:
D||---------------------------------------------------------------|
A||---------------------------------------------------------------|
F||---------------------------------------------------------------|
C||--0---0---0-0----0---000-0-0-0-0-0-0--0---0-0---0---000-0-0-0--|
G||--0---0---0-0----0---000-0-0-0-0-0-0--0---0-0---0---000-0-0-0--|
C||--0---0---0-0----0---000-0-0-0-0-0-0--0---0-0---0---000-0-0-0--|
     .   .   . .    .   ... . . . . . .  .   . .   .   ... . . .

Guitar 2:
D||------|
A||------|
F||------|
C||--0~--|
G||--0~--|
C||--0~--|



Guitar 1/2:                                                   (1) (2)
D||--------------------------------------------------------------------|
A||--------------------------------------------------------------------|
F||--------------------------------------------------------------------|
C||--0---0---0-0----0---000-0-0-0-0-0-0--0---0-0---0---000-0--*5b------|
G||--0---0---0-0----0---000-0-0-0-0-0-0--0---0-0---0---000-0------*3b--|
C||--0---0---0-0----0---000-0-0-0-0-0-0--0---0-0---0---000-0-----------|
     .   .   . .    .   ... . . . . . .  .   . .   .   ... .


D||--------------------------------------------------------------------|
A||--------------------------------------------------------------------|
F||--------------------------------------------------------------------|
C||--0---0---0-0----0---000-0-0-0-0-0-0--0---0-0---0---000-0-----------|
G||--0---0---0-0----0---000-0-0-0-0-0-0--0---0-0---0---000-0-----------|
C||--0---0---0-0----0---000-0-0-0-0-0-0--0---0-0---0---000-0--8-0-3h5--|
     .   .   . .    .   ... . . . . . .  .   . .   .   ... .




Bridge
Guitar 1:
D||---------------------------------------------------------------------|
A||---------------------------------------------------------------------|
F||--7~-7~-7/10---7~--777-7-7\5~5-5-7~-7~-7/10---7~--777-7/14-14-14-14--|
C||--x--x--x/x----x---xxx-x-x\x-x-x-x--x--x/x----x---xxx-x/x--x--x--x---| x2
G||--5~-5~-5/8----5~--555-5-5\3-3-3-5~-5~-5/8----5~--555-5/12-12-12-12--|
C||---------------------------------------------------------------------|


Guitar 1/2 (Dub):                                             (1) (2)
D||--------------------------------------------------------------------|
A||--------------------------------------------------------------------|
F||--------------------------------------------------------------------|
C||--0---0---0-0----0---000-0-0-0-0-0-0--0---0-0---0---000-0--*5b------|
G||--0---0---0-0----0---000-0-0-0-0-0-0--0---0-0---0---000-0------*3b--|
C||--0---0---0-0----0---000-0-0-0-0-0-0--0---0-0---0---000-0-----------|
     .   .   . .    .   ... . . . . . .  .   . .   .   ... .


D||--------------------------------------------------------------------|
A||--------------------------------------------------------------------|
F||--------------------------------------------------------------------|
C||--0---0---0-0----0---000-0-0-0-0-0-0--0---0-0---0---000-0-----------|
G||--0---0---0-0----0---000-0-0-0-0-0-0--0---0-0---0---000-0-----------|
C||--0---0---0-0----0---000-0-0-0-0-0-0--0---0-0---0---000-0--8-0-3h5--|
     .   .   . .    .   ... . . . . . .  .   . .   .   ... .



Chorus
Guitar 1:
D||-----------------------------------|-----------------------------------|
A||----5~---6~---5~--------3~---------|-----------------------------------|
F||--7~-------------0~5~--------------|--5-5-5----------------------------|
C||-----------------------------------|--------3-3-3-2-2-2-0-0-0-2-2-3-3--|
G||-----------------------------------|-----------------------------------|
C||-----------------------------------|-----------------------------------|


D||-----------------------------------|--8-8-8----------------------------|
A||----5~---6~---5~--------3~---------|--------6-6-6-5-5-5\3-3-3/5-5-6-6--|
F||--7~-------------0~5~--------------|-----------------------------------|
C||-----------------------------------|-----------------------------------|
G||-----------------------------------|-----------------------------------|
C||-----------------------------------|-----------------------------------|


D||-----------------------------------|-----------------------------------|
A||----5~---6~---5~--------3~---------|-----------------------------------|
F||--7~-------------0~5~--------------|--5-5-5----------------------------|
C||-----------------------------------|--------3-3-3-2-2-2-0-0-0-2-2-3-3--|
G||-----------------------------------|-----------------------------------|
C||-----------------------------------|-----------------------------------|


D||-----------------------------------|--8-8-8----------------------------|
A||----5~---6~---5~--------3~---------|--------6-6-6-5-5-5-6-6-6/8~----\--|
F||--7~-------------0~5~--------------|-----------------------------------|
C||-----------------------------------|-----------------------------------|
G||-----------------------------------|-----------------------------------|
C||-----------------------------------|-----------------------------------|


Guitar 2:
D||---------------------------------------------------------------------------|
A||---------------------------------------------------------------------------|
F||---------------------------------------------------------------------------|
C||--0-0-0-0-0-0-0-0-10-10-10-10-10-10-10-10-8-8-8-8-8-8-8-8-8-8-8-8-8-8-8-8--| x2
G||--0-0-0-0-0-0-0-0-10-10-10-10-10-10-10-10-8-8-8-8-8-8-8-8-8-8-8-8-8-8-8-8--|
C||--0-0-0-0-0-0-0-0-10-10-10-10-10-10-10-10-8-8-8-8-8-8-8-8-8-8-8-8-8-8-8-8--|


D||-------------------------------------------------|
A||-------------------------------------------------|
F||-------------------------------------------------|
C||--00~--000~--022~--222~--233~--333~--333~--333~--| x2
G||--00~--000~--022~--222~--233~--333~--333~--333~--|
C||--00~--000~--022~--222~--233~--333~--333~--333~--|



Outro
Guitar 1/2:
D||-----------------------------------|-------------------------------|
A||-----------------------------------|-------------------------------|
F||-----------------------------------|-------------------------------|
C||--0--7\----3~--3~-----10--10\-5/7--|--0--7\----3~--3~-----3--1-/8--|
G||--0--5\--3-3~--3~---0-7---8-\-3/5--|--0--5\--3-3~--3~---0-3--1-/8--|
C||--0------3-3~--3~---0--------------|--0------3-3~--3~---0-3--1-/8--|
            .          .                        .          .


D||-----------------------------------------|
A||-----------------------------------------|
F||-----------------------------------------|
C||--0--7\----3~--3~-----10-10-10-10-10-10--|
G||--0--5\--3-3~--3~---0-7--7--7--7--7--7---|
C||--0------3-3~--3~---0--------------------|
            .          .


Guitar 1:
D||---------------------------------------|
A||---------------------------------------|
F||------------------10-10-10-10-5-5-5-5--|
C||--8-8-8-8-8-8-8\7-10-10-10-10-5-5-5-5--|
G||--8-8-8-8-8-8-8\7-8--8--8--8--3-3-3-3--|
C||--8-8-8-8-8-8-8\7----------------------|


Guitar 2:
D||-----------------------------------|
A||-----------------------------------|
F||-----------------------------------|
C||--8-8-8-8-8-8-8\7-7-7-7-7-5-5-5-5--|
G||--8-8-8-8-8-8-8\7-8-8-8-8-3-3-3-3--|
C||--8-8-8-8-8-8-8\7------------------|


Guitar 1/2:
D||------|
A||------|
F||------|
C||--0~--|
G||--0~--|
C||--0~--|
     .





____________________________________________________________________________________________________

                                           T04.   FIND
____________________________________________________________________________________________________





Tuning: Drop C (C G C F A D)


Intro
Guitar 1:
D||--------------------------------------------------------------------------------------|
A||--------------------------------------------------------------------------------------|
F||--7-7-7-10-10-10-12-12-12-14-14-14-14-14-14-14-7-7-7-10-10-10-12-12-12-9-9-9-9-9-9-9--|
C||--x-x-x-x--x--x--x--x--x--x--x--x--x--x--x--x--x-x-x-x--x--x--x--x--x--x-x-x-x-x-x-x--|
G||--5-5-5-8--8--8--10-10-10-12-12-12-12-12-12-12-5-5-5-8--8--8--10-10-10-7-7-7-7-7-7-7--|
C||--------------------------------------------------------------------------------------|


D||-----------------------------------------------------------------------------------|
A||-----------------------------------------------------------------------------------|
F||--7-7-7-10-10-10-12-12-12-14-14-14-14-14-14-14-7-7-7-10-10-10-8-8-8-8-8-8-8-8-8-8--|
C||--x-x-x-x--x--x--x--x--x--x--x--x--x--x--x--x--x-x-x-x--x--x--x-x-x-x-x-x-x-x-x-x--|
G||--5-5-5-8--8--8--10-10-10-12-12-12-12-12-12-12-5-5-5-8--8--8--6-6-6-6-6-6-6-6-6-6--|
C||-----------------------------------------------------------------------------------|


Guitar 2:
D||-------------------------------------------------------------------|
A||-------------------------------------------------------------------|
F||-------------------------------------------------------------------|
C||-------------------------------------------------------------------|
G||-------------------------------------------------------------------|
C||--0-0-0-3-3-3-5-5-5-7-7-7-7-7-7-7-0-0-0-3-3-3-5-5-5-2-2-2-2-2-2-2--|


D||-------------------------------------------------------------------|
A||-------------------------------------------------------------------|
F||-------------------------------------------------------------------|
C||-------------------------------------------------------------------|
G||-------------------------------------------------------------------|
C||--0-0-0-3-3-3-5-5-5-7-7-7-7-7-7-7-0-0-0-3-3-3-1-1-1-1-1-1-1-1-1-1--|



Verse
Guitar 1:
D||------|
A||------|
F||--7~--|
C||--x---|
G||--5~--|
C||------|


Guitar 2:
D||------|
A||------|
F||------|
C||--0~--|
G||--0~--|
C||--0~--|



Pre-Chorus
Guitar 1 (Left):
D||--------------------------------------------------|
A||------------------------8~------------8~----------|
F||----------5~-----------------5~------------5~-----|
C||-------7~-----------------------7~------------7~--|
G||--5~----------------------------------------------|
C||--------------------------------------------------|


D||--------------------------------------------------|
A||------------------------8~------------8~----------|
F||----------5~-----------------5~------------5~-----|
C||-------7~-----------------------7~------------7~--|
G||--5~----------------------------------------------|
C||--------------------------------------------------|


Guitar 2 (Right):
D||----------0~----0~--------------------------------|
A||-------------6~-----------------------------------|
F||--------------------------------------------------|
C||-------7~-----------------------------------------|
G||--------------------------------------------------|
C||--------------------------------------------------|


D||----------0~----0~--------------------0~----------|
A||-------------6~---------6~------------------------|
F||--------------------------------------------------|
C||-------7~-----------------------------------------|
G||--------------------------------------------------|
C||--------------------------------------------------|



Chorus
Guitar 1:
D||---------------------------------------------------------------------------------|
A||--10------------13---------------------------------------------------------------|
F||---------10------------10-----12---12-------12---12-----10---10-12---12----------|
C||-----0-0----0-0----0-0----0-0----0----0-0-0----0----0-0----0-------0----0-10-12--|
G||---------------------------------------------------------------------------------|
C||---------------------------------------------------------------------------------|
                                           . .    .    . .    .       .    .


D||------------------------------------------------------------------------------------------|
A||--10------------13--------------------------------10-10-10-11-11-11-----------------------|
F||---------10------------10-----12-12-12---------------------------------------10-10--------|
C||-----0-0----0-0----0-0----0-0----------0-12-12-12-------------------13-13-13-------12-12--|
G||------------------------------------------------------------------------------------------|
C||------------------------------------------------------------------------------------------|


Guitar 2:
D||-------------------------------------------------------------------|
A||-------------------------------------------------------------------|
F||-------------------------------------------------------------------|
C||--0-0-0-0-0-0-0-0-3-3-3-3-3-3-3-3-8-8-8-8-8-8-8-8-8-8-8-8-8-8-8-8--|
G||--0-0-0-0-0-0-0-0-3-3-3-3-3-3-3-3-8-8-8-8-8-8-8-8-8-8-8-8-8-8-8-8--|
C||--0-0-0-0-0-0-0-0-3-3-3-3-3-3-3-3-8-8-8-8-8-8-8-8-8-8-8-8-8-8-8-8--|


D||-------------------------------------------------------------------|
A||-------------------------------------------------------------------|
F||-------------------------------------------------------------------|
C||--0-0-0-0-0-0-0-0-3-3-3-3-3-3-3-3-1-1-1-1-1-1-1-1-1-1-1-1-1-1-1-1--|
G||--0-0-0-0-0-0-0-0-3-3-3-3-3-3-3-3-1-1-1-1-1-1-1-1-1-1-1-1-1-1-1-1--|
C||--0-0-0-0-0-0-0-0-3-3-3-3-3-3-3-3-1-1-1-1-1-1-1-1-1-1-1-1-1-1-1-1--|



Pre-Verse
Guitar 1:
D||--------------------------------------------------------------------------------------|
A||--------------------------------------------------------------------------------------|
F||--7-7-7-10-10-10-12-12-12-14-14-14-14-14-14-14-7-7-7-10-10-10-12-12-12-9-9-9-9-9-9-9--|
C||--x-x-x-x--x--x--x--x--x--x--x--x--x--x--x--x--x-x-x-x--x--x--x--x--x--x-x-x-x-x-x-x--|
G||--5-5-5-8--8--8--10-10-10-12-12-12-12-12-12-12-5-5-5-8--8--8--10-10-10-7-7-7-7-7-7-7--|
C||--------------------------------------------------------------------------------------|


D||-----------------------------------------------------------------------------------|
A||-----------------------------------------------------------------------------------|
F||--7-7-7-10-10-10-12-12-12-14-14-14-14-14-14-14-7-7-7-10-10-10-8-8-8-8-8-8-8-8-8-8--|
C||--x-x-x-x--x--x--x--x--x--x--x--x--x--x--x--x--x-x-x-x--x--x--x-x-x-x-x-x-x-x-x-x--|
G||--5-5-5-8--8--8--10-10-10-12-12-12-12-12-12-12-5-5-5-8--8--8--6-6-6-6-6-6-6-6-6-6--|
C||-----------------------------------------------------------------------------------|


Guitar 2:
D||-------------------------------------------------------------------|
A||-------------------------------------------------------------------|
F||-------------------------------------------------------------------|
C||-------------------------------------------------------------------|
G||-------------------------------------------------------------------|
C||--0-0-0-3-3-3-5-5-5-7-7-7-7-7-7-7-0-0-0-3-3-3-5-5-5-2-2-2-2-2-2-2--|


D||-------------------------------------------------------------------|
A||-------------------------------------------------------------------|
F||-------------------------------------------------------------------|
C||-------------------------------------------------------------------|
G||-------------------------------------------------------------------|
C||--0-0-0-3-3-3-5-5-5-7-7-7-7-7-7-7-0-0-0-3-3-3-1-1-1-1-1-1-1-1-1-1--|



Verse
Guitar 1:
D||------|
A||------|
F||--7~--|
C||--x---|
G||--5~--|
C||------|


Guitar 2:
D||------|
A||------|
F||------|
C||--0~--|
G||--0~--|
C||--0~--|



Pre-Chorus
Guitar 1 (Left):
D||--------------------------------------------------|
A||------------------------8~------------8~----------|
F||----------5~-----------------5~------------5~-----|
C||-------7~-----------------------7~------------7~--|
G||--5~----------------------------------------------|
C||--------------------------------------------------|


D||--------------------------------------------------|
A||------------------------8~------------8~----------|
F||----------5~-----------------5~------------5~-----|
C||-------7~-----------------------7~------------7~--|
G||--5~----------------------------------------------|
C||--------------------------------------------------|


D||-------0~-------|
A||------------6~--|
F||----------------|
C||--7~------------|
G||----------------|
C||----------------|


Guitar 2 (Right):
D||-------------------------------------------------------------------|
A||-------------------------------------------------------------------|
F||-------------------------------------------------------------------|
C||-------------------------------------------------------------------|
G||--5~--5-5-5-5-5-5-5-5-5-5-5-5-5-5-8~--8-8-8-8-8-8-7~--7-7-7-7-7-7--|
C||-------------------------------------------------------------------|
         . . . . . . . . . . . . . .     . . . . . .     . . . . . .

D||---------------------------------------------------------------------|
A||---------------------------------------------------------------------|
F||---------------------------------------------------------------------|
C||---------------------------------------------------------------------|
G||--5~--5-5-5-5-5-5-5-5-5-5-5-5-5-5-8~--8-8-8-8-8-8-3~--3-3-3-3-3-3-3--|
C||---------------------------------------------------------------------|
         . . . . . . . . . . . . . .     . . . . . .     . . . . . . .

D||------|
A||------|
F||------|
C||------|
G||--5~--|
C||------|



Chorus
Guitar 1:
D||---------------------------------------------------------------------------------|
A||--10------------13---------------------------------------------------------------|
F||---------10------------10-----12---12-------12---12-----10---10-12---12----------|
C||-----0-0----0-0----0-0----0-0----0----0-0-0----0----0-0----0-------0----0-10-12--|
G||---------------------------------------------------------------------------------|
C||---------------------------------------------------------------------------------|
                                           . .    .    . .    .       .    .


D||------------------------------------------------------------------------------------------|
A||--10------------13--------------------------------10-10-10-11-11-11-----------------------|
F||---------10------------10-----12-12-12---------------------------------------10-10--------|
C||-----0-0----0-0----0-0----0-0----------0-12-12-12-------------------13-13-13-------12-12--| x2
G||------------------------------------------------------------------------------------------|
C||------------------------------------------------------------------------------------------|


Guitar 2:
D||-------------------------------------------------------------------|
A||-------------------------------------------------------------------|
F||-------------------------------------------------------------------|
C||--0-0-0-0-0-0-0-0-3-3-3-3-3-3-3-3-8-8-8-8-8-8-8-8-8-8-8-8-8-8-8-8--|
G||--0-0-0-0-0-0-0-0-3-3-3-3-3-3-3-3-8-8-8-8-8-8-8-8-8-8-8-8-8-8-8-8--|
C||--0-0-0-0-0-0-0-0-3-3-3-3-3-3-3-3-8-8-8-8-8-8-8-8-8-8-8-8-8-8-8-8--|


D||-------------------------------------------------------------------|
A||-------------------------------------------------------------------|
F||-------------------------------------------------------------------|
C||--0-0-0-0-0-0-0-0-3-3-3-3-3-3-3-3-1-1-1-1-1-1-1-1-1-1-1-1-1-1-1-1--| x2
G||--0-0-0-0-0-0-0-0-3-3-3-3-3-3-3-3-1-1-1-1-1-1-1-1-1-1-1-1-1-1-1-1--|
C||--0-0-0-0-0-0-0-0-3-3-3-3-3-3-3-3-1-1-1-1-1-1-1-1-1-1-1-1-1-1-1-1--|



Pre-Verse
Guitar 1:
D||--------------------------------------------------------------------------------------|
A||--------------------------------------------------------------------------------------|
F||--7-7-7-10-10-10-12-12-12-14-14-14-14-14-14-14-7-7-7-10-10-10-12-12-12-9-9-9-9-9-9-9--|
C||--x-x-x-x--x--x--x--x--x--x--x--x--x--x--x--x--x-x-x-x--x--x--x--x--x--x-x-x-x-x-x-x--|
G||--5-5-5-8--8--8--10-10-10-12-12-12-12-12-12-12-5-5-5-8--8--8--10-10-10-7-7-7-7-7-7-7--|
C||--------------------------------------------------------------------------------------|


D||-----------------------------------------------------------------------------------|
A||-----------------------------------------------------------------------------------|
F||--7-7-7-10-10-10-12-12-12-14-14-14-14-14-14-14-7-7-7-10-10-10-8-8-8-8-8-8-8-8-8-8--|
C||--x-x-x-x--x--x--x--x--x--x--x--x--x--x--x--x--x-x-x-x--x--x--x-x-x-x-x-x-x-x-x-x--|
G||--5-5-5-8--8--8--10-10-10-12-12-12-12-12-12-12-5-5-5-8--8--8--6-6-6-6-6-6-6-6-6-6--|
C||-----------------------------------------------------------------------------------|


Guitar 2:
D||-------------------------------------------------------------------|
A||-------------------------------------------------------------------|
F||-------------------------------------------------------------------|
C||-------------------------------------------------------------------|
G||-------------------------------------------------------------------|
C||--0-0-0-3-3-3-5-5-5-7-7-7-7-7-7-7-0-0-0-3-3-3-5-5-5-2-2-2-2-2-2-2--|


D||-------------------------------------------------------------------|
A||-------------------------------------------------------------------|
F||-------------------------------------------------------------------|
C||-------------------------------------------------------------------|
G||-------------------------------------------------------------------|
C||--0-0-0-3-3-3-5-5-5-7-7-7-7-7-7-7-0-0-0-3-3-3-1-1-1-1-1-1-1-1-1-1--|



Breakdown
Guitar 1:
D||-------------------------------------------------|
A||-------------------------------------------------|
F||-------------------------------------------------|
C||--0---0---0-0---0-------000---0---000---000---0--|
G||--0---0---0-0---0-------000---0---000---000---0--|
C||--0---0---0-0---0-------000---0---000---000---0--|
     .   .   . .   .       ...   .   ...   ...   .



Guitar 1/2:
D||-------------------------------------------------|
A||-------------------------------------------------|
F||-------------------------------------------------|
C||--0---0---0-0---0-------000---0---000---000---0--| x2
G||--0---0---0-0---0-------000---0---000---000---0--|
C||--0---0---0-0---0-------000---0---000---000---0--|
     .   .   . .   .       ...   .   ...   ...   .

D||--------------------------------------------------|
A||--------------------------------------------------|
F||--------------------------------------------------|
C||--1~--1~--1-1~--1~------111~--1~--111~--111~--1~--|
G||--0~--0~--0-0~--0~------000~--0~--000~--000~--0~--|
C||--1~--1~--1-1~--1~------111~--1~--111~--111~--1~--|
     .   .   . .   .       ...   .   ...   ...   .



Guitar 1:
D||-------------------------------------------------|
A||-------------------------------------------------|
F||-------------------------------------------------|
C||--0---0---0-0---0-------000---0---000---000---0--|
G||--0---0---0-0---0-------000---0---000---000---0--|
C||--0---0---0-0---0-------000---0---000---000---0--|
     .   .   . .   .       ...   .   ...   ...   .


Guitar 2:
D||-------------------------------------------------------------------|
A||-------------------------------------------------------------------|
F||-------------------------------------------------------------------|
C||--0-0-0-0-0-0-0-0-0-0-0-0-0-0-0-0-0-0-0-0-0-0-0-0-0-0-0-0-0-0-0-0--|
G||--0-0-0-0-0-0-0-0-0-0-0-0-0-0-0-0-0-0-0-0-0-0-0-0-0-0-0-0-0-0-0-0--|
C||--0-0-0-0-0-0-0-0-0-0-0-0-0-0-0-0-0-0-0-0-0-0-0-0-0-0-0-0-0-0-0-0--|
     . . . . . . . . . . . . . . . . . . . . . . . . . . . . . . . .



Bridge
Guitar :
D||----------------|
A||----------------|
F||----------------|
C||--0~--------3~--|
G||--0~--------3~--|
C||--0~--------3~--|



Chorus
Guitar 1:
D||-------------------------------------------|
A||-------------------------------------------|
F||------12---12-----10---10-12---12----------|
C||--0-0----0----0-0----0-------0----0-10-12--|
G||-------------------------------------------|
C||-------------------------------------------|
     . .    .    . .    .       .    .


D||------------------------------------------------------------------------------------------|
A||--10------------13--------------------------------10-10-10-11-11-11-----------------------|
F||---------10------------10-----12-12-12---------------------------------------10-10--------|
C||-----0-0----0-0----0-0----0-0----------0-12-12-12-------------------13-13-13-------12-12--|
G||------------------------------------------------------------------------------------------|
C||------------------------------------------------------------------------------------------|


Guitar 2:
D||-----------------------------------|
A||-----------------------------------|
F||-----------------------------------|
C||--8-8-8-8-8-8-8-8-8-8-8-8-8-8-8-8--|
G||--8-8-8-8-8-8-8-8-8-8-8-8-8-8-8-8--|
C||--8-8-8-8-8-8-8-8-8-8-8-8-8-8-8-8--|


D||-------------------------------------------------------------------|
A||-------------------------------------------------------------------|
F||-------------------------------------------------------------------|
C||--0-0-0-0-0-0-0-0-3-3-3-3-3-3-3-3-1-1-1-1-1-1-1-1-1-1-1-1-1-1-1-1--|
G||--0-0-0-0-0-0-0-0-3-3-3-3-3-3-3-3-1-1-1-1-1-1-1-1-1-1-1-1-1-1-1-1--|
C||--0-0-0-0-0-0-0-0-3-3-3-3-3-3-3-3-1-1-1-1-1-1-1-1-1-1-1-1-1-1-1-1--|



Guitar 1:
D||---------------------------------------------------------------------------------|
A||--10------------13---------------------------------------------------------------|
F||---------10------------10-----12---12-------12---12-----10---10-12---12----------|
C||-----0-0----0-0----0-0----0-0----0----0-0-0----0----0-0----0-------0----0-10-12--|
G||---------------------------------------------------------------------------------|
C||---------------------------------------------------------------------------------|
                                           . .    .    . .    .       .    .


D||------------------------------------------------------------------------------------------|
A||--10------------13--------------------------------10-10-10-11-11-11-----------------------|
F||---------10------------10-----12-12-12---------------------------------------10-10--------|
C||-----0-0----0-0----0-0----0-0----------0-12-12-12-------------------13-13-13-------12-12--|
G||------------------------------------------------------------------------------------------|
C||------------------------------------------------------------------------------------------|


Guitar 2:
D||-------------------------------------------------------------------|
A||-------------------------------------------------------------------|
F||-------------------------------------------------------------------|
C||--0-0-0-0-0-0-0-0-3-3-3-3-3-3-3-3-8-8-8-8-8-8-8-8-8-8-8-8-8-8-8-8--|
G||--0-0-0-0-0-0-0-0-3-3-3-3-3-3-3-3-8-8-8-8-8-8-8-8-8-8-8-8-8-8-8-8--|
C||--0-0-0-0-0-0-0-0-3-3-3-3-3-3-3-3-8-8-8-8-8-8-8-8-8-8-8-8-8-8-8-8--|


D||-------------------------------------------------------------------|
A||-------------------------------------------------------------------|
F||-------------------------------------------------------------------|
C||--0-0-0-0-0-0-0-0-3-3-3-3-3-3-3-3-1-1-1-1-1-1-1-1-1-1-1-1-1-1-1-1--|
G||--0-0-0-0-0-0-0-0-3-3-3-3-3-3-3-3-1-1-1-1-1-1-1-1-1-1-1-1-1-1-1-1--|
C||--0-0-0-0-0-0-0-0-3-3-3-3-3-3-3-3-1-1-1-1-1-1-1-1-1-1-1-1-1-1-1-1--|



Outro
Guitar 1:
D||--------------------------------------------------------------------------------------|
A||--------------------------------------------------------------------------------------|
F||--7-7-7-10-10-10-12-12-12-14-14-14-14-14-14-14-7-7-7-10-10-10-12-12-12-9-9-9-9-9-9-9--|
C||--x-x-x-x--x--x--x--x--x--x--x--x--x--x--x--x--x-x-x-x--x--x--x--x--x--x-x-x-x-x-x-x--|
G||--5-5-5-8--8--8--10-10-10-12-12-12-12-12-12-12-5-5-5-8--8--8--10-10-10-7-7-7-7-7-7-7--|
C||--------------------------------------------------------------------------------------|


D||-----------------------------------------------------------------------------------|
A||-----------------------------------------------------------------------------------|
F||--7-7-7-10-10-10-12-12-12-14-14-14-14-14-14-14-7-7-7-10-10-10-8-8-8-8-8-8-8-8-8-8--|
C||--x-x-x-x--x--x--x--x--x--x--x--x--x--x--x--x--x-x-x-x--x--x--x-x-x-x-x-x-x-x-x-x--|
G||--5-5-5-8--8--8--10-10-10-12-12-12-12-12-12-12-5-5-5-8--8--8--6-6-6-6-6-6-6-6-6-6--|
C||-----------------------------------------------------------------------------------|


Guitar 2:
D||-------------------------------------------------------------------|
A||-------------------------------------------------------------------|
F||-------------------------------------------------------------------|
C||-------------------------------------------------------------------|
G||-------------------------------------------------------------------|
C||--0-0-0-3-3-3-5-5-5-7-7-7-7-7-7-7-0-0-0-3-3-3-5-5-5-2-2-2-2-2-2-2--|


D||-------------------------------------------------------------------|
A||-------------------------------------------------------------------|
F||-------------------------------------------------------------------|
C||-------------------------------------------------------------------|
G||-------------------------------------------------------------------|
C||--0-0-0-3-3-3-5-5-5-7-7-7-7-7-7-7-0-0-0-3-3-3-1-1-1-1-1-1-1-1-1-1--|


Guitar 1/2:
D||------|
A||------|
F||------|
C||--0~--|
G||--0~--|
C||--0~--|





____________________________________________________________________________________________________

                                        T05.   EVERYTHING
____________________________________________________________________________________________________





Tuning: Drop C (C G C F A D)


Intro
Guitar 1:
D||---------------0~-------------------0~------------------0~-----------------7~--|
A||---------------3~-------------------5~------------------7~-----------------7~--|
F||-------------------------------------------------------------------------------|
C||----------2~-------------------4~------------------5~-----------------5~-------| x3
G||--/3~---3--------------/5~---5-------------/7~---7-------------7~---7----------|
C||-------------------------------------------------------------------------------|


Guitar 2:
D||--'7~----------------|--7~----10~-------10~--|
A||---------'7~----'7~--|--7~--------8-7-8~-----|
F||----------------'5~--|-----------------------|
C||---------------------|-----------------------| x3
G||---------------------|-----------------------|
C||---------------------|-----------------------|



Verse
Guitar 1:
D||---------------0~-------------------0~------------------0~-----------------7~--|
A||---------------3~-------------------5~------------------7~-----------------7~--|
F||-------------------------------------------------------------------------------|
C||----------2~-------------------4~------------------5~-----------------5~-------|
G||--/3~---3--------------/5~---5-------------/7~---7-------------7~---7----------|
C||-------------------------------------------------------------------------------|


Guitar 2:
D||--7~----10~-------10~--|
A||--7~--------8-7-8~-----|
F||-----------------------|
C||-----------------------|
G||-----------------------|
C||-----------------------|


Guitar 2 (Dub):
D||--------------------------------------------------------------------|
A||--------------------------------------------------------------------|
F||--0000000000000000000000000000000000000000000000000000000000000000--|
C||--5555555555555555555555555555555555555555555555555555555555555555--|
G||--7777777777777777777777777777777777777777777777777777777777777777--|
C||--------------------------------------------------------------------|



Pre-Chorus
Guitar 1/2:
D||-------------------------------------------------------------------|
A||-------------------------------------------------------------------|
F||--0~------------------------------0~-------------------------------|
C||--2~--2-2-2-2-2-2-2-2-2-2-2-2-2-2-4~--4-4-4-4-4-4-4-4-4-4-4-4-4-4--|
G||--3~--3-3-3-3-3-3-3-3-3-3-3-3-3-3-5~--5-5-5-5-5-5-5-5-5-5-5-5-5-5--|
C||-------------------------------------------------------------------|
         . . . . . . .                   . . . . . . .

D||-----------------------------------------------------------|
A||-----------------------------------------------------------|
F||-----------------------------------------------------------|
C||--5~--5-5-5-5-5-5-5-5-5-5-5-5-5-5-5-5-5-5-5-5-5-5-5-5-5-5--|
G||--7~--7-7-7-7-7-7-7-7-7-7-7-7-7-7-7-7-7-7-7-7-7-7-7-7-7-7--|
C||-----------------------------------------------------------|
         . . . . . . .

D||---------|
A||---------|
F||---------|
C||--5---5--|
G||--7---7--|
C||---------|



Chorus
Guitar 1/2:
D||---------------------------------------|---------------------------------------|
A||---------------------------------------|---------------------------------------|
F||--------5---5---5~-----3~---5~-----5~--|--------7---7---7~-----5~---7~-----7~--|
C||--------5---5---5~-----5~---5~-----5~--|--------7---7---7~-----5~---7~-----7~--|
G||--3333333---3---3~--3333~---3~--3333~--|--5555555---5---5~--5555~---5~--5555~--|
C||---------------------------------------|---------------------------------------|
     .....             ...         ...       .....             ...         ...

D||---------------------------------------------------------------------|
A||---------------------------------------------------------------------|
F||---------------------------------------------------------------------|
C||--2-2-2-2---0---2~---2-2-0-2/5-5-5-2-2-2-2---0---2~---2-2-0-2/5-5-5--|
G||--2-2-2-2---0---2~---2-2-0-2/5-5-5-2-2-2-2---0---2~---2-2-0-2/5-5-5--|
C||--2-2-2-2---0---2~---2-2-0-2/5-5-5-2-2-2-2---0---2~---2-2-0-2/5-5-5--|



Guitar 1:
D||-----------------------------------------------------------------------------------|
A||-----------------------------------------------------------------------------------|
F||--9-9-9-9-9-9-9-9-9-9-9-9-9-9-9-9-11-11-11-11-11-11-11-11-11-11-11-11-11-11-11-11--|
C||--x-x-x-x-x-x-x-x-x-x-x-x-x-x-x-x-x--x--x--x--x--x--x--x--x--x--x--x--x--x--x--x---|
G||--7-7-7-7-7-7-7-7-7-7-7-7-7-7-7-7-9--9--9--9--9--9--9--9--9--9--9--9--9--9--9--9---|
C||-----------------------------------------------------------------------------------|


D||---------------------------------------------------|
A||---------------------------------------------------|
F||--12-12-12-12-12-12-12-12-12-12-12-12-12-12-12-12--|
C||--x--x--x--x--x--x--x--x--x--x--x--x--x--x--x--x---|
G||--10-10-10-10-10-10-10-10-10-10-10-10-10-10-10-10--|
C||---------------------------------------------------|


D||---------------------------------------------------|
A||---------------------------------------------------|
F||--12-12-12-12-12-12-12-12-12-12-12-12-12-12-12-12--|
C||--x--x--x--x--x--x--x--x--x--x--x--x--x--x--x--x---|
G||--10-10-10-10-10-10-10-10-10-10-10-10-10-10-10-10--|
C||---------------------------------------------------|


Guitar 2:
D||-------------------------------------------------------------------|
A||-------------------------------------------------------------------|
F||--5-5-5-5-5-5-5-5-5-5-5-5-5-5-5-5-7-7-7-7-7-7-7-7-7-7-7-7-7-7-7-7--|
C||--5-5-5-5-5-5-5-5-5-5-5-5-5-5-5-5-7-7-7-7-7-7-7-7-7-7-7-7-7-7-7-7--|
G||--3-3-3-3-3-3-3-3-3-3-3-3-3-3-3-3-5-5-5-5-5-5-5-5-5-5-5-5-5-5-5-5--|
C||-------------------------------------------------------------------|


D||-------------------------------------------------------------------|
A||-------------------------------------------------------------------|
F||-------------------------------------------------------------------|
C||--2-2-2-2-2-2-2-2-2-2-2-2-2-2-2-2-2-2-2-2-2-2-2-2-2-2-2-2-2-2-2-2--|
G||--2-2-2-2-2-2-2-2-2-2-2-2-2-2-2-2-2-2-2-2-2-2-2-2-2-2-2-2-2-2-2-2--|
C||--2-2-2-2-2-2-2-2-2-2-2-2-2-2-2-2-2-2-2-2-2-2-2-2-2-2-2-2-2-2-2-2--|



Guitar 1:
D||-----------------------------------------------------------------------------------|
A||-----------------------------------------------------------------------------------|
F||--9-9-9-9-9-9-9-9-9-9-9-9-9-9-9-9-11-11-11-11-11-11-11-11-11-11-11-11-11-11-11-11--|
C||--x-x-x-x-x-x-x-x-x-x-x-x-x-x-x-x-x--x--x--x--x--x--x--x--x--x--x--x--x--x--x--x---|
G||--7-7-7-7-7-7-7-7-7-7-7-7-7-7-7-7-9--9--9--9--9--9--9--9--9--9--9--9--9--9--9--9---|
C||-----------------------------------------------------------------------------------|


D||---------------------------------------------------|
A||---------------------------------------------------|
F||--12-12-12-12-12-12-12-12-12-12-12-12-12-12-12-12--|
C||--x--x--x--x--x--x--x--x--x--x--x--x--x--x--x--x---|
G||--10-10-10-10-10-10-10-10-10-10-10-10-10-10-10-10--|
C||---------------------------------------------------|


D||---------------------------------------------------|
A||---------------------------------------------------|
F||--12-12-12-12-12-12-12-12-12-12-12-12-12-12-12-12--|
C||--x--x--x--x--x--x--x--x--x--x--x--x--x--x--x--x---|
G||--10-10-10-10-10-10-10-10-10-10-10-10-10-10-10-10--|
C||---------------------------------------------------|


Guitar 2:
D||-------------------------------------------------------------------|
A||-------------------------------------------------------------------|
F||--5-5-5-5-5-5-5-5-5-5-5-5-5-5-5-5-7-7-7-7-7-7-7-7-7-7-7-7-7-7-7-7--|
C||--5-5-5-5-5-5-5-5-5-5-5-5-5-5-5-5-7-7-7-7-7-7-7-7-7-7-7-7-7-7-7-7--|
G||--3-3-3-3-3-3-3-3-3-3-3-3-3-3-3-3-5-5-5-5-5-5-5-5-5-5-5-5-5-5-5-5--|
C||-------------------------------------------------------------------|


D||-------------------------------------------------------------------|
A||-------------------------------------------------------------------|
F||--9-9-9-9-9-9-9-9-9-9-9-9-9-9-9-9-9-9-9-9-9-9-9-9-9-9-9-9-9-9-9-9--|
C||--9-9-9-9-9-9-9-9-9-9-9-9-9-9-9-9-9-9-9-9-9-9-9-9-9-9-9-9-9-9-9-9--|
G||--7-7-7-7-7-7-7-7-7-7-7-7-7-7-7-7-7-7-7-7-7-7-7-7-7-7-7-7-7-7-7-7--|
C||-------------------------------------------------------------------|



OUtro
Guitar 1:
D||---------------0~-------------------0~--|
A||---------------3~-------------------5~--|
F||----------------------------------------|
C||----------2~-------------------4~-------|
G||--/3~---3--------------/5~---5----------|
C||----------------------------------------|


Guitar 2:
D||----------------------------------------|
A||----------------------------------------|
F||----------------------14~---------------|
C||----------------------x-----------------|
G||----------------------12~---------------|
C||----------------------------------------|


Guitar 1/2:
D||------|
A||------|
F||------|
C||--2~--|
G||--2~--|
C||--2~--|





____________________________________________________________________________________________________

                                         T06.   REDEMPTION
____________________________________________________________________________________________________





Tuning: Drop C (C G C F A D)


Intro
Guitar 1/2:
D||--------------------------------------|--------------------------------------|
A||--------------------------------------|----------------------------------00--|
F||--------------------------------------|----------------------------------00--|
C||--2-x2-x2-------------------3-333333--|--2-x2-x2-----------------------------|
G||--2-x2-x2-------------------3-333333--|--2-x2-x2-----------------------------|
C||--2-x2-x2--5-7-8/13~--9~-9~-3-333333--|--2-x2-x2-13-13-13-9--9--9-10--7------|
                                 ......

D||--------------------------------------|--------------------------------------|
A||--------------------------------------|----------------------------------00--|
F||--------------------------------------|----------------------------------00--|
C||--222222--------------------3-333333--|--222222------------------------------|
G||--222222--------------------3-333333--|--222222------------------------------|
C||--222222-----7-8/13~--9~-9~-3-333333--|--222222-----13-13-9--9--9-10--7------|
     ......                      ......     ......


Pre-Verse
Guitar 1:
D||------------------------------------------|------------------------------------------|
A||------------------------------------------|------------------------------------------|
F||------------------------------------------|------------------------------------------|
C||------------------------------------------|------------------------------------------|
G||--777777777777777777777777-12121212-9999--|--777777777777777777777777-10101010-9999--|
C||------------------------------------------|------------------------------------------|
     ........................ . . . .  ....     ........................ . . . .  ....


Guitar 2:
D||----------------------------------------------|----------------------------------------------|
A||----------------------------------------------|----------------------------------------------|
F||----------------------------------------------|----------------------------------------------|
C||--999999999999999999999999-14141414-11111111--|--999999999999999999999999-12121212-11111111--|
G||----------------------------------------------|----------------------------------------------|
C||----------------------------------------------|----------------------------------------------|
     ........................ . . . .  . . . .      ........................ . . . .  . . . .



Verse
Guitar 1:
D||------------------------------------------|------------------------------------------|
A||------------------------------------------|------------------------------------------|
F||------------------------------------------|------------------------------------------|
C||------------------------------------------|------------------------------------------|
G||--777777777777777777777777-12121212-9999--|--777777777777777777777777-10101010-9999--|
C||------------------------------------------|------------------------------------------|
     ........................ . . . .  ....     ........................ . . . .  ....


Guitar 2:
D||--------------------------------------------------------------------|
A||--------------------------------------------------------------------|
F||--------------------------------------------------------------------|
C||--2------2--0--2------2/5-5-0-2------2------2--0--2------2/5-5-0-2--|
G||--2------2--0--2------2/5-5-0-2------2------2--0--2------2/5-5-0-2--|
C||--2------2--0--2------2/5-5-0-2------2------2--0--2------2/5-5-0-2--|



Pre-Chorus
Guitar 1:
D||------------------------|-------------------------|---------------------------|
A||------------------------|-------------------------|---------------------------|
F||------------------------|-------------------------|---------------------------|
C||--2-x2-x2-5-------------|--2-x2-x2----------------|--2-x2-x2-x-x-x-x-x-x-x-x--|
G||--2-x2-x2-5-------------|--2-x2-x2----------------|--2-x2-x2-x-x-x-x-x-x-x-x--|
C||--2-x2-x2-5-------------|--2-x2-x2-10~--\/131313--|--2-x2-x2-x-x-x-x-x-x-x-x--|


Guitar 2:
D||------------------------|-------------------------|---------------------------|
A||------------------------|-------------------------|---------------------------|
F||------------------------|-------------------------|---------------------------|
C||--2-x2-x2-'x'x'x'x'x'x--|--2-x2-x2----------------|--2-x2-x2-'x~--------------|
G||--2-x2-x2-'x'x'x'x'x'x--|--2-x2-x2----------------|--2-x2-x2-'x~--------------|
C||--2-x2-x2-'x'x'x'x'x'x--|--2-x2-x2----------------|--2-x2-x2-'x~--------------|


Guitar 1/2:
D||---------------------|
A||---------------------|
F||---------------------|
C||--2-x2-x2------------|
G||--2-x2-x2--\pick-\---|
C||--2-x2-x2---\slide\--|



Chorus
Guitar 1:
D||--------------------------------------------------------------------|
A||--------------------------------------------------------------------|
F||--9999999999999999999999999999999999999999999999999999999999999999--|
C||--xxxxxxxxxxxxxxxxxxxxxxxxxxxxxxxxxxxxxxxxxxxxxxxxxxxxxxxxxxxxxxxx--| x2
G||--7777777777777777777777777777777777777777777777777777777777777777--|
C||--------------------------------------------------------------------|


D||---------------------------------------|
A||---------------------------------------|
F||--16\9---/16\9---7---16\9---/16\9---7--|
C||--x-\x---/x-\x---x---x-\x---/x-\x---x--|
G||--14\7---/14\7---5---14\7---/14\7---5--|
C||---------------------------------------|


D||--------------------------------------------------------------|
A||--------------------------------------------------------------|
F||--12121212121212121212121212121212-99999999-1010101010101010--|
C||--x-x-x-x-x-x-x-x-x-x-x-x-x-x-x-x--xxxxxxxx-x-x-x-x-x-x-x-x---|
G||--10101010101010101010101010101010-77777777-8-8-8-8-8-8-8-8---|
C||--------------------------------------------------------------|


Guitar 2:
D||--------------------------------------------------------------------------|
A||--------------------------------------------------------------------------|
F||--------------------------------------------------------------------------|
C||--------------------------------------------------------------------------| x2
G||--------------------------------------------------------------------------|
C||--2222222222222-55-3~-333333333333-99-7777777777777777-33333333-55555555--|



Pre-Verse
Guitar 1/2:
D||--------------------------------------|--------------------------------------|
A||--------------------------------------|----------------------------------00--|
F||--------------------------------------|----------------------------------00--|
C||--2-x2-x2-------------------3-333333--|--2-x2-x2-----------------------------|
G||--2-x2-x2-------------------3-333333--|--2-x2-x2-----------------------------|
C||--2-x2-x2--5-7-8/13~--9~-9~-3-333333--|--2-x2-x2-13-13-13-9--9--9-10--7------|
                                 ......


Verse
Guitar 1:
D||-----------------------------------------------------------------------|
A||-----------------------------------------------------------------------|
F||--9---9---12---7---9---9---14---16---9---9---12---7---9---9---14---16--|
C||--x---x---x----x---x---x---x----x----x---x---x----x---x---x---x----x---|
G||--7---7---10---5---7---7---12---14---7---7---10---5---7---7---12---14--|
C||-----------------------------------------------------------------------|


Guitar 2:
D||--------------------------------------------------------------------|
A||--------------------------------------------------------------------|
F||--------------------------------------------------------------------|
C||--2------2--0--2------2/5-5-0-2------2------2--0--2------2/5-5-0-2--|
G||--2------2--0--2------2/5-5-0-2------2------2--0--2------2/5-5-0-2--|
C||--2------2--0--2------2/5-5-0-2------2------2--0--2------2/5-5-0-2--|



Pre-Chorus
Guitar 1:
D||------------------------|-------------------------|---------------------------|
A||------------------------|-------------------------|---------------------------|
F||------------------------|-------------------------|---------------------------|
C||--2-x2-x2-5-------------|--2-x2-x2----------------|--2-x2-x2-x-x-x-x-x-x-x-x--|
G||--2-x2-x2-5-------------|--2-x2-x2----------------|--2-x2-x2-x-x-x-x-x-x-x-x--|
C||--2-x2-x2-5-------------|--2-x2-x2-10~--\/131313--|--2-x2-x2-x-x-x-x-x-x-x-x--|


Guitar 2:
D||------------------------|-------------------------|---------------------------|
A||------------------------|-------------------------|---------------------------|
F||------------------------|-------------------------|---------------------------|
C||--2-x2-x2-'x'x'x'x'x'x--|--2-x2-x2----------------|--2-x2-x2-'x~--------------|
G||--2-x2-x2-'x'x'x'x'x'x--|--2-x2-x2----------------|--2-x2-x2-'x~--------------|
C||--2-x2-x2-'x'x'x'x'x'x--|--2-x2-x2----------------|--2-x2-x2-'x~--------------|


Guitar 1/2:
D||---------------------|
A||---------------------|
F||---------------------|
C||--2-x2-x2------------|
G||--2-x2-x2--\pick-\---|
C||--2-x2-x2---\slide\--|



Chorus
Guitar 1:
D||--------------------------------------------------------------------|
A||--------------------------------------------------------------------|
F||--9999999999999999999999999999999999999999999999999999999999999999--|
C||--xxxxxxxxxxxxxxxxxxxxxxxxxxxxxxxxxxxxxxxxxxxxxxxxxxxxxxxxxxxxxxxx--| x2
G||--7777777777777777777777777777777777777777777777777777777777777777--|
C||--------------------------------------------------------------------|


D||---------------------------------------|
A||---------------------------------------|
F||--16\9---/16\9---7---16\9---/16\9---7--|
C||--x-\x---/x-\x---x---x-\x---/x-\x---x--|
G||--14\7---/14\7---5---14\7---/14\7---5--|
C||---------------------------------------|


D||--------------------------------------------------------------|
A||--------------------------------------------------------------|
F||--12121212121212121212121212121212-99999999-1010101010101010--|
C||--x-x-x-x-x-x-x-x-x-x-x-x-x-x-x-x--xxxxxxxx-x-x-x-x-x-x-x-x---|
G||--10101010101010101010101010101010-77777777-8-8-8-8-8-8-8-8---|
C||--------------------------------------------------------------|


Guitar 2:
D||--------------------------------------------------------------------------|
A||--------------------------------------------------------------------------|
F||--------------------------------------------------------------------------|
C||--------------------------------------------------------------------------| x2
G||--------------------------------------------------------------------------|
C||--2222222222222-55-3~-333333333333-99-7777777777777777-33333333-55555555--|



Breakdown
Guitar 1:
D||-----------------------------------|
A||-----------------------------------|
F||-----------------------------------|
C||--2-----2-----2-----2-----5---0----|
G||--2-----2-----2-----2-----5---0----|
C||--2-----2-----2-----2-----5---0----|


Guitar 1/2:
D||-----------------------------------|-----------------------------------|
A||-----------------------------------|-----------------------------------|
F||-----------------------------------|-----------------------------------|
C||--2-----2-----2-----2-----5---0----|--2-----2-----2-----2--------------|
G||--2-----2-----2-----2-----5---0----|--2-----2-----2-----2--------------|
C||--2-----2-----2-----2-----5---0----|--2-----2-----2-----2----7-7-7-00--|
                                                                      ..


Guitar 1:
D||-----------------------------------|-----------------------------------|
A||-----------------------------------|-----------------------------------|
F||-----------------------------------|-----------------------------------|
C||--2-----2-----2-----2-----5---0----|--2-----2-----2-----2--------------|
G||--2-----2-----2-----2-----5---0----|--2-----2-----2-----2--------------|
C||--2-2-2-2-2-2-2-2-2-2-2-2-5-5-0-0--|--2-2-2-2-2-2-2-2-2-2-2-2-7-7-7-0--|
       . .   . .   . .   . .   .   .       . .   . .   . .   . .

D||-----------------------------------|-----------------------------------|
A||-----------------------------------|-----------------------------------|
F||-----------------------------------|-----------------------------------|
C||--2-----2-----2-----2-----5---0----|--2-----2-----2-----2--------------|
G||--2-----2-----2-----2-----5---0----|--2-----2-----2-----2--------------|
C||--2-----2-----2-----2-----5---0----|--2-----2-----2-----2--------------|



Bridge
Guitar 1/2:
D||----------|-------|----------|
A||----------|-------|----------|
F||----------|-------|----------|
C||--222222--|-------|--222222--|
G||--222222--|-------|--222222--|
C||--222222--|--2~w--|--222222--|
     ......             ......


D||--------------------------------------|--------------------------------------|
A||--------------------------------------|----------------------------------00--|
F||--------------------------------------|----------------------------------00--|
C||--222222--------------------3-333333--|--222222------------------------------|
G||--222222--------------------3-333333--|--222222------------------------------|
C||--222222-----7-8/13~--9~-9~-3-333333--|--222222-----13-13-9--9--9-10--7------|
     ......                      ......     ......



Chorus
Guitar 1:
D||--------------------------------------------------------------------|
A||--------------------------------------------------------------------|
F||--9999999999999999999999999999999999999999999999999999999999999999--|
C||--xxxxxxxxxxxxxxxxxxxxxxxxxxxxxxxxxxxxxxxxxxxxxxxxxxxxxxxxxxxxxxxx--| x2
G||--7777777777777777777777777777777777777777777777777777777777777777--|
C||--------------------------------------------------------------------|


D||---------------------------------------|
A||---------------------------------------|
F||--16\9---/16\9---7---16\9---/16\9---7--|
C||--x-\x---/x-\x---x---x-\x---/x-\x---x--|
G||--14\7---/14\7---5---14\7---/14\7---5--|
C||---------------------------------------|


D||--------------------------------------------------------------|
A||--------------------------------------------------------------|
F||--12121212121212121212121212121212-99999999-1010101010101010--|
C||--x-x-x-x-x-x-x-x-x-x-x-x-x-x-x-x--xxxxxxxx-x-x-x-x-x-x-x-x---|
G||--10101010101010101010101010101010-77777777-8-8-8-8-8-8-8-8---|
C||--------------------------------------------------------------|


Guitar 2:
D||--------------------------------------------------------------------------|
A||--------------------------------------------------------------------------|
F||--------------------------------------------------------------------------|
C||--------------------------------------------------------------------------| x2
G||--------------------------------------------------------------------------|
C||--2222222222222-55-3~-333333333333-99-7777777777777777-33333333-55555555--|



Outro
Guitar 1/2:
D||--------------------------------------|--------------------------------------|
A||--------------------------------------|----------------------------------00--|
F||--------------------------------------|----------------------------------00--|
C||--2-x2-x2-------------------3-333333--|--2-x2-x2-----------------------------|
G||--2-x2-x2-------------------3-333333--|--2-x2-x2-----------------------------|
C||--2-x2-x2--5-7-8/13~--9~-9~-3-333333--|--2-x2-x2-13-13-13-9--9--9-10--7------|
                                 ......


Guitar 1:
D||------------------------|-------------------------|---------------------------|
A||------------------------|-------------------------|---------------------------|
F||------------------------|-------------------------|---------------------------|
C||--2-x2-x2-5-------------|--2-x2-x2----------------|--2-x2-x2-x-x-x-x-x-x-x-x--|
G||--2-x2-x2-5-------------|--2-x2-x2----------------|--2-x2-x2-x-x-x-x-x-x-x-x--|
C||--2-x2-x2-5-------------|--2-x2-x2-10~--\/131313--|--2-x2-x2-x-x-x-x-x-x-x-x--|


Guitar 2:
D||------------------------|-------------------------|---------------------------|
A||------------------------|-------------------------|---------------------------|
F||------------------------|-------------------------|---------------------------|
C||--2-x2-x2-'x'x'x'x'x'x--|--2-x2-x2----------------|--2-x2-x2-'x~--------------|
G||--2-x2-x2-'x'x'x'x'x'x--|--2-x2-x2----------------|--2-x2-x2-'x~--------------|
C||--2-x2-x2-'x'x'x'x'x'x--|--2-x2-x2----------------|--2-x2-x2-'x~--------------|


Guitar 1/2:
D||---------------------|
A||---------------------|
F||---------------------|
C||--2-x2-x2------------|
G||--2-x2-x2--\pick-\---|
C||--2-x2-x2---\slide\--|


D||-----|
A||-----|
F||--9--|
C||--x--|
G||--7--|
C||-----|





____________________________________________________________________________________________________

                                           T07.   REVENGE
____________________________________________________________________________________________________





Tuning: Drop C (C G C F A D)


Intro
Guitar 1:
D||-------------------------------------------------------------------|
A||-------------------------------------------------------------------|
F||--1414141414141414141414141414141415151515151515151515151515151515-|
C||--0-0-0-0-0-0-0-0-0-0-0-0-0-0-0-0-0-0-0-0-0-0-0-0-0-0-0-0-0-0-0-0--|
G||-------------------------------------------------------------------|
C||-------------------------------------------------------------------|

D||-------------------------------------------------------------------|
A||-------------------------------------------------------------------|
F||--1212121212121212121212121212121210101010101010109-9-9-9-9-9-9-9--|
C||--0-0-0-0-0-0-0-0-0-0-0-0-0-0-0-0-0-0-0-0-0-0-0-0-0-0-0-0-0-0-0-0--| x2
G||-------------------------------------------------------------------|
C||-------------------------------------------------------------------|


Guitar 2:
D||---------------------------------------------------------------|
A||---------------------------------------------------------------|
F||---------------------------------------------------------------|
c||------------------000-0-0-0-0-0-----------------0-0-0-0-0-0-0--| x2
G||------------------000-0-0-0-0-0-----------------0-0-0-0-0-0-0--|
C||--3-2-0-3-2-0-0---000-0-0-0-0-0-3-2-0-3-2-0-0---0-0-0-0-0-0-0--|
                     ... . . . . .                 . . . . . . .



Verse
Guitar 1:
D||----------------------------------------------------|
A||----------------------------------------------------|
F||----------3~----------------------------3~----------|
c||------7~----------------------------7~------7~------|
G||--5~----------------------------5~--------------5~--|
C||----------------------------------------------------|



Chorus
Guitar 1:
D||---------------------------------------------------|
A||---------------------------------------------------|
F||---------------------------------------------------|
c||--12-12-15-12-15-12-12-12-14-12-14-12-12-12-14-12--|
G||---------------------------------------------------|
C||---------------------------------------------------|
     .  .     .     .  .  .     .     .  .  .     .

D||---------------------------------------------------|
A||---------------------------------------------------|
F||---------------------------------------------------|
c||--------14----14-----------------------------------|
G||--12-12----12----12-12-12-15-12-12-13-12-12-15-12--|
C||---------------------------------------------------|
     .  .     .     .  .  .     .  .     .  .     .

D||---------------------------------------------------|
A||---------------------------------------------------|
F||---------------------------------------------------|
c||--12-12-15-12-15-12-12-12-14-12-14-12-12-12-14-12--|
G||---------------------------------------------------|
C||---------------------------------------------------|
     .  .     .     .  .  .     .     .  .  .     .

D||---------------------------------------------------|
A||---------------------------------------------------|
F||---------------------------------------------------|
c||---------------------------------------------------|
G||--12-12-12-12-12-12-12-12-10-10-10-10-10-10-10-10--|
C||---------------------------------------------------|


Guitar 2:
D||------------------------------------------|------------------------------------------|
A||------------------------------------------|------------------------------------------|
F||------------------------------------------|------------------------------------------|
c||--00-----00---00---0---33333333-55555555--|--00-----00---00---0---33333333-11111111--|
G||--00-----00---00---0---33333333-55555555--|--00-----00---00---0---33333333-11111111--|
C||--00-----00---00---0---33333333-55555555--|--00-----00---00---0---33333333-11111111--|



Pre-Verse
Guitar 1:
D||-------------------------------------------------------------------|
A||-------------------------------------------------------------------|
F||--1414141414141414141414141414141415151515151515151515151515151515-|
C||--0-0-0-0-0-0-0-0-0-0-0-0-0-0-0-0-0-0-0-0-0-0-0-0-0-0-0-0-0-0-0-0--|
G||-------------------------------------------------------------------|
C||-------------------------------------------------------------------|

D||-------------------------------------------------------------------|
A||-------------------------------------------------------------------|
F||--1212121212121212121212121212121210101010101010109-9-9-9-9-9-9-9--|
C||--0-0-0-0-0-0-0-0-0-0-0-0-0-0-0-0-0-0-0-0-0-0-0-0-0-0-0-0-0-0-0-0--|
G||-------------------------------------------------------------------|
C||-------------------------------------------------------------------|


Guitar 2:
D||---------------------------------------------------------------|
A||---------------------------------------------------------------|
F||---------------------------------------------------------------|
c||------------------000-0-0-0-0-0-----------------0-0-0-0-0-0-0--| x2
G||------------------000-0-0-0-0-0-----------------0-0-0-0-0-0-0--|
C||--3-2-0-3-2-0-0---000-0-0-0-0-0-3-2-0-3-2-0-0---0-0-0-0-0-0-0--|
                     ... . . . . .                 . . . . . . .



Verse
Guitar 1:
D||----------------------------------------------------|
A||----------------------------------------------------|
F||----------3~----------------------------3~----------|
c||------7~----------------------------7~------7~------|
G||--5~----------------------------5~--------------5~--|
C||----------------------------------------------------|



Pre-Chorus
Guitar 1:
D||---------------------------------------------------------------------------|
A||---------------------------------------------------------------------------|
F||---------------------------------------------------------------------------|
c||--8-7-8-7-8-7-8-7-8-7-8-7-8-7-8-7-8----8----8----8----8----8----8----8-----|
G||------------------------------------10---10---10---10---10---10---10---10--|
C||---------------------------------------------------------------------------|
     . . . . . . . . . . . . . . . . . .  . .  . .  . .  . .  . .  . .  . .

D||-------------------------------------------------------------------|
A||-------------------------------------------------------------------|
F||-------------------------------------------------------------------|
c||--8---8---8---8---8---8---8---8---8---8---8---8---8---8---8---8----|
G||----8---8---8---8---8---8---8---8---7---7---7---7---7---7---7---7--|
C||-------------------------------------------------------------------|
     . . . . . . . . . . . . . . . . . . . . . . . . . . . . . . . .


Guitar 2:
D||-------------------------------------------------------------------|
A||-------------------------------------------------------------------|
F||-------------------------------------------------------------------|
c||-------------------------------------------------------------------|
G||-------------------------------------------------------------------|
C||--0-0-0-0-0-0-0-0-0-0-0-0-0-0-0-0-8-8-8-8-8-8-8-8-8-8-8-8-8-8-8-8--|
     . . . . . . . . . . . . . . . . . . . . . . . . . . . . . . . .


D||-------------------------------------------------------------------|
A||-------------------------------------------------------------------|
F||-------------------------------------------------------------------|
c||-------------------------------------------------------------------|
G||-------------------------------------------------------------------|
C||--5-5-5-5-5-5-5-5-5-5-5-5-5-5-5-5-2-2-2-2-2-2-2-2-2-2-2-2-2-2-2-2--|
     . . . . . . . . . . . . . . . . . . . . . . . . . . . . . . . .



Guitar 2 (Dub):
D||--13~--------12~--------10~--------9~--------10~--|
A||--------------------------------------------------|
F||--------------------------------------------------|
c||--------------------------------------------------|
G||--------------------------------------------------|
C||--------------------------------------------------|



Chorus
Guitar 1:
D||---------------------------------------------------|
A||---------------------------------------------------|
F||---------------------------------------------------|
c||--12-12-15-12-15-12-12-12-14-12-14-12-12-12-14-12--|
G||---------------------------------------------------|
C||---------------------------------------------------|
     .  .     .     .  .  .     .     .  .  .     .

D||---------------------------------------------------|
A||---------------------------------------------------|
F||---------------------------------------------------|
c||--------14----14-----------------------------------|
G||--12-12----12----12-12-12-15-12-12-13-12-12-15-12--|
C||---------------------------------------------------|
     .  .     .     .  .  .     .  .     .  .     .

D||---------------------------------------------------|
A||---------------------------------------------------|
F||---------------------------------------------------|
c||--12-12-15-12-15-12-12-12-14-12-14-12-12-12-14-12--|
G||---------------------------------------------------|
C||---------------------------------------------------|
     .  .     .     .  .  .     .     .  .  .     .

D||---------------------------------------------------|
A||---------------------------------------------------|
F||---------------------------------------------------|
c||---------------------------------------------------|
G||--12-12-12-12-12-12-12-12-10-10-10-10-10-10-10-10--|
C||---------------------------------------------------|


Guitar 2:
D||------------------------------------------|------------------------------------------|
A||------------------------------------------|------------------------------------------|
F||------------------------------------------|------------------------------------------|
c||--00-----00---00---0---33333333-55555555--|--00-----00---00---0---33333333-11111111--|
G||--00-----00---00---0---33333333-55555555--|--00-----00---00---0---33333333-11111111--|
C||--00-----00---00---0---33333333-55555555--|--00-----00---00---0---33333333-11111111--|



Guitar 1:
D||-------------------------------------------|-------------------------------------------|
A||-------------------------------------------|-------------------------------------------|
F||--15-----14-----15-----14------------------|--15-----14-----15-----14------------------|
c||-----0-0----0-0----0-0----0-0-14-15-14-12--|-----0-0----0-0----0-0----0-0-14-15-14-12--|
G||-------------------------------------------|-------------------------------------------|
C||-------------------------------------------|-------------------------------------------|


D||-------------------------------------------------|
A||-------------------------------------------------|
F||-------------------------------------------------|
c||--------12-------12-------15-------12-------15~--|
G||--13-13----13-13----13-13----13-13----13-13------|
C||-------------------------------------------------|
     .  .     .  .     .  .     .  .     .  .

D||-------------------------------------------------|
A||-------------------------------------------------|
F||-------------------------------------------------|
c||--------12-------12-------10-------10-------10~--|
G||--10-10----10-10----10-10----10-10----10-10------|
C||-------------------------------------------------|
     .  .     .  .     .  .     .  .     .  .


Guitar 2:
D||-----------------------------------------------------------------------------------|
A||-----------------------------------------------------------------------------------|
F||-----------------------------------------------------------------------------------|
c||--00--000--000--00000-33--333--333--33333-55--555--555--55555-11--111--111--11111--|
G||--00--000--000--00000-33--333--333--33333-55--555--555--55555-11--111--111--11111--|
C||--00--000--000--00000-33--333--333--33333-55--555--555--55555-11--111--111--11111--|



Breakdown
Guitar 1:
D||---------------------------------------|
A||---------------------------------------|
F||---------------------------------------|
c||------------------------6--------------|
G||----------6----------------------------|
C||--0-3-2-0-------0-3-2-0-------0-3-2-0--|


Guitar 1/2:
D||---------------------------------|
A||---------------------------------|
F||---------------------------------|
c||------------------------6---0-0--|
G||----------6-----------------0-0--|
C||--0-3-2-0-------0-3-2-0-----0-0--|
                               . .


D||---------------------------------------|-----------------------------------|
A||---------------------------------------|-----------------------------------|
F||---------------------------------------|-----------------------------------|
c||------------------------6--------------|------------------------6---00000--| x2
G||----------6----------------------------|----------6-----------------00000--|
C||--0-3-2-0-------0-3-2-0-------0-3-2-0--|--0-3-2-0-------0-3-2-0-----00000--|
                                                                       .....


Interlude
Guitar 1:
D||-------------------------------------------------|
A||-------------------------------------------------|
F||-------------------------------------------------|
c||--12-12-15-12-15-12-12-12-14-12-14-12-12-12-14~--|
G||-------------------------------------------------|
C||-------------------------------------------------|
     .  .     .     .  .  .     .     .  .  .

Guitar 2:
D||----------------------|
A||----------------------|
F||----------------------|
c||--00-----00---00---0--|
G||--00-----00---00---0--|
C||--00-----00---00---0--|



Chorus
Guitar 1:
D||---------------------------------------------------|
A||---------------------------------------------------|
F||---------------------------------------------------|
c||--12-12-15-12-15-12-12-12-14-12-14-12-12-12-14-12--|
G||---------------------------------------------------|
C||---------------------------------------------------|
     .  .     .     .  .  .     .     .  .  .     .

D||---------------------------------------------------|
A||---------------------------------------------------|
F||---------------------------------------------------|
c||--------14----14-----------------------------------|
G||--12-12----12----12-12-12-15-12-12-13-12-12-15-12--|
C||---------------------------------------------------|
     .  .     .     .  .  .     .  .     .  .     .

D||---------------------------------------------------|
A||---------------------------------------------------|
F||---------------------------------------------------|
c||--12-12-15-12-15-12-12-12-14-12-14-12-12-12-14-12--|
G||---------------------------------------------------|
C||---------------------------------------------------|
     .  .     .     .  .  .     .     .  .  .     .

D||---------------------------------------------------|
A||---------------------------------------------------|
F||---------------------------------------------------|
c||---------------------------------------------------|
G||--12-12-12-12-12-12-12-12-10-10-10-10-10-10-10-10--|
C||---------------------------------------------------|


Guitar 2:
D||------------------------------------------|------------------------------------------|
A||------------------------------------------|------------------------------------------|
F||------------------------------------------|------------------------------------------|
c||--00-----00---00---0---33333333-55555555--|--00-----00---00---0---33333333-11111111--|
G||--00-----00---00---0---33333333-55555555--|--00-----00---00---0---33333333-11111111--|
C||--00-----00---00---0---33333333-55555555--|--00-----00---00---0---33333333-11111111--|



Guitar 1:
D||-------------------------------------------|-------------------------------------------|
A||-------------------------------------------|-------------------------------------------|
F||--15-----14-----15-----14------------------|--15-----14-----15-----14------------------|
c||-----0-0----0-0----0-0----0-0-14-15-14-12--|-----0-0----0-0----0-0----0-0-14-15-14-12--|
G||-------------------------------------------|-------------------------------------------|
C||-------------------------------------------|-------------------------------------------|


D||-------------------------------------------------|
A||-------------------------------------------------|
F||-------------------------------------------------|
c||--------12-------12-------15-------12-------15~--|
G||--13-13----13-13----13-13----13-13----13-13------|
C||-------------------------------------------------|
     .  .     .  .     .  .     .  .     .  .

D||-------------------------------------------------|
A||-------------------------------------------------|
F||-------------------------------------------------|
c||--------12-------12-------10-------10-------10~--|
G||--10-10----10-10----10-10----10-10----10-10------|
C||-------------------------------------------------|
     .  .     .  .     .  .     .  .     .  .


Guitar 2:
D||-----------------------------------------------------------------------------------|
A||-----------------------------------------------------------------------------------|
F||-----------------------------------------------------------------------------------|
c||--00--000--000--00000-33--333--333--33333-55--555--555--55555-11--111--111--11111--|
G||--00--000--000--00000-33--333--333--33333-55--555--555--55555-11--111--111--11111--|
C||--00--000--000--00000-33--333--333--33333-55--555--555--55555-11--111--111--11111--|



Bridge
Guitar 1:
D||-------------------------------------------------------------------|
A||-------------------------------------------------------------------|
F||--1414141414141414141414141414141415151515151515151515151515151515-|
C||--0-0-0-0-0-0-0-0-0-0-0-0-0-0-0-0-0-0-0-0-0-0-0-0-0-0-0-0-0-0-0-0--|
G||-------------------------------------------------------------------|
C||-------------------------------------------------------------------|

D||-------------------------------------------------------------------|
A||-------------------------------------------------------------------|
F||--1212121212121212121212121212121210101010101010109-9-9-9-9-9-9-9--|
C||--0-0-0-0-0-0-0-0-0-0-0-0-0-0-0-0-0-0-0-0-0-0-0-0-0-0-0-0-0-0-0-0--|
G||-------------------------------------------------------------------|
C||-------------------------------------------------------------------|


Guitar 2:
D||---------------------------------------------------------------|
A||---------------------------------------------------------------|
F||---------------------------------------------------------------|
c||------------------000-0-0-0-0-0-----------------0-0-0-0-0-0-0--| x2
G||------------------000-0-0-0-0-0-----------------0-0-0-0-0-0-0--|
C||--3-2-0-3-2-0-0---000-0-0-0-0-0-3-2-0-3-2-0-0---0-0-0-0-0-0-0--|
                     ... . . . . .                 . . . . . . .


Outro
Guitar 1/2:
D||-------------------------------------------------------------|
A||-------------------------------------------------------------|
F||-------------------------------------------------------------|
c||-------------------------------------------------------------|
G||-------------------------------------------------------------|
C||--3-2-0---3-2---0---3-2---3-2-0-3-2-0---3-2---0---3-2---3-2--|


D||--------------------------------------------------|
A||--------------------------------------------------|
F||--------------------------------------------------|
c||----------------------------------------------0~--|
G||----------------------------------------------0~--|
C||--3-2-0---3-2---0---3-2---3-2-0-3-2-0---3-2---0~--|
                                                 .





____________________________________________________________________________________________________

                                           T08.   REVIVAL
____________________________________________________________________________________________________





Tuning: Drop B (B F# B E G# C#)


Intro
Guitar 1:
C#||---------------------------------------------|----------------------------------------|
G#||---------------------------------------------|----------------------------------------|
E ||---------------------------------------------|----------------------------------------|
B ||--12-----------------------------------------|--12------------------------------------|
F#||---------------------------------------------|---------------------------------12\0~--|
B ||-----13-12-0-12-13-0-15-0-13-0-0-12-0-10-12--|-----13-12-0-12-13-0-15-0-13-0-0-12\1~--|


C#||---------------------------------------------|-------------------------|
G#||---------------------------------------------|-------------------------|
E ||---------------------------------------------|-------------------------|
B ||--12-----------------------------------------|--12---------------------|
F#||---------------------------------------------|-------------------------|
B ||-----13-12-0-12-13-0-15-0-13-0-0-12-0-10-12--|-----13-12-0-12-13-0-15--|



Pre-Verse
Guitar 1/2:
C#||---------------------------------------------|----------------------------------------|
G#||---------------------------------------------|----------------------------------------|
E ||---------------------------------------------|----------------------------------------|
B ||--12-----------------------------------------|--12------------------------------------|
F#||---------------------------------------------|---------------------------------12\0~--|
B ||-----13-12-0-12-13-0-15-0-13-0-0-12-0-10-12--|-----13-12-0-12-13-0-15-0-13-0-0-12\1~--|


C#||---------------------------------------------|----------------------------------------|
G#||---------------------------------------------|----------------------------------------|
E ||---------------------------------------------|----------------------------------------|
B ||--12-----------------------------------------|--12------------------------------------|
F#||---------------------------------------------|------------------------00000~--00000~--|
B ||-----13-12-0-12-13-0-15-0-13-0-0-12-0-10-12--|-----13-12-0-12-13-0~---11111~--00000~--|
                                                                          ....    ....



Verse
Guitar 1/2:
C#||-------------------------------------------------------------------|
G#||-------------------------------------------------------------------|
E ||-------------------------------------------------------------------|
B ||--------------------------------------------12---------------------|
F#||--000-0------------------------------------------------------------|
B ||--000-0-0-0---0~---0-0-00---0~---0-0--0--0-----13-12-0-10-0-10-12--|
      ... .            .             .


C#||-----------------------------------------------------------------|
G#||-----------------------------------------------------------------|
E ||-----------------------------------------------------------------|
B ||--------------------------------------------12-------------------| x2
F#||--000-0-------------------------------------------------0-0-0-0--|
B ||--000-0-0-0---1~---0-0-00---0~---0-0--0--0-----13-12-0--1-1-1-1--|
      ... .            .             .                      . . . .



Chorus
Guitar 1/2:
C#||--------------------------------------------------------------------|
G#||--------------------------------------------------------------------|
E ||--------------------------------------------------------------------|
B ||--------------------------------------------------------------------|
F#||--------------------------------------------------------------------|
B ||--0000000000000000777777777777555588888888888888881111111111113333--|


Guitar 1:
C#||------------------------------------------------|
G#||------------------------------------------------|
E ||--------------------14-14-14--------------------|
B ||--12-12-12-10-10-10----------0-0-0-10-10-12-12--| x3
F#||------------------------------------------------|
B ||------------------------------------------------|


C#||---------------------------------------------------------|
G#||---------------------------------------------------------|
E ||--14-14-14-14-14-14-14-14-12-12-12-12-10-10-10-10--------|
B ||--------------------------------------------------(12~)--|
F#||---------------------------------------------------------|
B ||---------------------------------------------------------|


Guitar 2:
C#||--------------------------------------------------------------------|
G#||--------------------------------------------------------------------|
E ||--------------------------------------------------------------------|
B ||--------------------------------------------------------------------|
F#||--------------------------------------------------------------------|
B ||--0000000000000000777777777777555588888888888888881111111111113333--|



Pre-Verse
Guitar 1/2:
C#||---------------------------------------------|----------------------------------------|
G#||---------------------------------------------|----------------------------------------|
E ||---------------------------------------------|----------------------------------------|
B ||--12-----------------------------------------|--12------------------------------------|
F#||---------------------------------------------|---------------------------------12\0~--|
B ||-----13-12-0-12-13-0-15-0-13-0-0-12-0-10-12--|-----13-12-0-12-13-0-15-0-13-0-0-12\1~--|


C#||---------------------------------------------|----------------------------------------|
G#||---------------------------------------------|----------------------------------------|
E ||---------------------------------------------|----------------------------------------|
B ||--12-----------------------------------------|--12------------------------------------|
F#||---------------------------------------------|------------------------00000~--00000~--|
B ||-----13-12-0-12-13-0-15-0-13-0-0-12-0-10-12--|-----13-12-0-12-13-0~---11111~--00000~--|
                                                                          ....    ....


Verse
Guitar 1/2:
C#||---------------------------------------------------------|
G#||---------------------------------------------------------|
E ||---------------------------------------------------------|
B ||--0~-----------------------------------------------------|
F#||--0~-----------------------------------------------------|
B ||--0~----12-8---11--7--5~--5-5-5-5-5-5-5-8-8-8-8-1-1-1-1--|


C#||---------------------------------------------------------|
G#||---------------------------------------------------------|
E ||---------------------------------------------------------|
B ||--0~-----------------------------------------------------|
F#||--0~--------------------------------------------1-3-3-3--|
B ||--0~----12-8---11--7--5~--5-5-5-5-5-5-5-1-1-1-1-1-3-3-3--|
                                                    . . . .

C#||---------------------------------------------------------|
G#||---------------------------------------------------------|
E ||---------------------------------------------------------|
B ||--0~-----------------------------------------------------|
F#||--0~-----------------------------------------------------|
B ||--0~----12-8---11--7--5~--5-5-5-5-5-5-5-8-8-8-8-1-1-1-1--|


C#||-----------------------------------------------------------|
G#||-----------------------------------------------------------|
E ||-----------------------------------------------------------|
B ||--0~-------------------------------------------------------|
F#||--0~--------------------------------------------1-3-3-3-0--|
B ||--0~----12-8---11--7--5~--5-5-5-5-5-5-5-1-1-1-1-1-3-3-3-0--|
                                                    . . . . .



Chorus
Guitar 1/2:
C#||--------------------------------------------------------------------|
G#||--------------------------------------------------------------------|
E ||--------------------------------------------------------------------|
B ||--------------------------------------------------------------------|
F#||--------------------------------------------------------------------|
B ||--0000000000000000777777777777555588888888888888881111111111113333--|


Guitar 1:
C#||------------------------------------------------|
G#||------------------------------------------------|
E ||--------------------14-14-14--------------------|
B ||--12-12-12-10-10-10----------0-0-0-10-10-12-12--| x3
F#||------------------------------------------------|
B ||------------------------------------------------|


C#||---------------------------------------------------|
G#||---------------------------------------------------|
E ||--14-14-14-14-14-14-14-14-12-12-12-12-10-10-10-10--|
B ||---------------------------------------------------|
F#||---------------------------------------------------|
B ||---------------------------------------------------|


Guitar 2:
C#||--------------------------------------------------------------------|
G#||--------------------------------------------------------------------|
E ||--------------------------------------------------------------------|
B ||--------------------------------------------------------------------|
F#||--------------------------------------------------------------------|
B ||--0000000000000000777777777777555588888888888888881111111111113333--|



Bridge
Guitar 1:
C#||-----------------------------------------|-----------------------------------------------|
G#||-----------------------------------------|-----------------------------------------------|
E ||-----------------------------------------|-----------------------------------------------|
B ||---------------------------------7~------|-------------7---77------7---77------3~-3~-3~--| x2
F#||---------------------------3---------3~--|-------------------------------------3~-3~-3~--|
B ||--00--0------00----0--00-----5~----------|--88--8--------8-----------8---------3~-3~-3~--|


Guitar 2:
C#||---------------------------------------------------------------------------|
G#||--6-6-6-6-6-6-6-6-6-6-6-6-6-6-6-6-10-10-10-10-10-10-10-10-8-8-8-8-8-8-8-8--|
E ||---------------------------------------------------------------------------|
B ||---------------------------------------------------------------------------|
F#||---------------------------------------------------------------------------|
B ||---------------------------------------------------------------------------|
      . . . . . . . . . . . . . . . . .  .  .  .  .  .  .  .  . . . . . . . .

C#||-------------------------------------------------------------------------------------------|
G#||--11-11-11-11-11-11-11-11-11-11-11-11-11-11-11-11-10-10-10-10-10-10-10-10-8-8-8-8-8-8-8-8--|
E ||-------------------------------------------------------------------------------------------|
B ||-------------------------------------------------------------------------------------------| x2
F#||-------------------------------------------------------------------------------------------|
B ||-------------------------------------------------------------------------------------------|
      .  .  .  .  .  .  .  .  .  .  .  .  .  .  .  .  .  .  .  .  .  .  .  .  . . . . . . . .


Guitar 2 (Dub):
C#||---------------------------------------------------------------------------|
G#||---------------------------------------------------------------------------|
E ||--7-7-7-7-7-7-7-7-7-7-7-7-7-7-7-7-10-10-10-10-10-10-10-10-9-9-9-9-9-9-9-9--|
B ||---------------------------------------------------------------------------|
F#||---------------------------------------------------------------------------|
B ||---------------------------------------------------------------------------|
      . . . . . . . . . . . . . . . . .  .  .  .  .  .  .  .  . . . . . . . .


C#||-------------------------------------------------------------------------------------------|
G#||--12-12-12-12-12-12-12-12-12-12-12-12-12-12-12-12-10-10-10-10-10-10-10-10-9-9-9-9-9-9-9-9--|
E ||-------------------------------------------------------------------------------------------|
B ||-------------------------------------------------------------------------------------------| x2
F#||-------------------------------------------------------------------------------------------|
B ||-------------------------------------------------------------------------------------------|
      .  .  .  .  .  .  .  .  .  .  .  .  .  .  .  .  .  .  .  .  .  .  .  .  . . . . . . . .




Guitar 1/2:
C#||-----------------------------------------|---------------------------------------------------|
G#||-----------------------------------------|---------------------------------------------------|
E ||-----------------------------------------|---------------------------------------------------|
B ||--00--0~-------------------------7~------|--88--8~-----7---77------7---77--------------------|
F#||--00--0~-------------------3---------3~--|--88--8~------------------------------8-8-----7-7--|
B ||--00--0~---------------------5~----------|--88--8~-------8-----------8------5-5-----3-3------|



Chorus
Guitar 1/2:
C#||--------------------------------------------------------------------|
G#||--------------------------------------------------------------------|
E ||--------------------------------------------------------------------|
B ||--------------------------------------------------------------------|
F#||--------------------------------------------------------------------|
B ||--0000000000000000777777777777555588888888888888881111111111113333--|


Guitar 1:
C#||------------------------------------------------|
G#||------------------------------------------------|
E ||--------------------14-14-14--------------------|
B ||--12-12-12-10-10-10----------0-0-0-10-10-12-12--| x3
F#||------------------------------------------------|
B ||------------------------------------------------|


C#||---------------------------------------------------|
G#||---------------------------------------------------|
E ||--14-14-14-14-14-14-14-14-12-12-12-12-10-10-10-10--|
B ||---------------------------------------------------|
F#||---------------------------------------------------|
B ||---------------------------------------------------|


Guitar 2:
C#||--------------------------------------------------------------------|
G#||--------------------------------------------------------------------|
E ||--------------------------------------------------------------------|
B ||--------------------------------------------------------------------|
F#||--------------------------------------------------------------------|
B ||--0000000000000000777777777777555588888888888888881111111111113333--|



Outro
Guitar 1/2:
C#||-------------------------------------------------------------------|
G#||-------------------------------------------------------------------|
E ||-------------------------------------------------------------------|
B ||--------------------------------------------12---------------------|
F#||--000-0------------------------------------------------------------|
B ||--000-0-0-0---0~---0-0-00---0~---0-0--0--0-----13-12-0-10-0-10-12--|
      ... .            .             .


C#||-----------------------------------------------------------------|
G#||-----------------------------------------------------------------|
E ||-----------------------------------------------------------------|
B ||--------------------------------------------12-------------------|
F#||--000-0-------------------------------------------------0-0-0-0--|
B ||--000-0-0-0---1~---0-0-00---0~---0-0--0--0-----13-12-0--1-1-1-1--|
      ... .            .             .                      . . . .





____________________________________________________________________________________________________

                                          T09.   SURRENDER
____________________________________________________________________________________________________





Tuning: Drop C (C G C F A D)


Intro
Guitar 1:
D||----------------------------------------------------------------------|
A||----------------------------------------------------------------------|
F||----------------------------------------------------------------------|
C||----------------------------------------------------------------------|
G||--12121212121212121212121212121212--10101010101010101010101010101010--|
C||--12121212121212121212121212121212--10101010101010101010101010101010--|
     . . . . . . . . . . . . . . . .   . . . . . . . . . . . . . . . .

D||-------------------------------------------------------|
A||-------------------------------------------------------|
F||--11111111111111111111111111111111--11~----------------|
C||--12121212121212121212121212121212--12~---\\pick\\\\---|
G||-------------------------------------------\\\slide\\--|
C||-------------------------------------------------------|
     . . . . . . . . . . . . . . . .

Guitar 2:
D||------------------------------------------------------------|
A||------------------------------------------------------------|
F||------------------------------------------------------------|
C||------------------------------------------------------------|
G||--8888888888888888--5555555555555555--0000000000000000--0~--|
C||--8888888888888888--5555555555555555--0000000000000000--0~--|
     ................  ................  ................



Guitar 1:
D||--------------------------------------------|---------------------------------------------|
A||--------------------------------------------|---------------------------------------------|
F||-14-----------------10----------------------|-14-----------------10-----------12-10----10-|
C||----12-10-0-10-12-0----0-14-0-0-12-12-10-12-|----12-10-0-10-12-0----0-14-0-12-------14----|
G||--------------------------------------------|---------------------------------------------|
C||--------------------------------------------|---------------------------------------------|


D||--------------------------------------------|-----------------------------------------------|
A||--------------------------------------------|-----------------------------------------------|
F||-14-----------------10----------------------|-------14-------14-------14-------14-------14~-|
C||----12-10-0-10-12-0----0-14-0-0-12-12-10-12-|-10-12----10-12----10-12----10-12----10-12-----| x2
G||--------------------------------------------|-----------------------------------------------|
C||--------------------------------------------|-----------------------------------------------|


D||-------|-----------------------|
A||-------|-----------------------|
F||-------|------------5~----5-5--|
C||--12~--|-------3~---------3-3--|
G||-------|--7~--------------7-7--|
C||-------|-----------------------|


Guitar 2:
D||-----------------------------------------------------------------------|
A||-----------------------------------------------------------------------|
F||-----------------------------------------------------------------------|
C||--8888888888888888-5555555555555555-0000000000000000-0000000000000000--|
G||--8888888888888888-5555555555555555-0000000000000000-0000000000000000--|
C||--8888888888888888-5555555555555555-0000000000000000-0000000000000000--|


D||---------------------------------------------------------------------------|
A||---------------------------------------------------------------------------|
F||---------------------------------------------------------------------------|
C||--8888888888888888-5555555555555555-0000000000000000-0000000000000000--0~--|
G||--8888888888888888-5555555555555555-0000000000000000-0000000000000000--0~--|
C||--8888888888888888-5555555555555555-0000000000000000-0000000000000000--0~--|



Verse
Guitar 1/2:
D||-------------------------------|-------------------------------|
A||-------------------------------|-------------------------------|
F||-------------------------------|-------------------------------|
C||--------3~------------------5--|--------3~---------------------|
G||------7~----5--4---------------|------7~----5--4---------------|
C||--0~-------------888--7---7----|--0~-------------8888-7-7-7-7--|
                    ..                              ..   .

D||-------------------------------|-------------------------------|
A||-------------------------------|-------------------------------|
F||-------------------------------|-------------------------------|
C||--------3~------------------5--|--------3~---------------------|
G||------7~----5--4---------------|------7~----5--4------0-0-0-0--|
C||--0~-------------888--7---7----|--0~-------------8888-1-1-1-1--|
                    ..                              ..   . . . .

D||-------------------------------|-------------------------------|
A||-------------------------------|-------------------------------|
F||-------------------------------|-------------------------------|
C||--------3~------------------5--|--------3~---------------------|
G||------7~----5--4---------------|------7~----5--4---------------|
C||--0~-------------888--7---7----|--0~-------------8888-7-7-7-7--|
                    ..                              ..   .

D||-------------------------------|-------------------------------|
A||-------------------------------|-------------------------------|
F||-------------------------------|-------------------------------|
C||--------3~------------------5--|--------3~---------------------|
G||------7~----5--4---------------|------7~----5--4------0-0-0-0--|
C||--0~-------------888--7---7----|--0~-------------8888-1-1-1-1--|
                    ..                              ..   . . . .


Pre-Chorus
Guitar 1/2:
D||----------------------|------------------------|
A||----------------------|------------------------|
F||----------------------|------------------------|
C||--8~-----5~-----0~----|----8~-----10~-----12~--|
G||--8~-----5~-----0~----|----8~-----10~-----12~--|
C||--8~-----5~-----0~----|----8~-----10~-----12~--|



Chorus
Guitar 1:
D||--------------------------------------------|---------------------------------------------|
A||--------------------------------------------|---------------------------------------------|
F||-14-----------------10----------------------|-14-----------------10-----------12-10----10-|
C||----12-10-0-10-12-0----0-14-0-0-12-12-10-12-|----12-10-0-10-12-0----0-14-0-12-------14----|
G||--------------------------------------------|---------------------------------------------|
C||--------------------------------------------|---------------------------------------------|


D||--------------------------------------------|-----------------------------------------------|
A||--------------------------------------------|-----------------------------------------------|
F||-14-----------------10----------------------|-------14-------14-------14-------14-------14~-|
C||----12-10-0-10-12-0----0-14-0-0-12-12-10-12-|-10-12----10-12----10-12----10-12----10-12-----| x2
G||--------------------------------------------|-----------------------------------------------|
C||--------------------------------------------|-----------------------------------------------|


D||--------------------------------------------|-----------------------------|
A||--------------------------------------------|-----------------------------|
F||-14-----------------10----------------------|-------14-------14-------14--|
C||----12-10-0-10-12-0----0-14-0-0-12-12-10-12-|-10-12----10-12----10-12-----|
G||--------------------------------------------|-----------------------------|
C||--------------------------------------------|-----------------------------|


Guitar 2:
D||-------------------------------------------------------------------------------------------|
A||-------------------------------------------------------------------------------------------|
F||-------------------------------------------------------------------------------------------|
C||--8888888888888888-5555555555555555--------------------------------------------------------| x2
G||--8888888888888888-5555555555555555--0------------------0------0-------------------0-------|
C||--8888888888888888-5555555555555555--00000-0--0--0--00000--00000-0000-0--0--0--00000-0000--|
                                         .... .        ....   ....  .... .        ....  ....

D||-------------------------------------|
A||-------------------------------------|
F||-------------------------------------|
C||--8888888888888888-5555555555555555--|
G||--8888888888888888-5555555555555555--|
C||--8888888888888888-5555555555555555--|



Verse
Guitar 1/2:
D||-------------------------------|-------------------------------|
A||-------------------------------|-------------------------------|
F||-------------------------------|-------------------------------|
C||--------3~------------------5--|--------3~---------------------|
G||------7~----5--4---------------|------7~----5--4---------------|
C||--0~-------------888--7---7----|--0~-------------8888-7-7-7-7--|
                    ..                              ..   .

D||-------------------------------|-------------------------------|
A||-------------------------------|-------------------------------|
F||-------------------------------|-------------------------------|
C||--------3~------------------5--|--------3~---------------------|
G||------7~----5--4---------------|------7~----5--4------0-0-0-0--|
C||--0~-------------888--7---7----|--0~-------------8888-1-1-1-1--|
                    ..                              ..   . . . .


Guitar 1:
D||---------------------------------------------------|
A||---------------------------------------------------|
F||--14----14----14----14----12----12----12----12-----|
C||-----12----12----12----12----10----10----10----10--|
G||---------------------------------------------------|
C||---------------------------------------------------|


D||---------------------------------------------------|
A||---------------------------------------------------|
F||--11----11----11----11----11----11----11----11-----|
C||-----12----12----12----12----12----12----12----12--|
G||---------------------------------------------------|
C||---------------------------------------------------|


D||---------------------------------------------------|
A||--------------------------13----13----13----13-----|
F||--14----14----14----14-----------------------------|
C||-----12----12----12----12----12----12----12----12--|
G||---------------------------------------------------|
C||---------------------------------------------------|


D||---------------------------------------------------|
A||---------------------------------------------------|
F||--11----11----11----11----11----11----11----11-----|
C||-----12----12----12----12----12----12----12----12--|
G||---------------------------------------------------|
C||---------------------------------------------------|


Guitar 2:
D||----------------------------------------|------------------------------------------------|
A||----------------------------------------|------------------------------------------------|
F||----------------------------------------|------------------------------------------------|
C||----------------------------------------|------------------------------------------------|
G||----------------------------------------|------------------------------------------------|
C||--88888888--55555555--0000000000000000--|--88888888--1010101010101010--0000000000000000--|



Pre-Chorus
Guitar 1/2:
D||----------------------|------------------------|
A||----------------------|------------------------|
F||----------------------|------------------------|
C||--8~-----5~-----0~----|----8~-----10~-----12~--|
G||--8~-----5~-----0~----|----8~-----10~-----12~--|
C||--8~-----5~-----0~----|----8~-----10~-----12~--|



Chorus
Guitar 1:
D||--------------------------------------------|---------------------------------------------|
A||--------------------------------------------|---------------------------------------------|
F||-14-----------------10----------------------|-14-----------------10-----------12-10----10-|
C||----12-10-0-10-12-0----0-14-0-0-12-12-10-12-|----12-10-0-10-12-0----0-14-0-12-------14----|
G||--------------------------------------------|---------------------------------------------|
C||--------------------------------------------|---------------------------------------------|


D||--------------------------------------------|-----------------------------------------------|
A||--------------------------------------------|-----------------------------------------------|
F||-14-----------------10----------------------|-------14-------14-------14-------14-------14~-|
C||----12-10-0-10-12-0----0-14-0-0-12-12-10-12-|-10-12----10-12----10-12----10-12----10-12-----| x2
G||--------------------------------------------|-----------------------------------------------|
C||--------------------------------------------|-----------------------------------------------|


D||--------------------------------------------|-----------------------------|
A||--------------------------------------------|-----------------------------|
F||-14-----------------10----------------------|-------14-------14-------14--|
C||----12-10-0-10-12-0----0-14-0-0-12-12-10-12-|-10-12----10-12----10-12-----|
G||--------------------------------------------|-----------------------------|
C||--------------------------------------------|-----------------------------|


Guitar 2:
D||-------------------------------------------------------------------------------------------|
A||-------------------------------------------------------------------------------------------|
F||-------------------------------------------------------------------------------------------|
C||--8888888888888888-5555555555555555--------------------------------------------------------| x2
G||--8888888888888888-5555555555555555--0------------------0------0-------------------0-------|
C||--8888888888888888-5555555555555555--00000-0--0--0--00000--00000-0000-0--0--0--00000-0000--|
                                         .... .        ....   ....  .... .        ....  ....

D||-------------------------------------|
A||-------------------------------------|
F||-------------------------------------|
C||--8888888888888888-5555555555555555--|
G||--8888888888888888-5555555555555555--|
C||--8888888888888888-5555555555555555--|



Breakdown
Guitar 1/2:
D||--------------------------------------------------------|
A||--------------------------------------------------------|
F||--------------------------------------------------------|
C||--------------------------------------------------------|
G||--0------------------0------0-------------------0-------|
C||--00000-0--0--0--00000--00000-0000-0--0--0--00000-0000--|
      .... .        ....   ....  .... .        ....  ....

D||-------------------------------------------------------------|
A||-------------------------------------------------------------|
F||-------------------------------------------------------------|
C||-------------------------------------------------------------|
G||--0~----------------0000-----0~------------------------------|
C||--0~----0--0--0-----0000-----0~----0--0--0----00-11--11--12--|
           .           ....           .          ..

D||-------------------------------------------------------------|
A||-------------------------------------------------------------|
F||-------------------------------------------------------------|
C||-------------------------------------------------------------|
G||--0~----------------0000-----0~------------------------------|
C||--0~----0--0--0-----0000-----0~----0--0--0----00-11--11--12--|
           .           ....           .          ..


Bridge
Guitar 1:
D||-----------------------------------------------|-----------------------------------------------|
A||-----------------------------------------------|-----------------------------------------------|
F||-------------14---------10---------------------|-------------14---------10---------------------|
C||--12-0-10-12----12-10-0----14-0-12~--12-10-12--|--12-0-10-12----12-10-0----14-0-12~--12-10-12--|
G||-----------------------------------------------|-----------------------------------------------|
C||-----------------------------------------------|-----------------------------------------------|


D||-----------------------------------------------|------------------------------|
A||-----------------------------------------------|------------------------------|
F||-------------14---------10---------------------|--------14-------14-------14--|
C||--12-0-10-12----12-10-0----14-0-12~--12-10-12--|--10-12----10-12----10-12-----|
G||-----------------------------------------------|------------------------------|
C||-----------------------------------------------|------------------------------|


Guitar 2:
D||----------------------|---------------------------|
A||----------------------|---------------------------|
F||----------------------|---------------------------|
C||--8~-----5~-----0~----|--8~-----5~-------------0--|
G||--8~-----5~-----0~----|--8~-----5~-------------0--|
C||--8~-----5~-----0~----|--8~-----5~-----000000000--|
                                          ........



Chorus / Outro
Guitar 1:
D||--------------------------------------------|---------------------------------------------|
A||--------------------------------------------|---------------------------------------------|
F||-14-----------------10----------------------|-14-----------------10-----------12-10----10-|
C||----12-10-0-10-12-0----0-14-0-0-12-12-10-12-|----12-10-0-10-12-0----0-14-0-12-------14----|
G||--------------------------------------------|---------------------------------------------|
C||--------------------------------------------|---------------------------------------------|


D||--------------------------------------------|-----------------------------------------------|
A||--------------------------------------------|-----------------------------------------------|
F||-14-----------------10----------------------|-------14-------14-------14-------14-------14~-|
C||----12-10-0-10-12-0----0-14-0-0-12-12-10-12-|-10-12----10-12----10-12----10-12----10-12-----| x2
G||--------------------------------------------|-----------------------------------------------|
C||--------------------------------------------|-----------------------------------------------|


D||--------------------------------------------|--------------------|
A||--------------------------------------------|--------------------|
F||-14-----------------10----------------------|-------14-------14--|
C||----12-10-0-10-12-0----0-14-0-0-12-12-10-12-|-10-12----10-12-----|
G||--------------------------------------------|--------------------|
C||--------------------------------------------|--------------------|


Guitar 2:
D||-------------------------------------------------------------------------------------------|
A||-------------------------------------------------------------------------------------------|
F||-------------------------------------------------------------------------------------------|
C||--8888888888888888-5555555555555555--------------------------------------------------------| x2
G||--8888888888888888-5555555555555555--0------------------0------0-------------------0-------|
C||--8888888888888888-5555555555555555--00000-0--0--0--00000--00000-0000-0--0--0--00000-0000--|
                                         .... .        ....   ....  .... .        ....  ....

D||----------------------------|
A||----------------------------|
F||----------------------------|
C||--8888888888888888-5555555--|
G||--8888888888888888-5555555--|
C||--8888888888888888-5555555--|





____________________________________________________________________________________________________

                                         T10.   BACKSTABBER
____________________________________________________________________________________________________





Tuning: Drop C (C G C F A D)


Intro
Guitar 1:
D||----------------------------------|-------------------5--------------|
A||-----6---8---------6--------------|-----6---8-----------6---5---5h6--|
F||--/7---7---7-5-7-----7---5---5h7--|--/7---7---7-5-7------------------| x2
C||-----------------------0---0------|-----------------------0---0------|
G||----------------------------------|----------------------------------|
C||----------------------------------|----------------------------------|
                .                                  .

Guitar 2:
D||--------------------------------------|--------------------------------------|
A||--------------------------------------|--------------------------------------|
F||--------------------------------------|--------------------------------------|
C||--0000000000000000-888888888888-5555--|--0000000000000000-55555555-88888888--|
G||--0000000000000000-888888888888-5555--|--0000000000000000-55555555-88888888--|
C||--0000000000000000-888888888888-5555--|--0000000000000000-55555555-88888888--|


Verse
Guitar 1/2:
D||-----------------------------|---------------------------------|
A||-------6---------------------|---------6----------------6~-----|
F||-------9b10------------------|---------9b10-------------9b10~--|
C||--0---------0~---------------|--0-0---------0~-----------------|
G||--0---------0~--------7------|--0-0---------0~--------7--------|
C||--0-00------0~-----/8---8-7--|--0-0-00------0~------8----------|
       ..                              ..


Guitar 1:
D||--------------------------|
A||--------------------------|
F||--77777777-10101010-9999--|
C||--xxxxxxxx-x-x-x-x--xxxx--|
G||--55555555-8-8-8-8--7777--|
C||--------------------------|


Guitar 2:
D||---------------------|
A||---------------------|
F||---------------------|
C||--88888888-55555555--|
G||--88888888-55555555--|
C||--88888888-55555555--|



Guitar 1/2:
D||-----------------------------|---------------------------------|
A||-------6---------------------|---------6----------------6~-----|
F||-------9b10------------------|---------9b10-------------9b10~--|
C||--0---------0~---------------|--0-0---------0~-----------------|
G||--0---------0~--------7------|--0-0---------0~--------7--------|
C||--0-00------0~-----/8---8-7--|--0-0-00------0~------8----------|
       ..                              ..


Guitar 1:
D||--------------------------|----------------------------|
A||--------------------------|----------------------------|
F||--77777777-10101010-9999--|--77777777-10101010-121212--|
C||--xxxxxxxx-x-x-x-x--xxxx--|--xxxxxxxx-x-x-x-x--x-x-x---|
G||--55555555-8-8-8-8--7777--|--55555555-8-8-8-8--101010--|
C||--------------------------|----------------------------|


Guitar 2:
D||---------------------|--------------------|
A||---------------------|--------------------|
F||---------------------|--------------------|
C||--88888888-55555555--|--88888888-5555555--|
G||--88888888-55555555--|--88888888-5555555--|
C||--88888888-55555555--|--88888888-5555555--|
                            ....... ......


Chorus
Guitar 1:
D||-------------------------------------------------------------|
A||-------------------------------------------------------------|
F||--1010101010101010-9999-12121212-1010101010101010-9999-7777--|
C||--x-x-x-x-x-x-x-x--xxxx-x-x-x-x--x-x-x-x-x-x-x-x--xxxx-xxxx--|
G||--8-8-8-8-8-8-8-8--7777-10101010-8-8-8-8-8-8-8-8--7777-5555--|
C||-------------------------------------------------------------|


D||---------------------------------------------------------------------|
A||---------------------------------------------------------------------|
F||--1010101010101010-9999-12121212-1414141414141414-15151515-14141414--|
C||--x-x-x-x-x-x-x-x--xxxx-x-x-x-x--x-x-x-x-x-x-x-x--x-x-x-x--x-x-x-x---|
G||--8-8-8-8-8-8-8-8--7777-10101010-1212121212121212-13131313-12121212--|
C||---------------------------------------------------------------------|


Guitar 2:
D||--------------------------------------|--------------------------------------|
A||--------------------------------------|--------------------------------------|
F||--------------------------------------|--------------------------------------|
C||--0000000000000000-888888888888-5555--|--0000000000000000-55555555-88888888--|
G||--0000000000000000-888888888888-5555--|--0000000000000000-55555555-88888888--|
C||--0000000000000000-888888888888-5555--|--0000000000000000-55555555-88888888--|



Verse
Guitar 1/2:
D||----------------------------------------|------------------------------------|
A||----------------------------------------|------------------------------------|
F||----------------------------------------|------------------------------------|
C||----------------------------------------|------------------------------------|
G||----------------------------------------|------------------------------------|
C||--0--00--0-----3/12-0--0-6-6-5-5-3-3-0--|--0--00--0-----3/12-0--0-6-6-5-5-3--|
        .                   . . . . . .          .                   . . . . .


Guitar 1:
D||--------|
A||--------|
F||--------|
C||--------|
G||--------|
C||--*5~~--|


Guitar 2:
D||--------|
A||--------|
F||--------|
C||--*3~~--|
G||--------|
C||--------|


Guitar 1/2:
D||-------------------------------------------------------------------|
A||-------------------------------------------------------------------|
F||-------------------------------------------------------------------|
C||-------------------------------------------------------------------|
G||--------------------------1-0-----------------------------1-0------|
C||--5-5-5-5-5-5-5-5-1-1-1-1-----1-5~--5-5-5-5-5-5-5-1-1-1-1-----3-0--|


Guitar 1/2:
D||----------------------------------------|------------------------------------|
A||----------------------------------------|------------------------------------|
F||----------------------------------------|------------------------------------|
C||----------------------------------------|------------------------------------|
G||----------------------------------------|------------------------------------|
C||--0--00--0-----3/12-0--0-6-6-5-5-3-3-0--|--0--00--0-----3/12-0--0-6-6-5-5-3--|
        .                   . . . . . .          .                   . . . . .


Guitar 1:
D||--------|
A||--------|
F||--------|
C||--------|
G||--------|
C||--*5~~--|


Guitar 2:
D||--------|
A||--------|
F||--------|
C||--*3~~--|
G||--------|
C||--------|


Guitar 1/2:
D||-----------------------------------------------------------|
A||-----------------------------------------------------------|
F||-----------------------------------------------------------|
C||-----------------------------------------------------------|
G||--------------------------1-0------------------------------|
C||--5-5-5-5-5-5-5-5-1-1-1-1-----1-5~--5-5-5-5-5-5-5-1-1-1-1--|



Chorus
Guitar 1:
D||-------------------------------------------------------------|
A||-------------------------------------------------------------|
F||--1010101010101010-9999-12121212-1010101010101010-9999-7777--|
C||--x-x-x-x-x-x-x-x--xxxx-x-x-x-x--x-x-x-x-x-x-x-x--xxxx-xxxx--|
G||--8-8-8-8-8-8-8-8--7777-10101010-8-8-8-8-8-8-8-8--7777-5555--|
C||-------------------------------------------------------------|


D||---------------------------------------------------------------------|
A||---------------------------------------------------------------------|
F||--1010101010101010-9999-12121212-1414141414141414-15151515-14141414--|
C||--x-x-x-x-x-x-x-x--xxxx-x-x-x-x--x-x-x-x-x-x-x-x--x-x-x-x--x-x-x-x---|
G||--8-8-8-8-8-8-8-8--7777-10101010-1212121212121212-13131313-12121212--|
C||---------------------------------------------------------------------|


Guitar 2:
D||--------------------------------------|--------------------------------------|
A||--------------------------------------|--------------------------------------|
F||--------------------------------------|--------------------------------------|
C||--0000000000000000-888888888888-5555--|--0000000000000000-55555555-88888888--|
G||--0000000000000000-888888888888-5555--|--0000000000000000-55555555-88888888--|
C||--0000000000000000-888888888888-5555--|--0000000000000000-55555555-88888888--|



Bridge
Guitar 1/2:
D||----------------------------------------|
A||----------------------------------------|
F||----------------------------------------|
C||----------------------------------------|
G||----------------------------------------|
C||--'5'5'5'5'5'\'\'\'\'\'\'\'\'\'\'\'\'\--|
(Natural harmonic slide slowly sliding up from 5th fret)



Breakdown
Guitar 1/2:
D||----------------------------------------|--------------------------------------|
A||----------------------------------------|--------------------------------------|
F||----------------------------------------|--------------------------------------|
C||----------------------------------------|--------------------------------------| x2
G||--00---00---00---00-----0000---0~-0000--|--00---00---00---00-----0000---00000--|
C||--00---00---00---000~---0000---0~-0000--|--00---00---00---000~---0000---00000--|
     ..   ..   ..   ..     ....   .  ....     ..   ..   ..   ..     ....   .....



Guitar 1/2:
D||-----------------------|
A||-----------------------|
F||-----------------------|
C||-----------------------|
G||--00---00---00---0000--|
C||--00---00---00---0000--|
     ..   ..   ..   ....


Guitar 1:
D||-------------------|
A||-------------------|
F||-------------------|
C||-------------------|
G||--1----------------|
C||-----3--0-1-0-0-0--|



Guitar 1/2:
D||-----------------------|
A||-----------------------|
F||-----------------------|
C||-----------------------|
G||--00---00---00---0000--|
C||--00---00---00---0000--|
     ..   ..   ..   ....


Guitar 2:
D||-------------------|
A||-------------------|
F||-------------------|
C||----------2-2-2-2--|
G||--1-------4-4-4-4--|
C||-----3--0----------|


Guitar 1/2:
D||----------------------------------------|--------------------------------------|
A||----------------------------------------|--------------------------------------|
F||----------------------------------------|--------------------------------------|
C||----------------------------------------|--------------------------------------|
G||--00---00---00---00-----0000---0~-0000--|--00---00---00---00-----0000---00000--|
C||--00---00---00---000~---0000---0~-0000--|--00---00---00---000~---0000---00000--|
     ..   ..   ..   ..     ....   .  ....     ..   ..   ..   ..     ....   .....



Pre-Chorus
Guitar 2:
D||-------------------------------------------------|
A||-------------------------------------------------|
F||-------------------------------------------------|
C||--(face-in)--0000000000000000-55555555-88888888--|
G||-------------0000000000000000-55555555-88888888--|
C||-------------0000000000000000-55555555-88888888--|



Chorus
Guitar 1:
D||-------------------------------------------------------------|
A||-------------------------------------------------------------|
F||--1010101010101010-9999-12121212-1010101010101010-9999-7777--|
C||--x-x-x-x-x-x-x-x--xxxx-x-x-x-x--x-x-x-x-x-x-x-x--xxxx-xxxx--|
G||--8-8-8-8-8-8-8-8--7777-10101010-8-8-8-8-8-8-8-8--7777-5555--|
C||-------------------------------------------------------------|


D||---------------------------------------------------------------------|
A||---------------------------------------------------------------------|
F||--1010101010101010-9999-12121212-1414141414141414-15151515-14141414--|
C||--x-x-x-x-x-x-x-x--xxxx-x-x-x-x--x-x-x-x-x-x-x-x--x-x-x-x--x-x-x-x---|
G||--8-8-8-8-8-8-8-8--7777-10101010-1212121212121212-13131313-12121212--|
C||---------------------------------------------------------------------|


Guitar 2:
D||--------------------------------------|--------------------------------------|
A||--------------------------------------|--------------------------------------|
F||--------------------------------------|--------------------------------------|
C||--0000000000000000-888888888888-5555--|--0000000000000000-55555555-88888888--|
G||--0000000000000000-888888888888-5555--|--0000000000000000-55555555-88888888--|
C||--0000000000000000-888888888888-5555--|--0000000000000000-55555555-88888888--|



Collision
Guitar 1:
D||----------------------------------|-------------------5--------------|
A||-----6---8---------6--------------|-----6---8-----------6---5---5h6--|
F||--/7---7---7-5-7-----7---5---5h7--|--/7---7---7-5-7------------------| x2
C||-----------------------0---0------|-----------------------0---0------|
G||----------------------------------|----------------------------------|
C||----------------------------------|----------------------------------|
                .                                  .

Guitar 2:
D||-------------------------------------------------------------|
A||-------------------------------------------------------------|
F||--1010101010101010-9999-12121212-1010101010101010-9999-7777--|
C||--x-x-x-x-x-x-x-x--xxxx-x-x-x-x--x-x-x-x-x-x-x-x--xxxx-xxxx--|
G||--8-8-8-8-8-8-8-8--7777-10101010-8-8-8-8-8-8-8-8--7777-5555--|
C||-------------------------------------------------------------|


D||---------------------------------------------------------------------|
A||---------------------------------------------------------------------|
F||--1010101010101010-9999-12121212-1414141414141414-15151515-14141414--|
C||--x-x-x-x-x-x-x-x--xxxx-x-x-x-x--x-x-x-x-x-x-x-x--x-x-x-x--x-x-x-x---|
G||--8-8-8-8-8-8-8-8--7777-10101010-1212121212121212-13131313-12121212--|
C||---------------------------------------------------------------------|


Guitar 3:
D||--------------------------------------|--------------------------------------|
A||--------------------------------------|--------------------------------------|
F||--------------------------------------|--------------------------------------|
C||--0000000000000000-888888888888-5555--|--0000000000000000-55555555-88888888--|
G||--0000000000000000-888888888888-5555--|--0000000000000000-55555555-88888888--|
C||--0000000000000000-888888888888-5555--|--0000000000000000-55555555-88888888--|



Outro
Guitar 1/2:
D||----------------------------------------|----------------------------------------|
A||----------------------------------------|----------------------------------------|
F||----------------------------------------|----------------------------------------|
C||----------------------------------------|----------------------------------------|
G||----------------------------------------|----------------------------------------|
C||--0--00--0-----3/12-0--0-6-6-5-5-3-3-0--|--0--00--0-----3/12-0--0-6-6-5-5-3-3-0--|
        .                   . . . . . .          .                   . . . . . .





____________________________________________________________________________________________________

                                            T11.   FAITH
____________________________________________________________________________________________________





Tuning: Drop C (C G C F A D)


Intro
Guitar 1/2:
D||--------------------------------------|--------------------------------------|
A||------3h5--0-------0------------------|------3h5--0-------0------------------|
F||------4----4-------3h4-0--------------|------4----4-------3h4-0--------------|
C||--2----------2-----------2---5-5-5-0--|--2----------2-----------2---5~--1~---| x2
G||--2----------2-----------2---5-5-5-0--|--2----------2-----------2---5~--1~---|
C||--2----------2-----------2---5-5-5-0--|--2----------2-----------2---5~--1~---|



Verse
Guitar 1/2:
D||--------------------------------------|-------------------------------------|
A||------3--5p0--------------------------|------3--5p0-------------------------|
F||------4--4-----3-----4\2--------------|------4--4-----3-----4\2-------------|
C||--2----------2------------2/-5-5-5-0--|--2----------2------------2/-5~--1~--| x2
G||--2----------2------------2/-5-5-5-0--|--2----------2------------2/-5~--1~--|
C||--2----------2------------2/-5-5-5-0--|--2----------2------------2/-5~--1~--|



Pre-Chorus
Guitar 1:
D||----------------------------------------------------------------|
A||----------------------------------------------------------------|
F||----------------------------------------------------------------|
C||--2-------------------------------------------------------------|
G||--2-------------------------------------------------------------|
C||--2--xxxxxxxxxxxxxxxxxxxxxxxxxxxxxxxxxxxxxxxxxxxxxxxxxxxxxxxxx--|


Guitar 2:
D||----------------------------------------------------------------|
A||----------------------------------------------------------------|
F||----------------------------------------------------------------|
C||--2--------------------------2--2-------------------------------|
G||--2--------------------------2--2-------------------------------|
C||--2--------------------------2--2-------------------------------|



Chorus
Guitar 1:
D||-----------------------------------------------------------------------|
A||----------3------------------------------------------------------------|
F||----------4------------------------------------------------------------|
C||--2~--2~----2-2-0~--0-0~--0-0-0-0--7~--7~--7-7-7-5~--5----5-5----------| x2
G||--2~--2~----2-2-0~--0-0~--0-0-0-0--7~--7~--7-7-7-5~--5----5-5---7------|
C||--2~--2~----2-2-0~--0-0~--0-0-0-0--7~--7~--7-7-7-5~--5-x--5-5-----5-0--|


Guitar 2:
D||-----------------------------------------------------------------------------------|
A||-----------------------------------------------------------------------------------|
F||--9-9-9-11-11-11-12-12-12-12-12-12-12-12----------9-9-9-11-11-11----------9-9-9-9--|
C||-----------------------------------------12-12-12----------------12-12-12----------| x2
G||-----------------------------------------------------------------------------------|
C||-----------------------------------------------------------------------------------|



Pre-Verse
Guitar 1/2:
D||--------------------------------------|--------------------------------------|
A||------3h5--0-------0------------------|------3h5--0-------0------------------|
F||------4----4-------3h4-0--------------|------4----4-------3h4-0--------------|
C||--2----------2-----------2---5-5-5-0--|--2----------2-----------2---5~--1~---| x2
G||--2----------2-----------2---5-5-5-0--|--2----------2-----------2---5~--1~---|
C||--2----------2-----------2---5-5-5-0--|--2----------2-----------2---5~--1~---|



Verse
Guitar 1/2:
D||--------------------------------------|
A||--------------------------------------|
F||--------------------------------------|
C||--2----------------------------2--2~--|
G||--2----------------------------2--2~--|
C||--2----------------------------2--2~--|


Guitar 1:
D||--------------------------------------|---------------------------------|
A||------3--5p0--------------------------|--3--5p0-------------------------|
F||------4--4-----3-----4\2--------------|--4--4-----3-----4\2-------------|
C||--2----------2------------2/-5-2--2~--|---------2------------2/-5~--1~--|
G||--2----------2------------2/-5-2--2~--|---------2------------2/-5~--1~--|
C||--2----------2------------2/-5-2--2~--|---------2------------2/-5~--1~--|


Guitar 2:
D||--------------------------------------|
A||--------------------------------------|
F||--------------------------------------|
C||--2----------------------------2--2~--|
G||--2----------------------------2--2~--|
C||--2----------------------------2--2~--|



Guitar 1/2:
D||--------------------------------------|-------------------------------------|
A||------3--5p0--------------------------|------3--5p0-------------------------|
F||------4--4-----3-----4\2--------------|------4--4-----3-----4\2-------------|
C||--2----------2------------2/-5-5-5-0--|--2----------2------------2/-5~--1~--|
G||--2----------2------------2/-5-5-5-0--|--2----------2------------2/-5~--1~--|
C||--2----------2------------2/-5-5-5-0--|--2----------2------------2/-5~--1~--|



Guitar 1:
D||--------------------------------------|-------------------------------------|
A||--------------------------------------|-------------------------------------|
F||--9-9-9-9-9-9-9-9-9-9-9-9-12-12-7-7---|--9-9-9-9-9-9-9-9-9-9-9-9-14-14-8-8--|
C||--x-x-x-x-x-x-x-x-x-x-x-x-x--x--x-x---|--x-x-x-x-x-x-x-x-x-x-x-x-x--x--x-x--|
G||--7-7-7-7-7-7-7-7-7-7-7-7-10-10-5-5---|--7-7-7-7-7-7-7-7-7-7-7-7-12-12-6-6--|
C||--------------------------------------|-------------------------------------|


Guitar 2:
D||--------------------------------------|-------------------------------------|
A||------3--5p0--------------------------|------3--5p0-------------------------|
F||------4--4-----3-----4\2--------------|------4--4-----3-----4\2-------------|
C||--2----------2------------2/-5-5-5-0--|--2----------2------------2/-5~--1~--|
G||--2----------2------------2/-5-5-5-0--|--2----------2------------2/-5~--1~--|
C||--2----------2------------2/-5-5-5-0--|--2----------2------------2/-5~--1~--|



Chorus
Guitar 1:
D||-----------------------------------------------------------------------|
A||----------3------------------------------------------------------------|
F||----------4------------------------------------------------------------|
C||--2~--2~----2-2-0~--0-0~--0-0-0-0--7~--7~--7-7-7-5~--5----5-5----------| x2
G||--2~--2~----2-2-0~--0-0~--0-0-0-0--7~--7~--7-7-7-5~--5----5-5---7------|
C||--2~--2~----2-2-0~--0-0~--0-0-0-0--7~--7~--7-7-7-5~--5-x--5-5-----5-0--|


Guitar 2:
D||-----------------------------------------------------------------------------------|
A||-----------------------------------------------------------------------------------|
F||--9-9-9-11-11-11-12-12-12-12-12-12-12-12----------9-9-9-11-11-11----------9-9-9-9--|
C||-----------------------------------------12-12-12----------------12-12-12----------| x2
G||-----------------------------------------------------------------------------------|
C||-----------------------------------------------------------------------------------|



Bridge
Guitar 1:
D||----------------------------------------------------------------------------|
A||----------------------------------------------------------------------------|
F||----------------------------------------------------------------------------|
C||--2-0-2---------2-0-2--------------------2-0-2---------2-0-2----------------|
G||--2-0-2---------2-0-2--------------------2-0-2---------2-0-2----------------|
C||--2-0-2--'2-'2--2-0-2--'2'2-'2-'2-'2-'2--2-0-2--'2-'2--2-0-2-x-x-x-x-x-x-x--|


Guitar 1:
D||----------------------------------------------------------------------------|
A||----------------------------------------------------------------------------|
F||----------------------------------------------------------------------------|
C||--2-0-2---------2-0-2--------------------2-0-2---------2-0-2----------------|
G||--2-0-2---------2-0-2--------------------2-0-2---------2-0-2----------------|
C||--2-0-2--'3-'3--2-0-2--'3'3-'3-'3-'3-'3--2-0-2--'3-'3--2-0-2----------------|



Guitar 1:
D||--------------------------------------|
A||--------------------------------------|
F||--------------------------------------|
C||--2-0-2---------2-0-2-----------------|
G||--2-0-2---------2-0-2-----------------|
C||--2-0-2--'2-'2--2-0-2--x-x-x--xxxxxx--|


Guitar 1:
D||--------------------------------------|
A||--------------------------------------|
F||--------------------------------------|
C||--2-0-2---------2-0-2-----------------|
G||--2-0-2---------2-0-2-----------------|
C||--2-0-2--'3-'3--2-0-2-----------------|



Guitar 1/2:
D||-----------------------------------------------------------------------|
A||-----------------------------------------------------------------------|
F||-----------------------------------------------------------------------|
C||--2-0-2-------2-0-2-----------------2-0-2-------2-0-2------------------|
G||--2-0-2-------2-0-2-----------------2-0-2-------2-0-2------------------|
C||--2-0-2-0-0-0-2-0-2-0-0-0-0-0-0-0-0-2-0-2-0-0-0-2-0-2-0-0-0-0-0-0-0-0--|
           . . .       . . . . . . . .       . . .       . . . . . . . .



Interlude
Guitar 1:
D||-----------------------------------------------------------------------|
A||----------5------------------------------------------------------------|
F||----------4------------------------------------------------------------|
C||-----------------------------------------------------------------------| x2
G||----------------------------------------------------------------7------|
C||--2~--2~----2-2-0~--0-0~--0-0-0-0--7~--7~--7-7-7-5~--5-x--5-5-----5-0--|



Chorus
Guitar 1:
D||-----------------------------------------------------------------------|
A||----------3------------------------------------------------------------|
F||----------4------------------------------------------------------------|
C||--2~--2~----2-2-0~--0-0~--0-0-0-0--7~--7~--7-7-7-5~--5----5-5----------| x4
G||--2~--2~----2-2-0~--0-0~--0-0-0-0--7~--7~--7-7-7-5~--5----5-5---7------|
C||--2~--2~----2-2-0~--0-0~--0-0-0-0--7~--7~--7-7-7-5~--5-x--5-5-----5-0--|


Guitar 2:
D||--------------------------------------------------------------------------------------------|
A||--------------------------------------------------------------------------------------------|
F||--11h12-12-12-12-12-12-12-9-9-9-11-11-11-11-11-11h12-12-12-12-12-12-12-----------9-9-9-9-9--|
C||-----------------------------------------------------------------------12~--12-x------------| x3
G||--------------------------------------------------------------------------------------------|
C||--------------------------------------------------------------------------------------------|


D||------------------------------------------------12---------14-------16------|
A||------------------------------------------------15b-17~----17b19~---19b20~--|
F||--11h12-12-12-12-12-12-12-9-9-9-11-11-11-11-11------------------------------|
C||----------------------------------------------------------------------------|
G||----------------------------------------------------------------------------|
C||----------------------------------------------------------------------------|



Outro
Guitar 1/2:
D||--------------------------------------------------------------|
A||--------------------------------------------------------------|
F||--------------------------------------------------------------|
C||--2-0-2---------2-0-2--------------------2-0-2---------2-0-2--|
G||--2-0-2---------2-0-2--------------------2-0-2---------2-0-2--|
C||--2-0-2---------2-0-2--------------------2-0-2---------2-0-2--|



Guitar 1:
D||--------------------------------------------------------------|
A||--------------------------------------------------------------|
F||--------------------------------------------------------------|
C||--2-0-2---------2-0-2--------------------2-0-2---------2-0-2--|
G||--2-0-2---------2-0-2--------------------2-0-2---------2-0-2--|
C||--2-0-2---------2-0-2--'2'2-'2-'2-'2-'2--2-0-2--'2-'2--2-0-2--|


Guitar 1:
D||--------------------------------------------------------------|
A||--------------------------------------------------------------|
F||--------------------------------------------------------------|
C||--2-0-2---------2-0-2--------------------2-0-2---------2-0-2--|
G||--2-0-2---------2-0-2--------------------2-0-2---------2-0-2--|
C||--2-0-2---------2-0-2--'3'3-'3-'3-'3-'3--2-0-2--'3-'3--2-0-2--|





____________________________________________________________________________________________________

                                            T12.   ALIVE
____________________________________________________________________________________________________





Tuning: Drop C (C G C F A D)


Intro
Guitar 1/2:
D||-----------|
A||-----------|
F||-----------|
C||--x-x-x-x--|
G||--x-x-x-x--|
C||--x-x-x-x--|


Guitar 1:
D||---------------------------------------------------|
A||--------14-----------------------------------------|
F||--------------14----------------------------14-----|
C||--12-12----12----12-12-16-12-14-12-12-12-14----12--|
G||---------------------------------------------------|
C||---------------------------------------------------|
     .  .     .     .  .     .     .  .           .


D||-------------------------------------------------|
A||--------14---------------------------------------|
F||--------------14----------------------------14~--|
C||--12-12----12----12-12-16-12-14-12-12-12-14------| x4
G||-------------------------------------------------|
C||-------------------------------------------------|
     .  .     .     .  .     .     .  .


Guitar 2:
D||---------------------------------------------------------------------------|
A||---------------------------------------------------------------------------|
F||-----------------------------------------------------------------------0~--|
C||--0000000000000000-7777777777777777-5555555555555555-44444444-2222-0-0-5~--|
G||--0000000000000000-7777777777777777-5555555555555555-55555555-2222-0-0-----|
C||--0000000000000000-7777777777777777-5555555555555555-44444444-2222-0-0-----|
                                                                      . .

D||------------------------------------------------------------------------------|
A||------------------------------------------------------------------------------|
F||------------------------------------------------------------------0~------0~--|
C||--0000000000000000-7777777777777777-5555555555555555-44444444-0-0-5~--0-0-5~--|
G||--0000000000000000-7777777777777777-5555555555555555-55555555-0-0-----0-0-----|
C||--0000000000000000-7777777777777777-5555555555555555-44444444-0-0-----0-0-----|
                                                                 . .     . .


Guitar 1/2:
D||------|
A||------|
F||------|
C||--0~--|
G||--0~--|
C||--0~--|



Verse
Guitar 1:
D||------------------------------------------------------------------|
A||------3-----3-----3-----3-----3~------3-----3-----3-----3-----3~--|
F||----2-----2-----2-----2-----2-------2-----2-----2-----2-----2-----|
C||--0-----0-----0-----0-----0-------5-----5-----5-----5-----5-------|
G||------------------------------------------------------------------|
C||------------------------------------------------------------------|


D||------------------------------------------------------------------|
A||------3-----3-----3-----3-----3~------3-----3-----3-----3-----3~--|
F||----2-----2-----2-----2-----2-------2-----2-----2-----2-----2-----|
C||--4-----4-----4-----4-----4-------2-----2-----2-----2-----2-------| x3
G||------------------------------------------------------------------|
C||------------------------------------------------------------------|


Guitar 2:
D||----------0~------------0~------------0~------------0~---0~--------|
A||------3~------------3~------------3~------------3~----------3~-----|
F||--2~------------0~---------------------------------------------2~--|
C||------------------------------4~------------2~---------------------| x2
G||-------------------------------------------------------------------|
C||-------------------------------------------------------------------|



Pre-Chorus
Guitar 1:
D||----------------|
A||----------------|
F||----------------|
C||--12~-----h13~--|
G||----------------|
C||----------------|



Chorus
Guitar 1:
D||---------------------------------------------------|
A||--------14-----------------------------------------|
F||--------------14----------------------------14-----|
C||--12-12----12----12-12-16-12-14-12-12-12-14----12--|
G||---------------------------------------------------|
C||---------------------------------------------------|
     .  .     .     .  .     .     .  .           .


D||-------------------------------------------------|
A||--------14---------------------------------------|
F||--------------14----------------------------14~--|
C||--12-12----12----12-12-16-12-14-12-12-12-14------| x4
G||-------------------------------------------------|
C||-------------------------------------------------|
     .  .     .     .  .     .     .  .


Guitar 2:
D||---------------------------------------------------------------------------|
A||---------------------------------------------------------------------------|
F||-----------------------------------------------------------------------0~--|
C||--0000000000000000-7777777777777777-5555555555555555-44444444-2222-0-0-5~--|
G||--0000000000000000-7777777777777777-5555555555555555-55555555-2222-0-0-----|
C||--0000000000000000-7777777777777777-5555555555555555-44444444-2222-0-0-----|
                                                                      . .

D||------------------------------------------------------------------------------|
A||------------------------------------------------------------------------------|
F||------------------------------------------------------------------0~------0~--|
C||--0000000000000000-7777777777777777-5555555555555555-44444444-0-0-5~--0-0-5~--|
G||--0000000000000000-7777777777777777-5555555555555555-55555555-0-0-----0-0-----|
C||--0000000000000000-7777777777777777-5555555555555555-44444444-0-0-----0-0-----|
                                                                 . .     . .



Verse
Guitar 1:
D||------------------------------------------------------------------|
A||------3-----3-----3-----3-----3~------3-----3-----3-----3-----3~--|
F||----2-----2-----2-----2-----2-------2-----2-----2-----2-----2-----|
C||--0-----0-----0-----0-----0-------5-----5-----5-----5-----5-------|
G||------------------------------------------------------------------|
C||------------------------------------------------------------------|


D||------------------------------------------------------------------|
A||------3-----3-----3-----3-----3~------3-----3-----3-----3-----3~--|
F||----2-----2-----2-----2-----2-------2-----2-----2-----2-----2-----|
C||--4-----4-----4-----4-----4-------2-----2-----2-----2-----2-------| x2
G||------------------------------------------------------------------|
C||------------------------------------------------------------------|


Guitar 2:
D||----------0~------------0~------------0~------------0~---0~--------|
A||------3~------------3~------------3~------------3~----------3~-----|
F||--2~------------0~---------------------------------------------2~--|
C||------------------------------4~------------2~---------------------|
G||-------------------------------------------------------------------|
C||-------------------------------------------------------------------|



Pre-Chorus
Guitar 1:
D||----------------|
A||----------------|
F||----------------|
C||--12~-----h13~--|
G||----------------|
C||----------------|



Chorus
Guitar 1:
D||---------------------------------------------------|
A||--------14-----------------------------------------|
F||--------------14----------------------------14-----|
C||--12-12----12----12-12-16-12-14-12-12-12-14----12--|
G||---------------------------------------------------|
C||---------------------------------------------------|
     .  .     .     .  .     .     .  .           .


D||-------------------------------------------------|
A||--------14---------------------------------------|
F||--------------14----------------------------14~--|
C||--12-12----12----12-12-16-12-14-12-12-12-14------| x4
G||-------------------------------------------------|
C||-------------------------------------------------|
     .  .     .     .  .     .     .  .


Guitar 2:
D||---------------------------------------------------------------------------|
A||---------------------------------------------------------------------------|
F||-----------------------------------------------------------------------0~--|
C||--0000000000000000-7777777777777777-5555555555555555-44444444-2222-0-0-5~--|
G||--0000000000000000-7777777777777777-5555555555555555-55555555-2222-0-0-----|
C||--0000000000000000-7777777777777777-5555555555555555-44444444-2222-0-0-----|
                                                                      . .

D||------------------------------------------------------------------------------|
A||------------------------------------------------------------------------------|
F||------------------------------------------------------------------0~------0~--|
C||--0000000000000000-7777777777777777-5555555555555555-44444444-0-0-5~--0-0-5~--|
G||--0000000000000000-7777777777777777-5555555555555555-55555555-0-0-----0-0-----|
C||--0000000000000000-7777777777777777-5555555555555555-44444444-0-0-----0-0-----|
                                                                 . .     . .


Bridge
Guitar 1:
D||----------0~------------0~------------0~------------0~---0~--------|
A||------3~------------3~------------3~------------3~----------3~-----|
F||--2~------------0~---------------------------------------------2~--|
C||------------------------------4~------------2~---------------------|
G||-------------------------------------------------------------------|
C||-------------------------------------------------------------------|


Guitar 2:
D||-------------|-------------|-------------|------|
A||-------------|-------------|-------------|------|
F||-------------|-------------|-------------|------|
C||--0~---------|-------------|--0~---------|--55--|
G||--0~---------|-------------|--0~---------|--55--|
C||--0~---------|-------------|--0~---------|--55--|



Guitar 1:
D||----------0~------------0~------------0~------------0~---0~--------|
A||------3~------------3~------------3~------------3~----------3~-----|
F||--2~------------0~---------------------------------------------2~--|
C||------------------------------4~------------2~---------------------|
G||-------------------------------------------------------------------|
C||-------------------------------------------------------------------|


Guitar 2:
D||-------------------------------------------------------------------------------------|
A||-------------------------------------------------------------------------------------|
F||--77--777--777--777--7-1212--121212--121212--121212--12-11--\--7--/--11--\--7---6-7--|
C||--xx--xxx--xxx--xxx--x-x-x---x-x-x---x-x-x---x-x-x---x--x---\--x--/--x---\--x---x-x--|
G||--55--555--555--555--5-1010--101010--101010--101010--10-9---\--5--/--9---\--5---4-5--|
C||-------------------------------------------------------------------------------------|


D||------------------------------------|
A||------------------------------------|
F||--11--\--7--/--11--\--7---9-11-9-7--|
C||--x---\--x--/--x---\--x---x-x--x-x--| x2
G||--9---\--5--/--9---\--5---7-9--7-5--|
C||------------------------------------|


Guitar 3:
D||-----------------------------------------------------------------------------------|
A||-----------------------------------------------------------------------------------|
F||-----------------------------------------------------------------------------------|
C||--00--000--000--00000-55--555--555--55555-44--444--444--44444-22--222--222--22222--| x2
G||--00--000--000--00000-55--555--555--55555-55--555--555--55555-22--222--222--22222--|
C||--00--000--000--00000-55--555--555--55555-44--444--444--44444-22--222--222--22222--|



Chorus
Guitar 1:
D||---------------------------------------------------|
A||--------14-----------------------------------------|
F||--------------14----------------------------14-----|
C||--12-12----12----12-12-16-12-14-12-12-12-14----12--|
G||---------------------------------------------------|
C||---------------------------------------------------|
     .  .     .     .  .     .     .  .           .


D||-------------------------------------------------|
A||--------14---------------------------------------|
F||--------------14----------------------------14~--|
C||--12-12----12----12-12-16-12-14-12-12-12-14------| x3
G||-------------------------------------------------|
C||-------------------------------------------------|
     .  .     .     .  .     .     .  .


Guitar 2:
D||----------------------------------------------|
A||----------------------------------------------|
F||-------------------------------0-0-0-0-0-0-0--|
C||--4444444444444444-55555555--0-4-4-4-4h5-5-5--|
G||--5555555555555555-55555555--0----------------|
C||--4444444444444444-55555555--0----------------|
                                .

D||----------------------------------------------------------------------------------------|
A||----------------------------------------------------------------------------------------|
F||--------------------------------------------------------0-0-0-0-0-0---0-0-0-0-0-0-0-0~--|
C||--0000000000000000-5555555555555555-4444444444444444--0-4-4-4-4h5-5-0-4-4-4h5-5-4-4-2~--|
G||--0000000000000000-5555555555555555-5555555555555555--0-------------0-------------------|
C||--0000000000000000-5555555555555555-4444444444444444--0-------------0-------------------|
                                                         .             .


Outro
Guitar 1:
D||----------0~------------0~------------0~------------0~---0~------------|
A||------3~------------3~------------3~------------3~----------3~-----3~--|
F||--2~------------0~---------------------------------------------2~--2~--|
C||------------------------------4~------------2~-------------------------|
G||-----------------------------------------------------------------------|
C||-----------------------------------------------------------------------|





Tablature Legend
----------------
 h   hammer-on
 p   pull-off
 b   bend
 pb  pre-bend
 r   release bend
 ~   hold / vibrato
 .   palm mute
 /   slide up
 \   slide down
 *   pinch harmonic
 '   natural harmonic
 x   mute note
 T   tap
comments
We did not receive enough feedback on this tab! Please rate:
print report bad tab
1 2 3 4 5
I want to post or [tab]
guest
You may want to rate the tab now too:
select rating
Please do not post tabs as comments. Select "correction" instead!