Oops, an error
Loading. Please wait.

So In Love Tab

2,322 views 1 this week
no commentswrite comment
1 2 3 4 5
excellent!
x 2
Autoscroll
+/-
esc
set tempo
stop
Contributor
Difficulty
intermediate
WARNING: You are trying to view
                                    content from Ultimate-Guitar.com
                                    in an unauthorized application,
                                    which is prohibited.

                                    Please use an official Ultimate
                                    Guitar Tabs application for iPhone,
                                    iPad or Android to access legitimate
                                    chords, guitar, bass, and drum tabs
                                    from Ultimate-Guitar.com database.

                                    Type "ultimate guitar tabs" in Apple
                                    App Store's or Android Market's
                                    search to find the application.
Tabbed by: Joshua Garcia (joshuag523@aol.com)

Tabs for the song: So In Love by Before Their Eyes
Please rate and let me know if you have any corrections. Thank you.

Tuning: Standard (E A D G B E)


Intro
Guitar 1:
E||---------------------------------------------------------------------|
B||---------------------------------------------------------------------|
G||---------------------------------------------------------------------| x2
D||----0---0--0---0-----0---0--0---0-----0---0--0---0-----0---0--0---0--|
A||--2---2------2-----2---2------2-----1---1------1-----1---1------1----|
E||---------------------------------------------------------------------|



Pre-Verse
Guitar 2:
E||--------------------|--------------------|---------------|
B||--------------------|--------------------|---------------|
G||--------------------|--------------------|---------------| x2
D||--7-9-7--9b11--9-7--|--7-9-7--9b11--9-7--|--7-9----------|
A||--------------------|--------------------|------9----8---|
E||--------------------|--------------------|---------------|


Guitar 1:
E||---------------------------------------------------------------------|
B||---------------------------------------------------------------------|
G||---------------------------------------------------------------------| x2
D||----0---0--0---0-----0---0--0---0-----0---0--0---0-----0---0--0---0--|
A||--2---2------2-----2---2------2-----1---1------1-----1---1------1----|
E||---------------------------------------------------------------------|



Verse
Guitar 1/2:
E||-------------|-------------|
B||-------------|-------------|
G||-------------|-------------| x2
D||-------------|-------------|
A||---2-2---2---|---1-1---1---|
E||-------------|-------------|



Pre-Chorus
Guitar 1:
E||--------------------------------------------------------------------|
B||--------------------------------------------------------------------|
G||--------------------------------------------------------------------|
D||---4-4---4--x-x-x---x-x-x---x-x-x---3-3---3--x-x-x---x-x-x---x-x-x--|
A||---2-2---2--x-x-x---x-x-x---x-x-x---1-1---1--x-x-x---x-x-x---x-x-x--|
E||--------------------------------------------------------------------|


E||--------------------------------------------------------------------|
B||--------------------------------------------------------------------|
G||--------------------------------------------------------------------|
D||---4-4---4--x-x-x---x-x-x---x-x-x---3-3---3--x-x-x---x-x-x-x-x-x-x--|
A||---2-2---2--x-x-x---x-x-x---x-x-x---1-1---1--x-x-x---x-x-x-x-x-x-x--|
E||--------------------------------------------------------------------|


Guitar 2:
E||--------------------|--------------------|---------------|
B||--------------------|--------------------|---------------|
G||--------------------|--------------------|---------------| x2
D||--7-9-7--9b11--9-7--|--7-9-7--9b11--9-7--|--7-9----------|
A||--------------------|--------------------|------9----8---|
E||--------------------|--------------------|---------------|



Chorus
Guitar 1:
E||----------------------------------------------------------------------|
B||----------------------------------------------------------------------|
G||-4444444444444444-3333333333333333------------------------------------| x2
D||-4444444444444444-3333333333333333-2222222222222222-4444444444444444--|
A||-2222222222222222-1111111111111111-2222222222222222-4444444444444444--|
E||-----------------------------------0000000000000000-2222222222222222--|


Guitar 2:
E||----------------------------------------------------------------------|
B||----------------------------------------------------------------------|
G||-7777777777777777-6666666666666666-4444444444444444-6666666666666666--| x2
D||-xxxxxxxxxxxxxxxx-xxxxxxxxxxxxxxxx-xxxxxxxxxxxxxxxx-xxxxxxxxxxxxxxxx--|
A||-5555555555555555-4444444444444444-2222222222222222-4444444444444444--|
E||----------------------------------------------------------------------|



Verse
Guitar 1:
E||--------------------------------------------------------------------|
B||--------------------------------------------------------------------|
G||--------------------------------------------------------------------| x2
D||---4-4---4--------------------------3-3---3-------------------------|
A||---2-2---2--2-2-2-2-2-2-2-2-2-2-2---1-1---1--1-1-1-1-1-1-1-1-1-1-1--|
E||--------------------------------------------------------------------|
               . . . . . . . . . . .            . . . . . . . . . . .


Guitar 2:
E||--------------------------------------------------------------------|
B||--------------------------------------------------------------------|
G||---7-7---7--7-7-7-7-7-7-7-7-7-7-7---7-7---7--7-7-7-7-7-7-7-7-7-7-7--|
D||---9-9---9--9-9-9-9-9-9-9-9-9-9-9---8-8---8--8-8-8-8-8-8-8-8-8-8-8--|
A||--------------------------------------------------------------------|
E||--------------------------------------------------------------------|
               . . . . . . . . . . .            . . . . . . . . . . .

E||--------------------------------------------------------------|
B||--------------------------------------------------------------|
G||---7-7---7--7-7-7-7-7-7-7-7-7-7-7---7-7---7--7-7-7-7-7-7-7-7--|
D||---9-9---9--9-9-9-9-9-9-9-9-9-9-9---8-8---8--8-8-8-8-8-8-8-8--|
A||--------------------------------------------------------------|
E||--------------------------------------------------------------|
               . . . . . . . . . . .            . . . . . . . .



Pre-Chorus
Guitar 1:
E||-------------------------------------------------------------------|
B||-------------------------------------------------------------------|
G||-------------------------------------------------------------------|
D||--4-4-x-x-4-4-x-x-4-4-x-x-4-4-x-x-3-3-x-x-3-3-x-x-3-3-x-x-3-3-x-x--|
A||--2-2-x-x-2-2-x-x-2-2-x-x-2-2-x-x-1-1-x-x-1-1-x-x-1-1-x-x-1-1-x-x--|
E||-------------------------------------------------------------------|


E||--------------------------------------|
B||--------------------------------------|
G||--------------------------------------|
D||--4-4-x-x-4-4-x-x-4-4-x-x-4-4-x-x-3~--|
A||--2-2-x-x-2-2-x-x-2-2-x-x-2-2-x-x-1~--|
E||--------------------------------------|


Guitar 2:
E||--------------------|--------------------|---------------|
B||--------------------|--------------------|---------------|
G||--------------------|--------------------|---------------| x2
D||--7-9-7--9b11--9-7--|--7-9-7--9b11--9-7--|--7-9----------|
A||--------------------|--------------------|------9----8---|
E||--------------------|--------------------|---------------|



Chorus
Guitar 1:
E||----------------------------------------------------------------------|
B||----------------------------------------------------------------------|
G||-4444444444444444-3333333333333333------------------------------------| x2
D||-4444444444444444-3333333333333333-2222222222222222-4444444444444444--|
A||-2222222222222222-1111111111111111-2222222222222222-4444444444444444--|
E||-----------------------------------0000000000000000-2222222222222222--|


Guitar 2:
E||----------------------------------------------------------------------|
B||----------------------------------------------------------------------|
G||-7777777777777777-6666666666666666-4444444444444444-6666666666666666--| x2
D||-xxxxxxxxxxxxxxxx-xxxxxxxxxxxxxxxx-xxxxxxxxxxxxxxxx-xxxxxxxxxxxxxxxx--|
A||-5555555555555555-4444444444444444-2222222222222222-4444444444444444--|
E||----------------------------------------------------------------------|



Interlude
Guitar 1:
E||-------------------------------------------------------------------------|
B||-------------------------------------------------------------------------|
G||------------7-------7-----9-7-----------------7----------7-9--9b11r9--7--| x2
D||--9-9-9-9-9---9-9-9---9-9-----9-----9-9-9-9-9---9-9--7-9-----------------|
A||-------------------------------------------------------------------------|
E||-------------------------------------------------------------------------|
     . . . . .   . . .   . .           . . . . .   . .


Guitar 2:
E||-------|
B||-------|
G||---4~--|
D||---4~--|
A||---2~--|
E||-------|



Bridge
Guitar 2:
E||--------------------------------------------------|
B||--------------------------------------------------|
G||--------------------------------------------------|
D||--------------------------------------------------|
A||--2-2-0-2----2-2-0-2----2-2-0-2-------------------|
E||-----------------------------------3-3-3-3-2-2-2--|


Guitar 1/2:
E||----------------------------------|
B||----------------------------------|
G||----------------------------------|
D||----------------------------------|
A||--2-2-0-2----2-2-0-2----2-2-0-2---|
E||----------------------------------|


Guitar 1:
E||-----------------|
B||-----------------|
G||-----------------|
D||-----------------|
A||-----------------|
E||--3-3-3-3-2-2-2--|



Breakdown
Guitar 1:
E||--------------------------------------------------|
B||--------------------------------------------------|
G||--4-4-2-4----4-4-2-4----4-4-2-4-------------------| x2
D||--4-4-2-4----4-4-2-4----4-4-2-4----5-5-5-5-4-4-4--|
A||--2-2-0-2----2-2-0-2----2-2-0-2----5-5-5-5-4-4-4--|
E||-----------------------------------3-3-3-3-2-2-2--|


Guitar 2:
E||------------------------------------|
B||------------------------------------|
G||--77777777777777777777777777777777--|
D||--xxxxxxxxxxxxxxxxxxxxxxxxxxxxxxxx--|
A||--55555555555555555555555555555555--|
E||------------------------------------|



Chorus / Solo
Guitar 2:
E||----------------------------------------------------------------------------------|
B||----------------------------------------------------------------------------------|
G||---9b11-----7-------------------6-7---6-7---7---9--9-9-9-9-7----9-9-9-9----9-7----|
D||--------------9---7-9-8-----8-9---------------9--------------9-----------9-----9--|
A||----------------------------------------------------------------------------------|
E||----------------------------------------------------------------------------------|


E||----------------------------------------------------------------------------------|
B||----------------------------------------------------------------------------------|
G||-9-7---7-9-7-9-7-9b11--9b11--9b11r9--7------------------------------7-7-7---------|
D||-----9---------------------------------9---9-9-9-7-9-9-9-7-9--9-7-9--------9-9-9--|
A||----------------------------------------------------------------------------------|
E||----------------------------------------------------------------------------------|


E||----------------------------------------------------------------------------------|
B||----------------------------------------------------------------------------------|
G||---------------------9-9-9-9-7-7-9---7-9-7--9b11r9b11r9b11r9-7--------------------|
D||--7-9-9-9-7-9--9-7-9-------------------------------------------9-9-9-9-7-9---9-8--|
A||----------------------------------------------------------------------------------|
E||----------------------------------------------------------------------------------|


Guitar 1:
E||----------------------------------------------------------------------|
B||----------------------------------------------------------------------|
G||-4444444444444444-3333333333333333------------------------------------| x2
D||-4444444444444444-3333333333333333-2222222222222222-4444444444444444--|
A||-2222222222222222-1111111111111111-2222222222222222-4444444444444444--|
E||-----------------------------------0000000000000000-2222222222222222--|



Outro
Guitar 1:
E||------------------------------------------------------|
B||------------------------------------------------------|
G||--4-4-2-4----4-4-2-4----4-4-2-4-----------------------|
D||--4-4-2-4----4-4-2-4----4-4-2-4----5-5-5-5-4-4-4--9\--|
A||--2-2-0-2----2-2-0-2----2-2-0-2----5-5-5-5-4-4-4--9\--|
E||-----------------------------------3-3-3-3-2-2-2--7\--|


Guitar 2:
E||----------------------------------------------------------------|
B||----------------------------------------------------------------|
G||------7--------9--9b11--9b11--11r9--7-----7--------7------------|
D||--7h9------7-9------------------------9-----9--8-----9--8--9\---|
A||----------------------------------------------------------------|
E||----------------------------------------------------------------|





Tablature Legend
----------------
 h   hammer-on
 p   pull-off
 b   bend
 pb  pre-bend
 r   release bend
 ~   hold / vibrato
 .   palm mute
 /   slide up
 \   slide down
 *   pinch harmonic
 '   natural harmonic
 x   mute note
 T   tap
comments
We did not receive enough feedback on this tab! Please rate:
print report bad tab
1 2 3 4 5
I want to post or [tab]
guest
You may want to rate the tab now too:
select rating
Please do not post tabs as comments. Select "correction" instead!