Oops, an error
Loading. Please wait.

Antichristian Phenomenom Tab

3,643 views 6 this week
no commentswrite comment
1 2 3 4 5
accurate
x 4
Autoscroll
+/-
esc
set tempo
stop
Hey! There's an official Ultimate Guitar app which is ideal
for learning songs when you're away from computer. Get the app
WARNING: You are trying to view
                                    content from Ultimate-Guitar.com
                                    in an unauthorized application,
                                    which is prohibited.

                                    Please use an official Ultimate
                                    Guitar Tabs application for iPhone,
                                    iPad or Android to access legitimate
                                    chords, guitar, bass, and drum tabs
                                    from Ultimate-Guitar.com database.

                                    Type "ultimate guitar tabs" in Apple
                                    App Store's or Android Market's
                                    search to find the application.
#----------------------------------PLEASE NOTE---------------------------------#
#This file is the author's own work and represents their interpretation of the #
#song. You may only use this file for private study, scholarship, or research. #
#------------------------------------------------------------------------------#

BEHEMOTH - ANTICHRISTIAN PHENOMENOM
From the Album Thelema.6
Copyright 2000 Avantgarde Music

Version 5.0 - April 2, 2002

First version (1.0): December 2, 2001
Transcribed by: Emperia (benton_glen)
For questions, comments, corrections: emperiadb@hotmail.com
You can visit my Website: www.behemoth.ht.st

Notation:
[m] = Artificial Harmonic
~~~ = Vibrato
PM_ = Palm Mute
\   = Vibrato (down)
 ~~
/   = Vibrato (up)
 ~~



Tuning: D, G, C, F, A, d




INTRO:

   Guitars 1 & 2
 d[--------------------------------|--------------------------------]
 A[-°------------------------------|------------------------------°-]
 F[--------------------------------|--------------------------------]
 C[---------9--9-----------8--5----|-------9--9-----------8--5------]
 G[-°--2--2/7--7---2-2-2-2-6--3----|--2--2/7--7---2-2-2-2-6--3----°-]
 D[----0--0--------0-0-0-0---------|--0--0--------0-0-0-0-----------]
                   PM_____                        PM_____

   Guitars 1 & 2
 d[-----------------------------------------]
 A[-----------------------------------------]
 F[-----------------------------------------]
 C[----------[2]-----[2]-------[2]-[2]-[2]--]
 G[-----------------------------------------]
 D[--0-0-0-0-----0-0-----0-0-0--------------]
     PM_____     PM_     PM___


   Guitars 1 & 2
 d[--------------------------------|--------------------------------]
 A[-°------------------------------|------------------------------°-]
 F[--------------------------------|--------------------------------]
 C[---------9--9-----------8--5----|-------9--9-----------8--5------]
 G[-°--2--2/7--7---2-2-2-2-6--3----|--2--2/7--7---2-2-2-2-6--3----°-]
 D[----0--0--------0-0-0-0---------|--0--0--------0-0-0-0-----------]
  |                PM_____                        PM_____
  |Guitar 3
 d[--------------------------------|--------------------------------]
 A[-°-------9-8--------------------|-------9-8--------------------°-]
 F[-------------9----------9-8-----|-----------9----------9-8-------]
 C[----------------------------10--|--------------------------10----]
 G[-°------------------------------|------------------------------°-]
 C[--------------------------------|--------------------------------]


   Guitar 1
 d[-----------------]
 A[-----------------]
 F[-----------------]
 C[-----------8--5--]
 G[---2-2-2-2-6--3--]
 D[---0-0-0-0-------]
      PM_____


   Guitars 1 & 2
 d[------------------------------------|------------------------------------]
 A[-°----------------------------------|----------------------------------°-]
 F[------------------------------------|------------------------------------]
 C[---------------9--9-----------8--5--|-------------9--9-----------8--5----]
 G[-°--2---------/7--7-----------6--3--|------------/7--7-----------6--3--°-]
 D[----0-0-0-0-0-------0-0-0-0-0-------|--0-0-0-0-0-------0-0-0-0-0---------]
                       PM_______                          PM_______



VERSE:

   Guitars 1 & 2
 d[----------------------|---------------------------]
 A[-°--------------------|-------------------------°-]
 F[----------------------|---------------------------]
 C[------9-9---9---8-8-8-|----9-9---9----------------]
 G[-°--------------------|--------------0----------°-]
 D[----0-----0---0-------|--0-----0---0---3-2-1-0----]
                                        PM_______

   Guitars 1 & 2
 d[----------------------|---------------------------]
 A[-°--------------------|-------------------------°-]
 F[----------------------|---------------------------]
 C[------9-9---9---8-8-8-|----9-9---9----------------]
 G[-°--------------------|--------------0----------°-]
 D[----0-----0---0-------|--0-----0---0---3-2-1-0----]
  |                                     PM_______
  |
  |Guitar 3                    ~~~~~~~~~~~~~~~~~~~~~~~~~~~~~~
 d[----------------------|--24/----------------------|-------\--]
 A[----------------------|---------------------------|----------]
 F[----------------------|---------------------------|----------]
 C[----------------------|---------------------------|----------]
 G[----------------------|---------------------------|----------]
 D[--0\------------------|---------------------------|----------]
       ~~~~~~~

   Guitars 1 & 2
 d[----------------------|---------------------------]
 A[-°--------------------|-------------------------°-]
 F[----------------------|---------------------------]
 C[------9-9---9---8-8-8-|----9-9---9----------------]
 G[-°--------------------|--------------0----------°-]
 D[----0-----0---0-------|--0-----0---0---3-2-1-0----]
                                        PM_______

   Guitars 1 & 2
 d[-------------------|--------------------------]
 A[-°-----------------|------------------------°-]
 F[-------------------|--------------------------]
 C[-------------------|--------------------------]
 G[-°----7-7---7---6--|----7-7---7----7-8-5-7--°-]
 D[----0-----0---0----|--0-----0---0-------------]



PRE-SOLO:

   Guitars 1 & 2
 d[--------------------------------|--------------------------------]
 A[-°------------------------------|------------------------------°-]
 F[--------------------------------|--------------------------------]
 C[---------9--9-----------8--5----|-------9--9-----------8--5------]
 G[-°--2--2/7--7---2-2-2-2-6--3----|--2--2/7--7---2-2-2-2-6--3----°-]
 D[----0--0--------0-0-0-0---------|--0--0--------0-0-0-0-----------]
                   PM_____                        PM_____

   Guitars 3 (Solo Guitar)
 d[--------------------------------|--------------------------------]
 A[--------------------------------|--------------------------------]
 F[--------------------------------|--------------------------------]
 C[-----------FEEDBACK-------------|--------------------------------]
 G[--------------------------------|--------------------------------]
 D[--------------------------------|-------------------0\-----------]
                                                         ~~~~~~~

SOLO:

   Guitar 3 (Solo Guitar)
 d[-----------------------------------------------------------------]
 A[--12----12-13-12----12-13-15-13-15-17-19-21-19-21------24~---24--]
 F[-----------------------------------------------------------------]
 C[-----------------------------------------------------------------]
 G[-----------------------------------------------------------------]
 D[-----------------------------------------------------------------]
  |
  |Guitars 1 & 2 (Rythm Guitars)
 d[-------------------------------|-------------------------------]
 A[-°-----------------------------|-----------------------------°-]
 F[-------------------------------|-------------------------------]
 C[---------9-9-----------8--5----|-------9-9-----------8--5------]
 G[-°--2--2/7-7---2-2-2-2-6--3----|--2--2/7-7---2-2-2-2-6--3----°-]
 D[----0--0-------0-0-0-0---------|--0--0-------0-0-0-0-----------]
                  PM_____                       PM_______

   Guitar 3
 d[--15-18-15-17-15-17-15-18-15-17-15-17-15-18-15-17-15-17-----]
 A[------------------------------------------------------------]
 F[------------------------------------------------------------]
 C[------------------------------------------------------------]
 G[------------------------------------------------------------]
 D[------------------------------------------------------------]

                        ~~~~~~
 d[--15-18-15-17-15--22/------\--------------------------------]
 A[------------------------------------------------------------]
 F[------------------------------------------------------------]
 C[------------------------------------------------------------]
 G[------------------------------------------------------------]
 D[------------------------------------------------------------]


VERSE:

   Guitars 1 & 2
 d[----------------------|---------------------------]
 A[-°--------------------|-------------------------°-]
 F[----------------------|---------------------------]
 C[------9-9---9---8-8-8-|----9-9---9----------------]
 G[-°--------------------|--------------0----------°-]
 D[----0-----0---0-------|--0-----0---0---3-2-1-0----]
                                        PM_______

   Guitars 1 & 2
 d[-------------------|--------------------------]
 A[-°-----------------|------------------------°-]
 F[-------------------|--------------------------]
 C[-------------------|--------------------------]
 G[-°----7-7---7---6--|----7-7---7----7-8-5-7--°-]
 D[----0-----0---0----|--0-----0---0-------------]


BREAK:

   Guitars 1 & 2
 d[---------------|---------------]
 A[-°-------------|-------------°-]
 F[-------9-8-8---|------8-5-5----]
 C[---2---9-8-8---|--2---8-5-5----]
 G[-°-2---7-6-6---|--2---6-3-3--°-]
 D[---0-----------|--0------------]
   (not totally sure about this riff)


   Guitars 1 & 2
 d[-----------------------------------]
 A[-----------------------------------]
 F[-----------------------------------]
 C[------[3]-----[3]-----[3]-----[3]--]
 G[--3-3-----3-3-----3-3-----3-3------]
 D[--1-1-----1-1-----1-1-----1-1------]


   Guitars 1 & 2
 d[---------------|---------------]
 A[-°-------------|-------------°-]
 F[-------9-8-8---|------8-5-5----]
 C[---2---9-8-8---|--2---8-5-5----]
 G[-°-2---7-6-6---|--2---6-3-3--°-]
 D[---0-----------|--0------------]


   Guitars 1 & 2
 d[-----------------------------------]
 A[-----------------------------------]
 F[-----------------------------------]
 C[------[3]-----[3]-----[3]-----[3]--]
 G[--3-3-----3-3-----3-3-----3-3------]
 D[--1-1-----1-1-----1-1-----1-1------]


   Guitars 1 & 2
 d[---------------------------------------|--------------------------------------]
 A[---------------------------------------|--------------------------------------]
 F[---------------------------------------|--------------------------------------]
 C[---------------------------------------|--------------------------------------]
 G[--2-----------10-10-10-10-10-9-9-7-7-7-|-2-----------10-10-10-10-10-9-9-7-7-7-]
 D[--0-0-0-0-0-0--------------------------|-0-0-0-0-0-0--------------------------]

   Guitars 1 & 2
 d[---------------------------------]
 A[---------------------------------]
 F[---------------------------------]
 C[---------------------------------]
 G[---------------------------------]
 D[--6----------2--5--4----------1--]


   Guitars 1
 d[---------------------------------------|--------------------------------------]
 A[---------------------------------------|--------------------------------------]
 F[---------------------------------------|--------------------------------------]
 C[---------------------------------------|--------------------------------------]
 G[--2-----------10-10-10-10-10-9-9-7-7-7-|-2-----------10-10-10-10-10-9-9-7-7-7-]
 D[--0-0-0-0-0-0--------------------------|-0-0-0-0-0-0--------------------------]
  |
  |Guitar 2
 d[---------------------------------------|--------------------------------------]
 A[---------------------------------------|--------------------------------------]
 F[---------------------------------------|--------------------------------------]
 C[--2---------2---------2---------2------|--2---------2---------2---------2-----]
 G[--2---------2---------2---------2------|--2---------2---------2---------2-----]
 D[--0---------0---------0---------0------|--0---------0---------0---------0-----]

   Guitars 1 & 2
 d[---------------------------------]
 A[---------------------------------]
 F[---------------------------------]
 C[---------------------------------]
 G[---------------------------------]
 D[--6----------2--5--4----------1--]


   Guitars 1 & 2
 d[---------------------------------------|--------------------------------------]
 A[---------------------------------------|--------------------------------------]
 F[---------------------------------------|--------------------------------------]
 C[---------------------------------------|--------------------------------------]
 G[--2-----------10-10-10-10-10-9-9-7-7-7-|-2-----------10-10-10-10-10-9-9-7-7-7-]
 D[--0-0-0-0-0-0--------------------------|-0-0-0-0-0-0--------------------------]

   Guitars 1 & 2
 d[---------------------------------]
 A[---------------------------------]
 F[---------------------------------]
 C[---------------------------------]
 G[---------------------------------]
 D[--6----------2--5--4----------1--]


   Guitars 1
 d[---------------------------------------|--------------------------------------]
 A[---------------------------------------|--------------------------------------]
 F[---------------------------------------|--------------------------------------]
 C[---------------------------------------|--------------------------------------]
 G[--2-----------10-10-10-10-10-9-9-7-7-7-|-2-----------10-10-10-10-10-9-9-7-7-7-]
 D[--0-0-0-0-0-0--------------------------|-0-0-0-0-0-0--------------------------]
  |
  |Guitar 2
 d[---------------------------------------|--------------------------------------]
 A[---------------------------------------|--------------------------------------]
 F[---------------------------------------|--------------------------------------]
 C[--2---------2---------2---------2------|--2---------2---------2---------2-----]
 G[--2---------2---------2---------2------|--2---------2---------2---------2-----]
 D[--0---------0---------0---------0------|--0---------0---------0---------0-----]

   Guitars 1 & 2
 d[---------------------------------]
 A[---------------------------------]
 F[---------------------------------]
 C[---------------------------------]
 G[---------------------------------]
 D[--6----------2--5--4----------1--]


   Guitars 1 & 2
 d[---------------|---------------]
 A[-°-------------|-------------°-]
 F[-------9-8-8---|------8-5-5----]
 C[---2---9-8-8---|--2---8-5-5----]
 G[-°-2---7-6-6---|--2---6-3-3--°-]
 D[---0-----------|--0------------]
  |
  |Guitar 3:
 d[--------------------------------]
 A[--------------------------------]
 F[--------------------------------]
 C[--------------------------------]
 G[--------------------------------]
 D[---0\---------------------------]
        ~~~~~~~~~

   Guitars 1 & 2
 d[-----------------------------------]
 A[-----------------------------------]
 F[-----------------------------------]
 C[------[3]-----[3]-----[3]-----[3]--]
 G[--3-3-----3-3-----3-3-----3-3------]
 D[--1-1-----1-1-----1-1-----1-1------]


   Guitars 1 & 2
 d[---------------|---------------]
 A[-°-------------|-------------°-]
 F[-------9-8-8---|------8-5-5----]
 C[---2---9-8-8---|--2---8-5-5----]
 G[-°-2---7-6-6---|--2---6-3-3--°-]
 D[---0-----------|--0------------]


   Guitars 1 & 2
 d[-----------------------------------]
 A[-----------------------------------]
 F[-----------------------------------]
 C[------[3]-----[3]-----[3]-----[3]--]
 G[--3-3-----3-3-----3-3-----3-3------]
 D[--1-1-----1-1-----1-1-----1-1------]


   Guitars 1 & 2
 d[----------------------|---------------------------]
 A[-°--------------------|-------------------------°-]
 F[----------------------|---------------------------]
 C[------9-9---9---8-8-8-|----9-9---9----------------]
 G[-°--------------------|--------------0----------°-]
 D[----0-----0---0-------|--0-----0---0---3-2-1-0----]
                                        PM_______

   Guitars 1 & 2
 d[----------------------|---------------------------]
 A[-°--------------------|-------------------------°-]
 F[----------------------|---------------------------]
 C[------9-9---9---8-8-8-|----9-9---9----------------]
 G[-°--------------------|--------------0----------°-]
 D[----0-----0---0-------|--0-----0---0---3-2-1-0----]
  |                                     PM_______
  |
  |Guitar 3                    ~~~~~~~~~~~~~~~~~~~~~~~~~~~~~~
 d[----------------------|--24/----------------------|-------\--]
 A[----------------------|---------------------------|----------]
 F[----------------------|---------------------------|----------]
 C[----------------------|---------------------------|----------]
 G[----------------------|---------------------------|----------]
 D[--0\------------------|---------------------------|----------]
       ~~~~~~~~~~~~~

   Guitars 1 & 2
 d[----------------------|---------------------------]
 A[-°--------------------|-------------------------°-]
 F[----------------------|---------------------------]
 C[------9-9---9---8-8-8-|----9-9---9----------------]
 G[-°--------------------|--------------0----------°-]
 D[----0-----0---0-------|--0-----0---0---3-2-1-0----]
                                        PM_______

   Guitars 1 & 2
 d[--------------------------------|--------------------------------]
 A[-°------------------------------|------------------------------°-]
 F[--------------------------------|--------------------------------]
 C[---------9--9-----------8--5----|-------9--9-----------8--5------]
 G[-°--2--2/7--7---2-2-2-2-6--3----|--2--2/7--7---2-2-2-2-6--3----°-]
 D[----0--0--------0-0-0-0---------|--0--0--------0-0-0-0-----------]
                   PM_____                        PM_____


   Guitars 1 & 2
 d[--------------------------------|--------------------------------]
 A[-°----------------------------°-|--------------------------------]
 F[--------------------------------|--------------------------------]
 C[---------9--9-----------8--5----|-------9--9--8-----9-8----9-----]
 G[-°--2--2/7--7---2-2-2-2-6--3--°-|--2--2/7--7--6-----7-6-10-7-----]
 D[----0--0--------0-0-0-0---------|--0--0------------------8-------]
                   PM_____


   Guitars 1 & 2
 d[--------------------------------|--------------------------------]
 A[-°------------------------------|------------------------------°-]
 F[--------------------------------|--------------------------------]
 C[---------9--9-----------8--5----|-------9--9-----------8--5------]
 G[-°--2--2/7--7---2-2-2-2-6--3----|--2--2/7--7---2-2-2-2-6--3----°-]
 D[----0--0--------0-0-0-0---------|--0--0--------0-0-0-0-----------]
  |                PM_____                        PM_____
  |Guitar 3
 d[--------------------------------|--------------------------------]
 A[-°-------9-8--------------------|-------9-8--------------------°-]
 F[-------------9----------9-8-----|-----------9----------9-8-------]
 C[----------------------------10--|--------------------------10----]
 G[-°------------------------------|------------------------------°-]
 C[--------------------------------|--------------------------------]


   Guitar 1
 d[-----------------]
 A[-----------------]
 F[-----------------]
 C[-----------8--5--]
 G[---2-2-2-2-6--3--]
 D[---0-0-0-0-------]
      PM_____


   Guitars 1 & 2
 d[------------------------------------|------------------------------------]
 A[-°----------------------------------|----------------------------------°-]
 F[------------------------------------|------------------------------------]
 C[---------------9--9-----------8--5--|-------------9--9-----------8--5----]
 G[-°------------/7--7-----------6--3--|------------/7--7-----------6--3--°-]
 D[----0-0-0-0-0-------0-0-0-0-0-------|--0-0-0-0-0-------0-0-0-0-0---------]
                       PM_______                          PM_______
comments
print report bad tab
I want to post or [tab]
guest
You may want to rate the tab now too:
select rating
Please do not post tabs as comments. Select "correction" instead!