Oops, an error
Loading. Please wait.

At The Left Hand Ov God Tab

27,461 views 33 this week
8 commentsread comments
1 2 3 4 5
accurate
x 11
Autoscroll
+/-
esc
set tempo
stop
Contributor
Difficulty
Tuning
advanced
B F# B E G# C#
WARNING: You are trying to view
                                    content from Ultimate-Guitar.com
                                    in an unauthorized application,
                                    which is prohibited.

                                    Please use an official Ultimate
                                    Guitar Tabs application for iPhone,
                                    iPad or Android to access legitimate
                                    chords, guitar, bass, and drum tabs
                                    from Ultimate-Guitar.com database.

                                    Type "ultimate guitar tabs" in Apple
                                    App Store's or Android Market's
                                    search to find the application.
Behemoth
At The Left Hand Ov God
Tabbed by : \m/Gaz

Guitar 1 [Nergal] = (BF#BEG#C#) (top guitar line)
Guitar 2 [Seth]   = (BF#BEG#C#) (second one down)
Guitar 3 [Nergal] = (BF#BEG#C#) (Third one down)
(Guitar 3 only used on some occasions)


Intro (Guitar 1 clean)


|--5---5\4-4---5---5\4-4---5---5\4-4---5---5\4-4--------------9--|
|--3---3\2-2---3---3\2-2---3---3\2-2---3---3\2-2------------7----|
|--2---2\1-1---2---2\1-1---2---2\1-1---2---2\1-1----------6------|
|--0---0---0---0---0---0---0---0---0---0---0---0--------4--------|
|-----------------------------------------------------4----------|
|---------------------------------------------------4------------|
|                                                                |
|                                                                |
|--5---5p4-4---5---5p4-4---5---5p4-4---5---5p4-4--2--------------|
|----------------------------------------------------------------|
|----------------------------------------------------------------|
|----------------------------------------------------------------|
|----------------------------------------------------------------|
|----------------------------------------------------------------|
|                                                                |
|                                                                |
|--------------------------------------------------4\2-----------|
|----------------------------------------------------------------|
|----------------------------------------------------------------|
|----------------------------------------------------------------|
|----------------------------------------------------------------|
|----------------------------------------------------------------|


|--5---5\4-4---5---5\4-4---5---5\4-4---5---5\4-4--------------9--|
|--3---3\2-2---3---3\2-2---3---3\2-2---3---3\2-2------------7----|
|--2---2\1-1---2---2\1-1---2---2\1-1---2---2\1-1----------6------|
|--0---0---0---0---0---0---0---0---0---0---0---0--------4--------|
|-----------------------------------------------------4----------|
|---------------------------------------------------4------------|
|                                                                |
|                                                                |
|--5---5p4-4---5---5p4-4---5---5p4-4---5---5p4-4-/9--------------|
|----------------------------------------------------------------|
|----------------------------------------------------------------|
|----------------------------------------------------------------|
|----------------------------------------------------------------|
|----------------------------------------------------------------|
|                                                                |
|                                                                |
|--------------------------------------------------4\2-----------|
|----------------------------------------------------------------|
|----------------------------------------------------------------|
|----------------------------------------------------------------|
|----------------------------------------------------------------|
|----------------------------------------------------------------|


|--5---5\4-4---5---5\4-4---5---5\4-4---5---5\4-4--------------9--|
|--3---3\2-2---3---3\2-2---3---3\2-2---3---3\2-2------------7----|
|--2---2\1-1---2---2\1-1---2---2\1-1---2---2\1-1----------6------|
|--0---0---0---0---0---0---0---0---0---0---0---0--------4--------|
|-----------------------------------------------------4----------|
|---------------------------------------------------4------------|
|                                                                |
|                                                                |
|--5---5p4-4---5---5p4-4---5---5p4-4---5---5p4-4--2--------------|
|----------------------------------------------------------------|
|----------------------------------------------------------------|
|----------------------------------------------------------------|
|----------------------------------------------------------------|
|----------------------------------------------------------------|
|                                                                |
|                                                                |
|--------------------------------------------------4\2-----------|
|----------------------------------------------------------------|
|----------------------------------------------------------------|
|----------------------------------------------------------------|
|----------------------------------------------------------------|
|----------------------------------------------------------------|


|--5---5\4-4---5---5\4-4---5---5\4-4---5---5\4-4--------------9--|
|--3---3\2-2---3---3\2-2---3---3\2-2---3---3\2-2------------7----|
|--2---2\1-1---2---2\1-1---2---2\1-1---2---2\1-1----------6------|
|--0---0---0---0---0---0---0---0---0---0---0---0--------4--------|
|-----------------------------------------------------4----------|
|---------------------------------------------------4------------|
|                                                                |
|                                                                |
|--5---5p4-4---5---5p4-4---5---5p4-4---5---5p4-4-/9--------------|
|----------------------------------------------------------------|
|----------------------------------------------------------------|
|----------------------------------------------------------------|
|----------------------------------------------------------------|
|----------------------------------------------------------------|
|                                                                |
|                                                                |
|--------------------------------------------------4/9-----------|
|----------------------------------------------------------------|
|----------------------------------------------------------------|
|----------------------------------------------------------------|
|----------------------------------------------------------------|
|----------------------------------------------------------------|


|------9------------------------------|
|--------7-6-7-----9-10-9h10p9-6--7---|
|----6-----------6--------------------|
|--4-----------4----------------------|
|-------------------------------------|
|-------------------------------------|
|                                     |
|                                     |
|-------------------------------------|
|-------------------------------------|
|------------------------------10-11--|
|-------------------------------------|
|-------------------------------------|
|-------------------------------------|


Verse (With Distortion)


|---------------------------------------------------------|
|---------------------------------------------------------|
|---------------------------------------------------------|
|--6--6-7-6-6--6-6-6-7/10-10--6--6-7-6-6------------------|
|--4--4-5-4-4--4-4-4-5/8--8---4--4-5-4-4--4-5-2--4-0-<3>--|
|-----------------------------------------"-"-"--"-"------|
|                                                         |
|                                                         |
|---------------------------------------------------------|
|---------------------------------------------------------|
|---------------------------------------------------------|
|--6--6-7-6-6--6-6-6-7/10-10--6--6-7-6-6------------------|
|--4--4-5-4-4--4-4-4-5/8--8---4--4-5-4-4--4-5-2--4-0------|
|-----------------------------------------"-"-"--"-"------|



|---------------------------------------------------------|
|---------------------------------------------------------|
|---------------------------------------------------------|
|--6--6-7-6-6--6-6-6-7/10-10--6--6-7-6-6------------------|
|--4--4-5-4-4--4-4-4-5/8--8---4--4-5-4-4--4-5-2--4-0-<3>--|
|-----------------------------------------"-"-"--"-"------|
|                                                         |
|                                                         |
|---------------------------------------------------------|
|---------------------------------------------------------|
|---------------------------------------------------------|
|--6--6-7-6-6--6-6-6-7/10-10--6--6-7-6-6------------------|
|--4--4-5-4-4--4-4-4-5/8--8---4--4-5-4-4--4-5-2--4-0------|
|-----------------------------------------"-"-"--"-"------|



|---------------------------------------------------------|
|---------------------------------------------------------|
|---------------------------------------------------------|
|--6--6-7-6-6--6-6-6-7/10-10--6--6-7-6-6------------------|
|--4--4-5-4-4--4-4-4-5/8--8---4--4-5-4-4--4-5-2--4-0-<3>--|
|-----------------------------------------"-"-"--"-"------|
|                                                         |
|                                                         |
|---------------------------------------------------------|
|---------------------------------------------------------|
|---------------------------------------------------------|
|--6--6-7-6-6--6-6-6-7/10-10--6--6-7-6-6------------------|
|--4--4-5-4-4--4-4-4-5/8--8---4--4-5-4-4--4-5-2--4-0------|
|-----------------------------------------"-"-"--"-"------|



|---------------------------------------------------------|
|---------------------------------------------------------|
|---------------------------------------------------------|
|--6--6-7-6-6--6-6-6-7/10-10--6--6-7-6-6------------------|
|--4--4-5-4-4--4-4-4-5/8--8---4--4-5-4-4--4-5-2--4-0-<3>--|
|-----------------------------------------"-"-"--"-"------|
|                                                         |
|                                                         |
|---------------------------------------------------------|
|---------------------------------------------------------|
|---------------------------------------------------------|
|--6--6-7-6-6--6-6-6-7/10-10--6--6-7-6-6------------------|
|--4--4-5-4-4--4-4-4-5/8--8---4--4-5-4-4--4-5-2--4-0------|
|-----------------------------------------"-"-"--"-"------|



Chorus


|--------------------------------------------------------------|
|--------------------------------------------------------------|
|--------------------------------------------------------------|
|--11---11---11-11\9-9\7-7---12--11\9--11/12-11----------------|
|--------------------------------------------------------------|
|--11---11---11-11\9-9\7-7---12--11\9--11/12-11----------------|
|                                                              |
|                                                              |
|--------------------------------------------------------------|
|--------------------------------------------------------------|
|--6-----------------------------------------------------------|
|--------------------------------------------------------------|
|--4-------------------------------------------4-5-2--4-0-<3>--|
|----------------------------------------------"-"-"--"-"------|


|--------------------------------------------------------------|
|--------------------------------------------------------------|
|--------------------------------------------------------------|
|--11---11---11-11\9-9\7-7---12--11\9--11/12-11----------------|
|--------------------------------------------------------------|
|--11---11---11-11\9-9\7-7---12--11\9--11/12-11----------------|
|                                                              |
|                                                              |
|--------------------------------------------------------------|
|--------------------------------------------------------------|
|--6-----------------------------------------------------------|
|--------------------------------------------------------------|
|--4-------------------------------------------4-5-2--4-0-<3>--|
|----------------------------------------------"-"-"--"-"------|

Verse


|---------------------------------------------------------|
|---------------------------------------------------------|
|---------------------------------------------------------|
|--6--6-7-6-6--6-6-6-7/10-10--6--6-7-6-6------------------|
|--4--4-5-4-4--4-4-4-5/8--8---4--4-5-4-4--4-5-2--4-0-<3>--|
|-----------------------------------------"-"-"--"-"------|
|                                                         |
|                                                         |
|---------------------------------------------------------|
|---------------------------------------------------------|
|---------------------------------------------------------|
|--6--6-7-6-6--6-6-6-7/10-10--6--6-7-6-6------------------|
|--4--4-5-4-4--4-4-4-5/8--8---4--4-5-4-4--4-5-2--4-0------|
|-----------------------------------------"-"-"--"-"------|


|---------------------------------------------------------|
|---------------------------------------------------------|
|---------------------------------------------------------|
|--6--6-7-6-6--6-6-6-7/10-10--6--6-7-6-6------------------|
|--4--4-5-4-4--4-4-4-5/8--8---4--4-5-4-4--4-5-2--4-0-<3>--|
|-----------------------------------------"-"-"--"-"------|
|                                                         |
|                                                         |
|---------------------------------------------------------|
|---------------------------------------------------------|
|---------------------------------------------------------|
|--6--6-7-6-6--6-6-6-7/10-10--6--6-7-6-6------------------|
|--4--4-5-4-4--4-4-4-5/8--8---4--4-5-4-4--4-5-2--4-0------|
|-----------------------------------------"-"-"--"-"------|



|---------------------------------------------------------|
|---------------------------------------------------------|
|---------------------------------------------------------|
|--6--6-7-6-6--6-6-6-7/10-10--6--6-7-6-6------------------|
|--4--4-5-4-4--4-4-4-5/8--8---4--4-5-4-4--4-5-2--4-0-<3>--|
|-----------------------------------------"-"-"--"-"------|
|                                                         |
|                                                         |
|---------------------------------------------------------|
|---------------------------------------------------------|
|---------------------------------------------------------|
|--6--6-7-6-6--6-6-6-7/10-10--6--6-7-6-6------------------|
|--4--4-5-4-4--4-4-4-5/8--8---4--4-5-4-4--4-5-2--4-0------|
|-----------------------------------------"-"-"--"-"------|



|---------------------------------------------------------|
|---------------------------------------------------------|
|---------------------------------------------------------|
|--6--6-7-6-6--6-6-6-7/10-10--6--6-7-6-6------------------|
|--4--4-5-4-4--4-4-4-5/8--8---4--4-5-4-4--4-5-2--4-0-<3>--|
|-----------------------------------------"-"-"--"-"------|
|                                                         |
|                                                         |
|---------------------------------------------------------|
|---------------------------------------------------------|
|---------------------------------------------------------|
|--6--6-7-6-6--6-6-6-7/10-10--6--6-7-6-6------------------|
|--4--4-5-4-4--4-4-4-5/8--8---4--4-5-4-4--4-5-2--4-0------|
|-----------------------------------------"-"-"--"-"------|


Chorus


|--------------------------------------------------------------|
|--------------------------------------------------------------|
|--------------------------------------------------------------|
|--11---11---11-11\9-9\7-7---12--11\9--11/12-11----------------|
|--------------------------------------------------------------|
|--11---11---11-11\9-9\7-7---12--11\9--11/12-11----------------|
|                                                              |
|                                                              |
|--------------------------------------------------------------|
|--------------------------------------------------------------|
|--6-----------------------------------------------------------|
|--------------------------------------------------------------|
|--4-------------------------------------------4-5-2--4-0-<3>--|
|----------------------------------------------"-"-"--"-"------|


|--------------------------------------------------------------|
|--------------------------------------------------------------|
|--------------------------------------------------------------|
|--11---11---11-11\9-9\7-7---12--11\9--11/12-11----------------|
|--------------------------------------------------------------|
|--11---11---11-11\9-9\7-7---12--11\9--11/12-11----------------|
|                                                              |
|                                                              |
|--------------------------------------------------------------|
|--------------------------------------------------------------|
|--6-----------------------------------------------------------|
|--------------------------------------------------------------|
|--4-------------------------------------------4-5-2--4-0-<3>--|
|----------------------------------------------"-"-"--"-"------|


Bridge


|--------------------------------|
|--------------------------------|
|--------------------------------|
|--6--7-4-6--6-6-6-7-4-6-7----6--|
|--4--5-2-4--4-4-4-5-2-4-5-7--4--|
|--------------------------7-----|
|   pm. .          . .   .       |
|                                |
|--------------------------------|
|--------------------------------|
|--------------------------------|
|--6--7-4-6--6-6-6-7-4-6-7----6--|
|--4--5-2-4--4-4-4-5-2-4-5-7--4--|
|--------------------------7-----|
    pm. .          . .   .        

|-----------------------------------------------------------|
|-----------------------------------------------------------|
|-----------------------------------------------------------|
|-----------------------------------------------------------|
|----------5p4-4---------5p4-4---------5p4-----------4h5-5--|
|--0-0-0-0-------0-0-0-0-------2-3-0-2-----3-2-0-0-0--------|
|pm. . . .       . . . .       . . . .         . . .        |
|                                                           |
|-----------------------------------------------------------|
|-----------------------------------------------------------|
|-----------------------------------------------------------|
|--------------3-------------3------------------------------|
|----------5p4-----------5p4-----------5p4-----------4h5-5--|
|--0-0-0-0-------0-0-0-0-------2-3-0-2-----3-2-0-0-0--------|
 pm. . . .       . . . .       . . . .         . . .         

|-----------------------------------------------------------|
|-----------------------------------------------------------|
|-----------------------------------------------------------|
|-----------------------------------------------------------|
|----------5p4-4---------5p4-4---------5p4-----------4h5-5--|
|--0-0-0-0-------0-0-0-0-------2-3-0-2-----3-2-0-0-0--------|
|pm. . . .       . . . .       . . . .         . . .        |
|                                                           |
|-----------------------------------------------------------|
|-----------------------------------------------------------|
|-----------------------------------------------------------|
|--------------3-------------3------------------------------|
|----------5p4-----------5p4-----------5p4-----------4h5-5--|
|--0-0-0-0-------0-0-0-0-------2-3-0-2-----3-2-0-0-0--------|
 pm. . . .       . . . .       . . . .         . . .         


|----------------------------------------------------|
|----------------------------------------------------|
|----------------------------------------------------|
|--3-----------2---0---2h3p2--3-----------2---0---2--|
|--3-----------2---0---2h3p2--3-----------2---0---2--|
|--3---3-3-3-3-2---0---2h3p2--3---3-3-3-3-2---0---2--|
|pm    . . . .                    . . . .         .  |
|                                                    |
|----------------------------------------------------|
|----------------------------------------------------|
|----------------------------------------------------|
|--3-----------2---0---2h3p2--3-----------2---0---2--|
|--3-----------2---0---2h3p2--3-----------2---0---2--|
|--3---3-3-3-3-2---0---2h3p2--3---3-3-3-3-2---0---2--|
 pm    . . . .                    . . . .         .   

|------------------------------------------------|
|------------------------------------------------|
|------------------------------------------------|
|--3-----------2---0---2h3p2--3-----------2---0--|
|--3-----------2---0---2h3p2--3-----------2---0--|
|--3---3-3-3-3-2---0---2h3p2--3---3-3-3-3-2---0--|
|pm    . . . .                    . . . .        |
|                                                |
|------------------------------------------------|
|------------------------------------------------|
|------------------------------------------------|
|--3-----------2---0---2h3p2--3-----------2---0--|
|--3-----------2---0---2h3p2--3-----------2---0--|
|--3---3-3-3-3-2---0---2h3p2--3---3-3-3-3-2---0--|
 pm    . . . .                    . . . .         

|-------------------------------------------|
|-------------------------------------------|
|-------------------------------------------|
|-------------------------------------------|
|-------------------------------------------|
|--0-0-0--0-0--0-0-0------------------------|
|pm. . .  . .  . . .                        |
|                                           |
|-------------------------------------------|
|-------------------------------------------|
|-------------------------------------------|
|--------------------------------------7\6--|
|--------------------------------------5\4--|
|--0-0-0--0-0--0-0-0--0-0--0-0-0--0-0-------|
 pm. . .  . .  . . .  . .  . . .  . .       

|----------------------------------------------|
|----------------------------------------------|
|----------------------------------------------|
|--------------------------------------7\6/10--|
|--------------------------------------5\4/8---|
|--0-0-0---------------------------------------|
|pm. . .                                       |
|                                              |
|----------------------------------------------|
|----------------------------------------------|
|----------------------------------------------|
|--------------------------------------7\6/10--|
|--------------------------------------5\4/8---|
|--0-0-0--0-0--0-0-0--0-0--0-0-0--0-0----------|
 pm. . .  . .  . . .  . .  . . .  . .          

Guitar solo


|-------------------------------------------|
|-------------------------------------------|
|-------------------------------------------|
|-------------------------------------------|
|-------------------------------------------|
|--0db--------------------------------------|
|                                           |
|                                           |
|-------------------------------------------|
|-------------------------------------------|
|-------------------------------------------|
|--------------------------------------7\6--|
|--------------------------------------5\4--|
|--0-0-0--0-0--0-0-0--0-0--0-0-0--0-0-------|
 pm. . .  . .  . . .  . .  . . .  . .       

|--(10)===================================8----|
|-----------[Gradually release bend]-----------|
|----------------------------------------------|
|----------------------------------------------|
|----------------------------------------------|
|----------------------------------------------|
|                                              |
|                                              |
|----------------------------------------------|
|----------------------------------------------|
|----------------------------------------------|
|--------------------------------------7\6/10--|
|--------------------------------------5\4/8---|
|--0-0-0--0-0--0-0-0--0-0--0-0-0--0-0----------|
|pm. . .  . .  . . .  . .  . . .  . .          |
|                                              |
|----------------------------------------<8>---|
|----------------------------------------------|
|----------------------------------------------|
|----------------------------------------------|
|----------------------------------------------|
|----------------------------------------------|


|--9------------------8---------------------|
|--"------------------"---------------------|
|-------------------------------------------|
|-------------------------------------------|
|-------------------------------------------|
|-------------------------------------------|
|                                           |
|                                           |
|-------------------------------------------|
|-------------------------------------------|
|-------------------------------------------|
|--------------------------------------7\6--|
|--------------------------------------5\4--|
|--0-0-0--0-0--0-0-0--0-0--0-0-0--0-0-------|
 pm. . .  . .  . . .  . .  . . .  . . 

|--5-----------------<4>-----------------------|
|--"-------------------------------------------|
|----------------------------------------------|
|----------------------------------------------|
|----------------------------------------------|
|----------------------------------------------|
|                                              |
|                                              |
|----------------------------------------------|
|----------------------------------------------|
|----------------------------------------------|
|--------------------------------------7\6/10--|
|--------------------------------------5\4/8---|
|--0-0-0--0-0--0-0-0--0-0--0-0-0--0-0----------|
 pm. . .  . .  . . .  . .  . . .  . .           

|--24p20-21p20----20-24p20-21p20----20-24p20-21p20--|
|--------------23----------------23-----------------|
|---------------------------------------------------|
|---------------------------------------------------|
|---------------------------------------------------|
|---------------------------------------------------|
|                                                   |
|                                                   |
|---------------------------------------------------|
|---------------------------------------------------|
|---------------------------------------------------|
|---------------------------------------------------|
|---------------------------------------------------|
|--0---0---0------0---0------0---0---0------0---0---|
 pm.   .   .      .   .      .   .   .      .   .    

|--24p21p20-24p21p20-21p20-21p18p17-21p18p17-18p17--|
|---------------------------------------------------|
|---------------------------------------------------|
|---------------------------------------------------|
|---------------------------------------------------|
|---------------------------------------------------|
|                                                   |
|                                                   |
|---------------------------------------------------|
|---------------------------------------------------|
|---------------------------------------------------|
|-----------------------------------7--\--6---------|
|-----------------------------------5--\--4---------|
|--0----0----0--------0----0------------------------|
 pm.    .    .        .    .

|--/18-15-17-15-14-15-14----14---------------------------------|
|---"--"--"--"--"--"--"--16-"--16-15-16-15-13-15-13-12-13-12---|
|------------------------"-----"--"--"--"--"--"--"--"--"---"---|
|--------------------------------------------------------------|
|--------------------------------------------------------------|
|--------------------------------------------------------------|
|                                                              |
|                                                              |
|--------------------------------------------------------------|
|--------------------------------------------------------------|
|--------------------------------------------------------------|
|--------------------------------------------------------------|
|--------------------------------------------------------------|
|--0--0--0-----0--0-----0--0--0-----0--0-----0--0--0-----0--0--|
 pm.  .  .     .  .     .  .  .     .  .     .  .  .     .  .                

|------------------------|
|-----12-----------------|
|--13-"--13-<12>---------|
|--"-----"---------------|
|------------------------|
|------------------------|
|                        |
|                        |
|------------------------|
|------------------------|
|------------------------|
|------------7--\6/--10--|
|------------5--\4/--8---|
|------------------------|


|----------------------------------------------------------------|
|----------------------------------------------------------------|
|----------------------------------------------------------------|
|--3----------------2----0----2h3p2--3----------------2---0---2--|
|--3----------------2----0----2h3p2--3----------------2---0---2--|
|--3----3--3--3--3--2----0----2h3p2--3---3--3--3--3---2---0---2--|
|pm     .  .  .  .                       .  .  .  .           .  |
|                                                                |
|----------------------------------------------------------------|
|----------------------------------------------------------------|
|----------------------------------------------------------------|
|-----12-11-10----10-11-10--------------12-11-10----10-11-12-11--|
|--------------12----------12-9-8-9--------------12----"--"--"---|
|--15--------------------------------15--------------------------|


|---------------------------------------------------------------------|
|---------------------------------------------------------------------|
|---------------------------------------------------------------------|
|--3--------------------------------2---------0--------2--h--3--p--2--|
|--3--------------------------------2---------0--------2--h--3--p--2--|
|--3--------3----3----3----3--------2---------0--------2--h--3--p--2--|
|pm         .    .    .    .                                          |
|                                                                     |
|---------------------------------------------------------------------|
|---------------------------------------------------------------------|
|---------------------------------------------------------------------|
|--11-11h12p11-10-11-10----11h12p11-10-11-10----11h12p11-10-11-10-----|
|--"--------------------12-------------------12-------------------12--|
|---------------------------------------------------------------------|


|------------------------------------------------------------|
|------------------------------------------------------------|
|------------------------------------------------------------|
|--3----------------------------------------2-------------0--|
|--3----------------------------------------2-------------0--|
|--3--------3-----3-----3-----3-------------2-------------0--|
|           .     .     .     .                              |
|                                                            |
|------------------------------------------------------------|
|------------------------------------------------------------|
|------------------------------------------------------------|
|--11h12p11-10-11-10----11h12p11-10-11-10---------<10>--<3>--|
|--------------------12-------------------12-11-9------------|
|------------------------------------------------------------|


Verse


|---------------------------------------------------------|
|---------------------------------------------------------|
|---------------------------------------------------------|
|--6--6-7-6-6--6-6-6-7/10-10--6--6-7-6-6------------------|
|--4--4-5-4-4--4-4-4-5/8--8---4--4-5-4-4--4-5-2--4-0-<3>--|
|-----------------------------------------"-"-"--"-"------|
|                                                         |
|                                                         |
|---------------------------------------------------------|
|---------------------------------------------------------|
|---------------------------------------------------------|
|--6--6-7-6-6--6-6-6-7/10-10--6--6-7-6-6------------------|
|--4--4-5-4-4--4-4-4-5/8--8---4--4-5-4-4--4-5-2--4-0------|
|-----------------------------------------"-"-"--"-"------|



|---------------------------------------------------------|
|---------------------------------------------------------|
|---------------------------------------------------------|
|--6--6-7-6-6--6-6-6-7/10-10--6--6-7-6-6------------------|
|--4--4-5-4-4--4-4-4-5/8--8---4--4-5-4-4--4-5-2--4-0-<3>--|
|-----------------------------------------"-"-"--"-"------|
|                                                         |
|                                                         |
|---------------------------------------------------------|
|---------------------------------------------------------|
|---------------------------------------------------------|
|--6--6-7-6-6--6-6-6-7/10-10--6--6-7-6-6------------------|
|--4--4-5-4-4--4-4-4-5/8--8---4--4-5-4-4--4-5-2--4-0------|
|-----------------------------------------"-"-"--"-"------|



|---------------------------------------------------------|
|---------------------------------------------------------|
|---------------------------------------------------------|
|--6--6-7-6-6--6-6-6-7/10-10--6--6-7-6-6------------------|
|--4--4-5-4-4--4-4-4-5/8--8---4--4-5-4-4--4-5-2--4-0-<3>--|
|-----------------------------------------"-"-"--"-"------|
|                                                         |
|                                                         |
|---------------------------------------------------------|
|---------------------------------------------------------|
|---------------------------------------------------------|
|--6--6-7-6-6--6-6-6-7/10-10--6--6-7-6-6------------------|
|--4--4-5-4-4--4-4-4-5/8--8---4--4-5-4-4--4-5-2--4-0------|
|-----------------------------------------"-"-"--"-"------|



|---------------------------------------------------------|
|---------------------------------------------------------|
|---------------------------------------------------------|
|--6--6-7-6-6--6-6-6-7/10-10--6--6-7-6-6------------------|
|--4--4-5-4-4--4-4-4-5/8--8---4--4-5-4-4--4-5-2--4-0-<3>--|
|-----------------------------------------"-"-"--"-"------|
|                                                         |
|                                                         |
|---------------------------------------------------------|
|---------------------------------------------------------|
|---------------------------------------------------------|
|--6--6-7-6-6--6-6-6-7/10-10--6--6-7-6-6------------------|
|--4--4-5-4-4--4-4-4-5/8--8---4--4-5-4-4--4-5-2--4-0------|
|-----------------------------------------"-"-"--"-"------|



Chorus


|--------------------------------------------------------------|
|--------------------------------------------------------------|
|--------------------------------------------------------------|
|--11---11---11-11\9-9\7-7---12--11\9--11/12-11----------------|
|--------------------------------------------------------------|
|--11---11---11-11\9-9\7-7---12--11\9--11/12-11----------------|
|                                                              |
|                                                              |
|--------------------------------------------------------------|
|--------------------------------------------------------------|
|--6-----------------------------------------------------------|
|--------------------------------------------------------------|
|--4-------------------------------------------4-5-2--4-0-<3>--|
|----------------------------------------------"-"-"--"-"------|


|--------------------------------------------------------------|
|--------------------------------------------------------------|
|--------------------------------------------------------------|
|--11---11---11-11\9-9\7-7---12--11\9--11/12-11----------------|
|--------------------------------------------------------------|
|--11---11---11-11\9-9\7-7---12--11\9--11/12-11----------------|
|                                                              |
|                                                              |
|--------------------------------------------------------------|
|--------------------------------------------------------------|
|--6-----------------------------------------------------------|
|--------------------------------------------------------------|
|--4-------------------------------------------4-5-2--4-0-<3>--|
|----------------------------------------------"-"-"--"-"------|

Outro


|------------------------------------------------|
|------------------------------------------------|
|------------------------------------------------|
|--11---11---11-11\9-9\7-7---12--11\9--11/12-11--|
|------------------------------------------------|
|--11---11---11-11\9-9\7-7---12--11\9--11/12-11--|
|                                                |
|                                                |
|------------------------------------------------|
|------------------------------------------------|
|------------------------------------------------|
|------------------------------------------------|
|------------------------------------------------|
|------------------------------------------------|

|------------------------------------------------|
|------------------------------------------------|
|------------------------------------------------|
|--11---11---11-11\9-9\7-7---12--11\9--11/12-11--|
|------------------------------------------------|
|--11---11---11-11\9-9\7-7---12--11\9--11/12-11--|
|                                                |
|                                                |
|------------------------------------------------|
|------------------------------------------------|
|------------------------------------------------|
|------------------------------------------------|
|------------------------------------------------|
|------------------------------------------------|


|------------------------------------------------|
|------------------------------------------------|
|------------------------------------------------|
|--11---11---11-11\9-9\7-7---12--11\9--11/12-11--|
|------------------------------------------------|
|--11---11---11-11\9-9\7-7---12--11\9--11/12-11--|
|                                                |
|                                                |
|------------------------------------------------|
|------------------------------------------------|
|------------------------------------------------|
|------------------------------------------------|
|------------------------------------------------|
|------------------------------------------------|


|------------------------------------------------|
|------------------------------------------------|
|------------------------------------------------|
|--11---11---11-11\9-9\7-7---12--11\9--11/12-11--|
|------------------------------------------------|
|--11---11---11-11\9-9\7-7---12--11\9--11/12-11--|
|                                                |
|                                                |
|------------------------------------------------|
|------------------------------------------------|
|------------------------------------------------|
|------------------------------------------------|
|------------------------------------------------|
|------------------------------------------------|... fade out
comments
print report bad tab
8 comments total. Showing first comments.
0 reply
rhampster wrote on April 2 2008, 08:59 am

looks spot on

ill rate it when i get a chance to play it

0 reply
TheBlessed Dead wrote on April 2 2008, 07:18 pm

Sounds almost perfect to me. Great job!!!

0 reply
McMetal wrote on April 18 2008, 07:15 pm

thank you for finally making this tab, excellent job too.

I want to post or [tab]
guest
You may want to rate the tab now too:
select rating
Please do not post tabs as comments. Select "correction" instead!